  0
SECTION
  2
HEADER
  9
$ACADVER
  1
AC1015
  9
$ACADMAINTVER
 70
    20
  9
$DWGCODEPAGE
  3
ANSI_932
  9
$INSBASE
 10
0.0
 20
0.0
 30
0.0
  9
$EXTMIN
 10
620.0449505666247
 20
213.9898124242745
 30
-0.0000000000046115
  9
$EXTMAX
 10
1439.964950566623
 20
790.9098124242746
 30
0.0000000000523004
  9
$LIMMIN
 10
0.0
 20
0.0
  9
$LIMMAX
 10
420.0
 20
297.0
  9
$ORTHOMODE
 70
     0
  9
$REGENMODE
 70
     1
  9
$FILLMODE
 70
     1
  9
$QTEXTMODE
 70
     0
  9
$MIRRTEXT
 70
     0
  9
$LTSCALE
 40
1.0
  9
$ATTMODE
 70
     1
  9
$TEXTSIZE
 40
2.5
  9
$TRACEWID
 40
1.0
  9
$TEXTSTYLE
  7
Standard
  9
$CLAYER
  8
0
  9
$CELTYPE
  6
ByLayer
  9
$CECOLOR
 62
   256
  9
$CELTSCALE
 40
1.0
  9
$DISPSILH
 70
     0
  9
$DIMSCALE
 40
1.0
  9
$DIMASZ
 40
2.5
  9
$DIMEXO
 40
0.625
  9
$DIMDLI
 40
3.75
  9
$DIMRND
 40
0.0
  9
$DIMDLE
 40
0.0
  9
$DIMEXE
 40
1.25
  9
$DIMTP
 40
0.0
  9
$DIMTM
 40
0.0
  9
$DIMTXT
 40
2.5
  9
$DIMCEN
 40
2.5
  9
$DIMTSZ
 40
0.0
  9
$DIMTOL
 70
     0
  9
$DIMLIM
 70
     0
  9
$DIMTIH
 70
     0
  9
$DIMTOH
 70
     0
  9
$DIMSE1
 70
     0
  9
$DIMSE2
 70
     0
  9
$DIMTAD
 70
     1
  9
$DIMZIN
 70
     8
  9
$DIMBLK
  1

  9
$DIMASO
 70
     1
  9
$DIMSHO
 70
     1
  9
$DIMPOST
  1

  9
$DIMAPOST
  1

  9
$DIMALT
 70
     0
  9
$DIMALTD
 70
     3
  9
$DIMALTF
 40
0.03937007874016
  9
$DIMLFAC
 40
1.0
  9
$DIMTOFL
 70
     1
  9
$DIMTVP
 40
0.0
  9
$DIMTIX
 70
     0
  9
$DIMSOXD
 70
     0
  9
$DIMSAH
 70
     0
  9
$DIMBLK1
  1

  9
$DIMBLK2
  1

  9
$DIMSTYLE
  2
ISO-25
  9
$DIMCLRD
 70
     0
  9
$DIMCLRE
 70
     0
  9
$DIMCLRT
 70
     0
  9
$DIMTFAC
 40
1.0
  9
$DIMGAP
 40
0.625
  9
$DIMJUST
 70
     0
  9
$DIMSD1
 70
     0
  9
$DIMSD2
 70
     0
  9
$DIMTOLJ
 70
     0
  9
$DIMTZIN
 70
     8
  9
$DIMALTZ
 70
     0
  9
$DIMALTTZ
 70
     0
  9
$DIMUPT
 70
     0
  9
$DIMDEC
 70
     2
  9
$DIMTDEC
 70
     2
  9
$DIMALTU
 70
     2
  9
$DIMALTTD
 70
     3
  9
$DIMTXSTY
  7
Standard
  9
$DIMAUNIT
 70
     0
  9
$DIMADEC
 70
     0
  9
$DIMALTRND
 40
0.0
  9
$DIMAZIN
 70
     0
  9
$DIMDSEP
 70
    44
  9
$DIMATFIT
 70
     3
  9
$DIMFRAC
 70
     0
  9
$DIMLDRBLK
  1

  9
$DIMLUNIT
 70
     2
  9
$DIMLWD
 70
    -2
  9
$DIMLWE
 70
    -2
  9
$DIMTMOVE
 70
     0
  9
$LUNITS
 70
     2
  9
$LUPREC
 70
     4
  9
$SKETCHINC
 40
1.0
  9
$FILLETRAD
 40
0.0
  9
$AUNITS
 70
     0
  9
$AUPREC
 70
     0
  9
$MENU
  1
.
  9
$ELEVATION
 40
0.0
  9
$PELEVATION
 40
0.0
  9
$THICKNESS
 40
0.0
  9
$LIMCHECK
 70
     0
  9
$CHAMFERA
 40
0.0
  9
$CHAMFERB
 40
0.0
  9
$CHAMFERC
 40
0.0
  9
$CHAMFERD
 40
0.0
  9
$SKPOLY
 70
     0
  9
$TDCREATE
 40
2455419.549152014
  9
$TDUCREATE
 40
2455419.174152014
  9
$TDUPDATE
 40
2455419.550360417
  9
$TDUUPDATE
 40
2455419.175360417
  9
$TDINDWG
 40
0.0005248148
  9
$TDUSRTIMER
 40
0.0005248148
  9
$USRTIMER
 70
     1
  9
$ANGBASE
 50
0.0
  9
$ANGDIR
 70
     0
  9
$PDMODE
 70
     0
  9
$PDSIZE
 40
0.0
  9
$PLINEWID
 40
0.0
  9
$SPLFRAME
 70
     0
  9
$SPLINETYPE
 70
     6
  9
$SPLINESEGS
 70
     8
  9
$HANDSEED
  5
BE4
  9
$SURFTAB1
 70
     6
  9
$SURFTAB2
 70
     6
  9
$SURFTYPE
 70
     6
  9
$SURFU
 70
     6
  9
$SURFV
 70
     6
  9
$UCSBASE
  2

  9
$UCSNAME
  2

  9
$UCSORG
 10
0.0
 20
0.0
 30
0.0
  9
$UCSXDIR
 10
1.0
 20
0.0
 30
0.0
  9
$UCSYDIR
 10
0.0
 20
1.0
 30
0.0
  9
$UCSORTHOREF
  2

  9
$UCSORTHOVIEW
 70
     0
  9
$UCSORGTOP
 10
0.0
 20
0.0
 30
0.0
  9
$UCSORGBOTTOM
 10
0.0
 20
0.0
 30
0.0
  9
$UCSORGLEFT
 10
0.0
 20
0.0
 30
0.0
  9
$UCSORGRIGHT
 10
0.0
 20
0.0
 30
0.0
  9
$UCSORGFRONT
 10
0.0
 20
0.0
 30
0.0
  9
$UCSORGBACK
 10
0.0
 20
0.0
 30
0.0
  9
$PUCSBASE
  2

  9
$PUCSNAME
  2

  9
$PUCSORG
 10
0.0
 20
0.0
 30
0.0
  9
$PUCSXDIR
 10
1.0
 20
0.0
 30
0.0
  9
$PUCSYDIR
 10
0.0
 20
1.0
 30
0.0
  9
$PUCSORTHOREF
  2

  9
$PUCSORTHOVIEW
 70
     0
  9
$PUCSORGTOP
 10
0.0
 20
0.0
 30
0.0
  9
$PUCSORGBOTTOM
 10
0.0
 20
0.0
 30
0.0
  9
$PUCSORGLEFT
 10
0.0
 20
0.0
 30
0.0
  9
$PUCSORGRIGHT
 10
0.0
 20
0.0
 30
0.0
  9
$PUCSORGFRONT
 10
0.0
 20
0.0
 30
0.0
  9
$PUCSORGBACK
 10
0.0
 20
0.0
 30
0.0
  9
$USERI1
 70
     0
  9
$USERI2
 70
     0
  9
$USERI3
 70
     0
  9
$USERI4
 70
     0
  9
$USERI5
 70
     0
  9
$USERR1
 40
0.0
  9
$USERR2
 40
0.0
  9
$USERR3
 40
0.0
  9
$USERR4
 40
0.0
  9
$USERR5
 40
0.0
  9
$WORLDVIEW
 70
     1
  9
$SHADEDGE
 70
     3
  9
$SHADEDIF
 70
    70
  9
$TILEMODE
 70
     1
  9
$MAXACTVP
 70
    64
  9
$PINSBASE
 10
0.0
 20
0.0
 30
0.0
  9
$PLIMCHECK
 70
     0
  9
$PEXTMIN
 10
0.0
 20
0.0
 30
0.0
  9
$PEXTMAX
 10
0.0
 20
0.0
 30
0.0
  9
$PLIMMIN
 10
0.0
 20
0.0
  9
$PLIMMAX
 10
12.0
 20
9.0
  9
$UNITMODE
 70
     0
  9
$VISRETAIN
 70
     1
  9
$PLINEGEN
 70
     0
  9
$PSLTSCALE
 70
     1
  9
$TREEDEPTH
 70
  3020
  9
$CMLSTYLE
  2
Standard
  9
$CMLJUST
 70
     0
  9
$CMLSCALE
 40
20.0
  9
$PROXYGRAPHICS
 70
     1
  9
$MEASUREMENT
 70
     1
  9
$CELWEIGHT
370
    -1
  9
$ENDCAPS
280
     0
  9
$JOINSTYLE
280
     0
  9
$LWDISPLAY
290
     0
  9
$INSUNITS
 70
     4
  9
$HYPERLINKBASE
  1

  9
$STYLESHEET
  1

  9
$XEDIT
290
     1
  9
$CEPSNTYPE
380
     0
  9
$PSTYLEMODE
290
     1
  9
$FINGERPRINTGUID
  2
{FDEAD578-A652-11D2-9A35-0060089B3A3F}
  9
$VERSIONGUID
  2
{2F83A640-1371-45EF-B948-4B4CF43C3B57}
  9
$EXTNAMES
290
     1
  9
$PSVPSCALE
 40
0.0
  9
$OLESTARTUP
290
     0
  0
ENDSEC
  0
SECTION
  2
CLASSES
  0
CLASS
  1
ACDBDICTIONARYWDFLT
  2
AcDbDictionaryWithDefault
  3
ObjectDBX Classes
 90
        0
280
     0
281
     0
  0
CLASS
  1
ACDBPLACEHOLDER
  2
AcDbPlaceHolder
  3
ObjectDBX Classes
 90
        0
280
     0
281
     0
  0
CLASS
  1
LAYOUT
  2
AcDbLayout
  3
ObjectDBX Classes
 90
        0
280
     0
281
     0
  0
CLASS
  1
DICTIONARYVAR
  2
AcDbDictionaryVar
  3
ObjectDBX Classes
 90
        0
280
     0
281
     0
  0
ENDSEC
  0
SECTION
  2
TABLES
  0
TABLE
  2
VPORT
  5
8
330
0
100
AcDbSymbolTable
 70
     2
  0
VPORT
  5
BDA
330
8
100
AcDbSymbolTableRecord
100
AcDbViewportTableRecord
  2
*Active
 70
     0
 10
0.0
 20
0.0
 11
1.0
 21
1.0
 12
1030.004950566624
 22
502.4498124242746
 13
0.0
 23
0.0
 14
10.0
 24
10.0
 15
10.0
 25
10.0
 16
0.0
 26
0.0
 36
1.0
 17
0.0
 27
0.0
 37
0.0
 40
583.8292215568863
 41
2.302
 42
50.0
 43
0.0
 44
0.0
 50
0.0
 51
0.0
 71
     0
 72
  1000
 73
     1
 74
     3
 75
     0
 76
     0
 77
     0
 78
     0
281
     0
 65
     1
110
0.0
120
0.0
130
0.0
111
1.0
121
0.0
131
0.0
112
0.0
122
1.0
132
0.0
 79
     0
146
0.0
  0
ENDTAB
  0
TABLE
  2
LTYPE
  5
5
330
0
100
AcDbSymbolTable
 70
     4
  0
LTYPE
  5
14
330
5
100
AcDbSymbolTableRecord
100
AcDbLinetypeTableRecord
  2
ByBlock
 70
     0
  3

 72
    65
 73
     0
 40
0.0
  0
LTYPE
  5
15
330
5
100
AcDbSymbolTableRecord
100
AcDbLinetypeTableRecord
  2
ByLayer
 70
     0
  3

 72
    65
 73
     0
 40
0.0
  0
LTYPE
  5
16
330
5
100
AcDbSymbolTableRecord
100
AcDbLinetypeTableRecord
  2
Continuous
 70
     0
  3
Solid line
 72
    65
 73
     0
 40
0.0
  0
LTYPE
  5
87
330
5
100
AcDbSymbolTableRecord
100
AcDbLinetypeTableRecord
  2
DASHED2
 70
     0
  3
Dashed (.5x) _ _ _ _ _ _ _ _ _ _ _ _ _ _ _ _ _
 72
    65
 73
     2
 40
9.524999999999998
 49
6.349999999999999
 74
     0
 49
-3.174999999999999
 74
     0
  0
LTYPE
  5
88
330
5
100
AcDbSymbolTableRecord
100
AcDbLinetypeTableRecord
  2
BORDER
 70
     0
  3
__ . __ . 
 72
    65
 73
     4
 40
22.0
 49
20.0
 74
     0
 49
-1.0
 74
     0
 49
0.0
 74
     0
 49
-1.0
 74
     0
  0
LTYPE
  5
89
330
5
100
AcDbSymbolTableRecord
100
AcDbLinetypeTableRecord
  2
DOT
 70
     0
  3

 72
    65
 73
     2
 40
1.0
 49
0.0
 74
     0
 49
-1.0
 74
     0
  0
ENDTAB
  0
TABLE
  2
LAYER
  5
2
102
{ACAD_XDICTIONARY
360
93
102
}
330
0
100
AcDbSymbolTable
 70
     4
  0
LAYER
  5
10
330
2
100
AcDbSymbolTableRecord
100
AcDbLayerTableRecord
  2
0
 70
     0
 62
     7
  6
Continuous
370
    -3
390
F
  0
LAYER
  5
8A
330
2
100
AcDbSymbolTableRecord
100
AcDbLayerTableRecord
  2
PV-95
 70
     2
 62
     7
  6
Continuous
370
    -3
390
F
  0
LAYER
  5
8B
330
2
100
AcDbSymbolTableRecord
100
AcDbLayerTableRecord
  2
図枠
 70
     0
 62
     7
  6
Continuous
370
    50
390
F
  0
LAYER
  5
8C
330
2
100
AcDbSymbolTableRecord
100
AcDbLayerTableRecord
  2
改訂
 70
     0
 62
     7
  6
Continuous
370
    -3
390
F
  0
ENDTAB
  0
TABLE
  2
STYLE
  5
3
330
0
100
AcDbSymbolTable
 70
     2
  0
STYLE
  5
11
330
3
100
AcDbSymbolTableRecord
100
AcDbTextStyleTableRecord
  2
Standard
 70
     0
 40
0.0
 41
1.0
 50
0.0
 71
     0
 42
2.5
  3
txt
  4

  0
STYLE
  5
8D
330
3
100
AcDbSymbolTableRecord
100
AcDbTextStyleTableRecord
  2
ゴシック
 70
     0
 40
0.0
 41
1.0
 50
0.0
 71
     0
 42
1.767676767676767
  3
MS PGothic.ttf
  4

1001
ACAD
1000
MS PGothic
1071
    32818
  0
ENDTAB
  0
TABLE
  2
VIEW
  5
6
330
0
100
AcDbSymbolTable
 70
     0
  0
ENDTAB
  0
TABLE
  2
UCS
  5
7
330
0
100
AcDbSymbolTable
 70
     0
  0
ENDTAB
  0
TABLE
  2
APPID
  5
9
330
0
100
AcDbSymbolTable
 70
     1
  0
APPID
  5
12
330
9
100
AcDbSymbolTableRecord
100
AcDbRegAppTableRecord
  2
ACAD
 70
     0
  0
ENDTAB
  0
TABLE
  2
DIMSTYLE
  5
A
330
0
100
AcDbSymbolTable
 70
     6
100
AcDbDimStyleTable
 71
     0
  0
DIMSTYLE
105
27
330
A
100
AcDbSymbolTableRecord
100
AcDbDimStyleTableRecord
  2
ISO-25
 70
     0
 41
2.5
 42
0.625
 43
3.75
 44
1.25
 73
     0
 74
     0
 77
     1
 78
     8
140
2.5
141
2.5
143
0.03937007874016
147
0.625
171
     3
172
     1
271
     2
272
     2
274
     3
278
    44
283
     0
284
     8
340
11
  0
DIMSTYLE
105
8E
330
A
100
AcDbSymbolTableRecord
100
AcDbDimStyleTableRecord
  2
基本（１：１）
 70
     0
 40
0.0
 41
1.5
 42
2.5
 43
7.0
 44
0.1
 73
     0
 74
     0
 77
     1
 78
     8
140
2.5
141
1.0
143
0.0394
147
0.5
171
     4
172
     1
176
     4
177
     4
178
     4
273
     8
274
     4
340
8D
371
     0
372
     0
  0
DIMSTYLE
105
8F
330
A
100
AcDbSymbolTableRecord
100
AcDbDimStyleTableRecord
  2
基本（１：２）
 70
     0
 40
0.0
 41
2.5
 42
2.5
 43
14.0
 44
2.0
 73
     0
 74
     0
 77
     1
 78
     8
140
5.0
141
2.0
143
0.0394
147
1.0
171
     4
172
     1
176
     4
177
     4
178
     4
271
     1
272
     1
273
     8
274
     4
340
8D
371
     0
372
     0
  0
DIMSTYLE
105
90
330
A
100
AcDbSymbolTableRecord
100
AcDbDimStyleTableRecord
  2
基本（２：１）
 70
     0
 40
0.0
 41
1.0
 42
0.5
 43
3.5
 44
0.5
 73
     0
 74
     0
 77
     1
 78
     8
140
1.25
141
0.5
143
0.0394
147
0.5
171
     4
172
     1
176
     4
177
     4
178
     4
271
     2
272
     2
273
     8
274
     4
340
8D
371
    13
372
    13
  0
DIMSTYLE
105
91
330
A
100
AcDbSymbolTableRecord
100
AcDbDimStyleTableRecord
  2
基本（1：8）
 70
     0
 40
0.0
 41
10.0
 42
10.0
 43
28.0
 44
4.0
 73
     0
 74
     0
 77
     1
 78
     8
140
20.0
141
4.0
143
0.0394
147
5.0
171
     4
172
     1
176
     4
177
     4
178
     4
271
     1
272
     1
273
     8
274
     4
340
8D
371
     0
372
     0
  0
DIMSTYLE
105
92
330
A
100
AcDbSymbolTableRecord
100
AcDbDimStyleTableRecord
  2
（1：3）
 70
     0
 40
0.0
 41
5.0
 42
2.5
 43
28.0
 44
4.0
 73
     0
 74
     0
 77
     1
 78
     8
140
7.5
141
4.0
143
0.0394
147
2.0
171
     4
172
     1
176
     4
177
     4
178
     4
271
     1
272
     1
273
     8
274
     4
340
8D
371
     0
372
     0
  0
ENDTAB
  0
TABLE
  2
BLOCK_RECORD
  5
1
330
0
100
AcDbSymbolTable
 70
     1
  0
BLOCK_RECORD
  5
1F
330
1
100
AcDbSymbolTableRecord
100
AcDbBlockTableRecord
  2
*Model_Space
340
22
  0
BLOCK_RECORD
  5
50
330
1
100
AcDbSymbolTableRecord
100
AcDbBlockTableRecord
  2
*Paper_Space
340
51
  0
BLOCK_RECORD
  5
55
330
1
100
AcDbSymbolTableRecord
100
AcDbBlockTableRecord
  2
*Paper_Space0
340
56
  0
ENDTAB
  0
ENDSEC
  0
SECTION
  2
BLOCKS
  0
BLOCK
  5
20
330
1F
100
AcDbEntity
  8
0
100
AcDbBlockBegin
  2
*Model_Space
 70
     0
 10
0.0
 20
0.0
 30
0.0
  3
*Model_Space
  1

  0
ENDBLK
  5
21
330
1F
100
AcDbEntity
  8
0
100
AcDbBlockEnd
  0
BLOCK
  5
52
330
50
100
AcDbEntity
 67
     1
  8
0
100
AcDbBlockBegin
  2
*Paper_Space
 70
     0
 10
0.0
 20
0.0
 30
0.0
  3
*Paper_Space
  1

  0
ENDBLK
  5
53
330
50
100
AcDbEntity
 67
     1
  8
0
100
AcDbBlockEnd
  0
BLOCK
  5
57
330
55
100
AcDbEntity
  8
0
100
AcDbBlockBegin
  2
*Paper_Space0
 70
     0
 10
0.0
 20
0.0
 30
0.0
  3
*Paper_Space0
  1

  0
ENDBLK
  5
58
330
55
100
AcDbEntity
  8
0
100
AcDbBlockEnd
  0
ENDSEC
  0
SECTION
  2
ENTITIES
  0
MTEXT
  5
637
330
1F
100
AcDbEntity
  8
0
  6
Continuous
370
     0
100
AcDbMText
 10
1274.004950566624
 20
767.4498124242745
 30
0.0
 40
5.0
 41
32.0
 71
     5
 72
     5
  1
{\fMS Gothic|b0|i0|c128|p48;H**.**.**}
  7
ゴシック
 73
     1
 44
1.0
1001
ACAD
1000
MTEXTBEGIN
1070
    73
1070
     1
1070
    44
1040
1.0
1070
    74
1070
     0
1000
MTEXTEND
  0
MTEXT
  5
638
330
1F
100
AcDbEntity
  8
0
  6
Continuous
370
     0
100
AcDbMText
 10
1274.004950566624
 20
777.4498124242746
 30
0.0
 40
5.0
 41
32.0
 71
     5
 72
     5
  1
{\fMS Gothic|b0|i0|c128|p48;改訂日\fArial|b0|i0|c0|p32;}
  7
ゴシック
 73
     1
 44
1.0
1001
ACAD
1000
MTEXTBEGIN
1070
    73
1070
     1
1070
    44
1040
1.0
1070
    74
1070
     0
1000
MTEXTEND
  0
MTEXT
  5
639
330
1F
100
AcDbEntity
  8
0
  6
Continuous
370
     0
100
AcDbMText
 10
1250.004950566624
 20
777.4498124242746
 30
0.0
 40
5.0
 41
16.0
 71
     5
 72
     5
  1
{\fMS Gothic|b0|i0|c128|p48;副番\fArial|b0|i0|c0|p32;}
  7
ゴシック
 73
     1
 44
1.0
1001
ACAD
1000
MTEXTBEGIN
1070
    73
1070
     1
1070
    44
1040
1.0
1070
    74
1070
     0
1000
MTEXTEND
  0
MTEXT
  5
63A
330
1F
100
AcDbEntity
  8
0
  6
Continuous
370
     0
100
AcDbMText
 10
1340.004950566624
 20
767.4498124242745
 30
0.0
 40
5.0
 41
100.0
 71
     5
 72
     5
  1
{\fMS Gothic|b0|i0|c128|p48;**********************}
  7
ゴシック
 73
     1
 44
1.0
1001
ACAD
1000
MTEXTBEGIN
1070
    73
1070
     1
1070
    44
1040
1.0
1070
    74
1070
     0
1000
MTEXTEND
  0
MTEXT
  5
63B
330
1F
100
AcDbEntity
  8
0
  6
Continuous
370
     0
100
AcDbMText
 10
1340.004950566624
 20
777.4498124242746
 30
0.0
 40
5.0
 41
100.0
 71
     5
 72
     5
  1
{\fMS Gothic|b0|i0|c128|p48;改　訂　内　容\fArial|b0|i0|c0|p32;}
  7
ゴシック
 73
     1
 44
1.0
1001
ACAD
1000
MTEXTBEGIN
1070
    73
1070
     1
1070
    44
1040
1.0
1070
    74
1070
     0
1000
MTEXTEND
  0
MTEXT
  5
63C
330
1F
100
AcDbEntity
  8
0
  6
Continuous
370
     0
100
AcDbMText
 10
1400.004950566624
 20
767.4498124242745
 30
0.0
 40
5.0
 41
20.00000000000023
 71
     5
 72
     5
  1
{\fMS Gothic|b0|i0|c128|p48;＊＊}
  7
ゴシック
 73
     1
 44
1.0
1001
ACAD
1000
MTEXTBEGIN
1070
    73
1070
     1
1070
    44
1040
1.0
1070
    74
1070
     0
1000
MTEXTEND
  0
MTEXT
  5
63D
330
1F
100
AcDbEntity
  8
0
  6
Continuous
370
     0
100
AcDbMText
 10
1400.004950566624
 20
777.4498124242746
 30
0.0
 40
5.0
 41
20.00000000000023
 71
     5
 72
     5
  1
{\fMS Gothic|b0|i0|c128|p48;改訂者}
  7
ゴシック
 73
     1
 44
1.0
1001
ACAD
1000
MTEXTBEGIN
1070
    73
1070
     1
1070
    44
1040
1.0
1070
    74
1070
     0
1000
MTEXTEND
  0
MTEXT
  5
63E
330
1F
100
AcDbEntity
  8
0
  6
Continuous
370
     0
100
AcDbMText
 10
1420.004950566624
 20
777.4498124242746
 30
0.0
 40
5.0
 41
20.00000000000023
 71
     5
 72
     5
  1
{\fMS Gothic|b0|i0|c128|p48;検認者}
  7
ゴシック
 73
     1
 44
1.0
1001
ACAD
1000
MTEXTBEGIN
1070
    73
1070
     1
1070
    44
1040
1.0
1070
    74
1070
     0
1000
MTEXTEND
  0
LINE
  5
63F
330
1F
100
AcDbEntity
  8
図枠
 62
     5
370
    18
100
AcDbLine
 10
1249.43637979454
 20
761.9850474237473
 30
0.0
 11
1254.38637979454
 21
753.4113959262813
 31
0.0
  0
LINE
  5
640
330
1F
100
AcDbEntity
  8
図枠
 62
     5
370
    18
100
AcDbLine
 10
1244.486379794539
 20
753.4113959262813
 30
0.0
 11
1254.38637979454
 21
753.4113959262813
 31
0.0
  0
LINE
  5
641
330
1F
100
AcDbEntity
  8
図枠
 62
     5
370
    18
100
AcDbLine
 10
1242.004950566624
 20
752.4498124242746
 30
0.0
 11
1242.004950566624
 21
782.4498124242746
 31
0.0
  0
LINE
  5
642
330
1F
100
AcDbEntity
  8
図枠
 62
     5
370
    18
100
AcDbLine
 10
1410.004950566624
 20
752.4498124242746
 30
0.0
 11
1410.004950566624
 21
782.4498124242746
 31
0.0
  0
LINE
  5
643
330
1F
100
AcDbEntity
  8
図枠
 62
     5
370
    18
100
AcDbLine
 10
1242.004950566624
 20
772.4498124242745
 30
0.0
 11
1430.004950566624
 21
772.4498124242745
 31
0.0
  0
LINE
  5
644
330
1F
100
AcDbEntity
  8
図枠
 62
     5
370
    18
100
AcDbLine
 10
1242.004950566624
 20
762.4498124242745
 30
0.0
 11
1430.004950566624
 21
762.4498124242745
 31
0.0
  0
LINE
  5
645
330
1F
100
AcDbEntity
  8
図枠
 62
     5
370
    18
100
AcDbLine
 10
1242.004950566624
 20
752.4498124242746
 30
0.0
 11
1430.004950566624
 21
752.4498124242746
 31
0.0
  0
LINE
  5
646
330
1F
100
AcDbEntity
  8
図枠
 62
     5
370
    18
100
AcDbLine
 10
1290.004950566624
 20
752.4498124242746
 30
0.0
 11
1290.004950566624
 21
782.4498124242746
 31
0.0
  0
LINE
  5
647
330
1F
100
AcDbEntity
  8
図枠
 62
     5
370
    18
100
AcDbLine
 10
1390.004950566624
 20
752.4498124242746
 30
0.0
 11
1390.004950566624
 21
782.4498124242746
 31
0.0
  0
LINE
  5
648
330
1F
100
AcDbEntity
  8
図枠
 62
     5
370
    18
100
AcDbLine
 10
1258.004950566624
 20
752.4498124242746
 30
0.0
 11
1258.004950566624
 21
782.4498124242746
 31
0.0
  0
LINE
  5
649
330
1F
100
AcDbEntity
  8
図枠
 62
     5
370
    18
100
AcDbLine
 10
1244.486379794539
 20
763.3113959262809
 30
0.0
 11
1254.38637979454
 21
763.3113959262809
 31
0.0
  0
LINE
  5
64A
330
1F
100
AcDbEntity
  8
図枠
 62
     5
370
    18
100
AcDbLine
 10
1249.43637979454
 20
771.885047423747
 30
0.0
 11
1254.38637979454
 21
763.3113959262809
 31
0.0
  0
LINE
  5
64B
330
1F
100
AcDbEntity
  8
図枠
 62
     5
370
    18
100
AcDbLine
 10
1249.43637979454
 20
771.885047423747
 30
0.0
 11
1244.486379794539
 21
763.3113959262809
 31
0.0
  0
LINE
  5
64C
330
1F
100
AcDbEntity
  8
図枠
 62
     5
370
    18
100
AcDbLine
 10
1249.43637979454
 20
761.9850474237473
 30
0.0
 11
1244.486379794539
 21
753.4113959262813
 31
0.0
  0
MTEXT
  5
64D
330
1F
100
AcDbEntity
  8
改訂
370
     5
100
AcDbMText
 10
1249.43637979454
 20
769.4110279059136
 30
0.0
 40
5.397499935150147
 41
7.280617914033714
 71
     2
 72
     1
  1
\W0.8;\fＭＳ ゴシック;\W1.0;1
 73
     1
 44
1.0
1001
ACAD
1000
MTEXTBEGIN
1070
    73
1070
     1
1070
    44
1040
1.0
1070
    74
1070
     0
1000
MTEXTEND
  0
MTEXT
  5
64E
330
1F
100
AcDbEntity
  8
0
  6
Continuous
370
     0
100
AcDbMText
 10
1149.696560305273
 20
233.4498124242746
 30
0.0
 40
11.0
 41
150.0
 71
     4
 72
     5
  1
{\fMS Gothic|b0|i0|c128|p48;株式会社}
  7
ゴシック
 73
     1
 44
1.0
1001
ACAD
1000
MTEXTBEGIN
1070
    73
1070
     1
1070
    44
1040
1.0
1070
    74
1070
     0
1000
MTEXTEND
  0
MTEXT
  5
64F
330
1F
100
AcDbEntity
  8
0
  6
Continuous
370
     0
100
AcDbMText
 10
1360.004950566624
 20
229.0277570313426
 30
0.0
 40
7.0
 41
140.0
 71
     5
 72
     5
  1
{\fMS Gothic|b0|i0|c128|p48;ＳＬＳ００４２２}
  7
ゴシック
 73
     1
 44
1.0
1001
ACAD
1000
MTEXTBEGIN
1070
    73
1070
     1
1070
    44
1040
1.0
1070
    74
1070
     0
1000
MTEXTEND
  0
MTEXT
  5
650
330
1F
100
AcDbEntity
  8
0
  6
Continuous
370
     0
100
AcDbMText
 10
1360.004950566624
 20
252.1365693238295
 30
0.0
 40
7.0
 41
140.0
 71
     5
 72
     5
  1
{\fMS Gothic|b0|i0|c128|p48;棚柱本体：承認図}
  7
ゴシック
 73
     1
 44
1.0
1001
ACAD
1000
MTEXTBEGIN
1070
    73
1070
     1
1070
    44
1040
1.0
1070
    74
1070
     0
1000
MTEXTEND
  0
MTEXT
  5
651
330
1F
100
AcDbEntity
  8
0
  6
Continuous
370
     0
100
AcDbMText
 10
1302.102060448326
 20
239.6758293907374
 30
0.0
 40
6.0
 41
50.0
 71
     5
 72
     5
  1
{\fMS Gothic|b0|i0|c128|p48;図 番}
  7
ゴシック
 73
     1
 44
1.0
1001
ACAD
1000
MTEXTBEGIN
1070
    73
1070
     1
1070
    44
1040
1.0
1070
    74
1070
     0
1000
MTEXTEND
  0
MTEXT
  5
652
330
1F
100
AcDbEntity
  8
0
  6
Continuous
370
     0
100
AcDbMText
 10
1302.102060448326
 20
261.6758293907373
 30
0.0
 40
6.0
 41
50.0
 71
     5
 72
     5
  1
{\fMS Gothic|b0|i0|c128|p48;図面名}
  7
ゴシック
 73
     1
 44
1.0
1001
ACAD
1000
MTEXTBEGIN
1070
    73
1070
     1
1070
    44
1040
1.0
1070
    74
1070
     0
1000
MTEXTEND
  0
MTEXT
  5
653
330
1F
100
AcDbEntity
  8
0
  6
Continuous
370
     0
100
AcDbMText
 10
1302.102060448326
 20
283.6758293907374
 30
0.0
 40
6.0
 41
50.0
 71
     5
 72
     5
  1
{\fMS Gothic|b0|i0|c128|p48;製品名}
  7
ゴシック
 73
     1
 44
1.0
1001
ACAD
1000
MTEXTBEGIN
1070
    73
1070
     1
1070
    44
1040
1.0
1070
    74
1070
     0
1000
MTEXTEND
  0
MTEXT
  5
654
330
1F
100
AcDbEntity
  8
0
  6
Continuous
370
     0
100
AcDbMText
 10
1261.436306113271
 20
249.9498124242746
 30
0.0
 40
6.0
 41
50.0
 71
     5
 72
     5
  1
{\fMS Gothic|b0|i0|c128|p48;＊＊＊}
  7
ゴシック
 73
     1
 44
1.0
1001
ACAD
1000
MTEXTBEGIN
1070
    73
1070
     1
1070
    44
1040
1.0
1070
    74
1070
     0
1000
MTEXTEND
  0
MTEXT
  5
655
330
1F
100
AcDbEntity
  8
0
  6
Continuous
370
     0
100
AcDbMText
 10
1261.436306113271
 20
260.9498124242746
 30
0.0
 40
6.0
 41
50.0
 71
     5
 72
     5
  1
{\fMS Gothic|b0|i0|c128|p48;＊＊＊}
  7
ゴシック
 73
     1
 44
1.0
1001
ACAD
1000
MTEXTBEGIN
1070
    73
1070
     1
1070
    44
1040
1.0
1070
    74
1070
     0
1000
MTEXTEND
  0
MTEXT
  5
656
330
1F
100
AcDbEntity
  8
0
  6
Continuous
370
     0
100
AcDbMText
 10
1226.450545943352
 20
249.9498124242746
 30
0.0
 40
6.0
 41
50.0
 71
     5
 72
     5
  1
{\fMS Gothic|b0|i0|c128|p48;検図}
  7
ゴシック
 73
     1
 44
1.0
1001
ACAD
1000
MTEXTBEGIN
1070
    73
1070
     1
1070
    44
1040
1.0
1070
    74
1070
     0
1000
MTEXTEND
  0
MTEXT
  5
657
330
1F
100
AcDbEntity
  8
0
  6
Continuous
370
     0
100
AcDbMText
 10
1226.450545943352
 20
260.9498124242746
 30
0.0
 40
6.0
 41
50.0
 71
     5
 72
     5
  1
{\fMS Gothic|b0|i0|c128|p48;照査}
  7
ゴシック
 73
     1
 44
1.0
1001
ACAD
1000
MTEXTBEGIN
1070
    73
1070
     1
1070
    44
1040
1.0
1070
    74
1070
     0
1000
MTEXTEND
  0
MTEXT
  5
658
330
1F
100
AcDbEntity
  8
0
  6
Continuous
370
     0
100
AcDbMText
 10
1186.436306113271
 20
249.9498124242746
 30
0.0
 40
6.0
 41
50.0
 71
     5
 72
     5
  1
{\fMS Gothic|b0|i0|c128|p48;峰}
  7
ゴシック
 73
     1
 44
1.0
1001
ACAD
1000
MTEXTBEGIN
1070
    73
1070
     1
1070
    44
1040
1.0
1070
    74
1070
     0
1000
MTEXTEND
  0
MTEXT
  5
659
330
1F
100
AcDbEntity
  8
0
  6
Continuous
370
     0
100
AcDbMText
 10
1186.436306113271
 20
260.9498124242746
 30
0.0
 40
6.0
 41
50.0
 71
     5
 72
     5
  1
{\fMS Gothic|b0|i0|c128|p48;＊＊＊}
  7
ゴシック
 73
     1
 44
1.0
1001
ACAD
1000
MTEXTBEGIN
1070
    73
1070
     1
1070
    44
1040
1.0
1070
    74
1070
     0
1000
MTEXTEND
  0
MTEXT
  5
65A
330
1F
100
AcDbEntity
  8
0
  6
Continuous
370
     0
100
AcDbMText
 10
1151.450545943352
 20
249.9498124242746
 30
0.0
 40
6.0
 41
50.0
 71
     5
 72
     5
  1
{\fMS Gothic|b0|i0|c128|p48;製図}
  7
ゴシック
 73
     1
 44
1.0
1001
ACAD
1000
MTEXTBEGIN
1070
    73
1070
     1
1070
    44
1040
1.0
1070
    74
1070
     0
1000
MTEXTEND
  0
MTEXT
  5
65B
330
1F
100
AcDbEntity
  8
0
  6
Continuous
370
     0
100
AcDbMText
 10
1151.450545943352
 20
260.9498124242746
 30
0.0
 40
6.0
 41
50.0
 71
     5
 72
     5
  1
{\fMS Gothic|b0|i0|c128|p48;設計}
  7
ゴシック
 73
     1
 44
1.0
1001
ACAD
1000
MTEXTBEGIN
1070
    73
1070
     1
1070
    44
1040
1.0
1070
    74
1070
     0
1000
MTEXTEND
  0
MTEXT
  5
65C
330
1F
100
AcDbEntity
  8
0
  6
Continuous
370
     0
100
AcDbMText
 10
1215.004950566624
 20
271.9498124242746
 30
0.0
 40
6.0
 41
50.0
 71
     5
 72
     5
  1
{\fMS Gothic|b0|i0|c128|p48;1：2}
  7
ゴシック
 73
     1
 44
1.0
1001
ACAD
1000
MTEXTBEGIN
1070
    73
1070
     1
1070
    44
1040
1.0
1070
    74
1070
     0
1000
MTEXTEND
  0
MTEXT
  5
65D
330
1F
100
AcDbEntity
  8
0
  6
Continuous
370
     0
100
AcDbMText
 10
1165.004950566624
 20
271.9498124242746
 30
0.0
 40
6.0
 41
50.0
 71
     5
 72
     5
  1
{\fMS Gothic|b0|i0|c128|p48;H22.02.05}
  7
ゴシック
 73
     1
 44
1.0
1001
ACAD
1000
MTEXTBEGIN
1070
    73
1070
     1
1070
    44
1040
1.0
1070
    74
1070
     0
1000
MTEXTEND
  0
MTEXT
  5
65E
330
1F
100
AcDbEntity
  8
0
  6
Continuous
370
     0
100
AcDbMText
 10
1215.004950566624
 20
282.9498124242746
 30
0.0
 40
6.0
 41
50.0
 71
     5
 72
     5
  1
{\fMS Gothic|b0|i0|c128|p48;尺　　度}
  7
ゴシック
 73
     1
 44
1.0
1001
ACAD
1000
MTEXTBEGIN
1070
    73
1070
     1
1070
    44
1040
1.0
1070
    74
1070
     0
1000
MTEXTEND
  0
MTEXT
  5
65F
330
1F
100
AcDbEntity
  8
0
  6
Continuous
370
     0
100
AcDbMText
 10
1165.004950566624
 20
282.9498124242746
 30
0.0
 40
6.0
 41
50.0
 71
     5
 72
     5
  1
{\fMS Gothic|b0|i0|c128|p48;日　　付}
  7
ゴシック
 73
     1
 44
1.0
1001
ACAD
1000
MTEXTBEGIN
1070
    73
1070
     1
1070
    44
1040
1.0
1070
    74
1070
     0
1000
MTEXTEND
  0
CIRCLE
  5
660
330
1F
100
AcDbEntity
  8
図枠
370
    18
100
AcDbCircle
 10
1256.804950566623
 20
277.4498124242746
 30
0.0
 40
4.799999999999954
  0
LINE
  5
661
330
1F
100
AcDbEntity
  8
図枠
370
    18
100
AcDbLine
 10
1267.776785590005
 20
279.8498124242742
 30
0.0
 11
1277.376785590003
 21
282.2498124242748
 31
0.0
  0
LINE
  5
662
330
1F
100
AcDbEntity
  8
図枠
370
    18
100
AcDbLine
 10
1267.776785590005
 20
275.0498124242745
 30
0.0
 11
1277.376785590003
 21
272.6498124242744
 31
0.0
  0
LINE
  5
663
330
1F
100
AcDbEntity
  8
図枠
370
    18
100
AcDbLine
 10
1267.776785590005
 20
279.8498124242742
 30
0.0
 11
1267.776785590005
 21
275.0498124242745
 31
0.0
  0
LINE
  5
664
330
1F
100
AcDbEntity
  8
図枠
370
    18
100
AcDbLine
 10
1277.376785590003
 20
282.2498124242748
 30
0.0
 11
1277.376785590003
 21
272.6498124242744
 31
0.0
  0
LINE
  5
665
330
1F
100
AcDbEntity
  8
図枠
  6
BORDER
370
    18
100
AcDbLine
 10
1256.804950566623
 20
284.6498124242744
 30
0.0
 11
1256.804950566623
 21
270.2498124242747
 31
0.0
  0
LINE
  5
666
330
1F
100
AcDbEntity
  8
図枠
  6
BORDER
370
    18
100
AcDbLine
 10
1256.804950566623
 20
284.6498124242744
 30
0.0
 11
1256.804950566623
 21
270.2498124242747
 31
0.0
  0
LINE
  5
667
330
1F
100
AcDbEntity
  8
図枠
370
    18
100
AcDbLine
 10
1277.376785590003
 20
282.2498124242748
 30
0.0
 11
1277.376785590003
 21
272.6498124242744
 31
0.0
  0
LINE
  5
668
330
1F
100
AcDbEntity
  8
図枠
370
    18
100
AcDbLine
 10
1267.776785590005
 20
279.8498124242742
 30
0.0
 11
1267.776785590005
 21
275.0498124242745
 31
0.0
  0
LINE
  5
669
330
1F
100
AcDbEntity
  8
図枠
370
    18
100
AcDbLine
 10
1267.776785590005
 20
275.0498124242745
 30
0.0
 11
1277.376785590003
 21
272.6498124242744
 31
0.0
  0
LINE
  5
66A
330
1F
100
AcDbEntity
  8
図枠
370
    18
100
AcDbLine
 10
1267.776785590005
 20
279.8498124242742
 30
0.0
 11
1277.376785590003
 21
282.2498124242748
 31
0.0
  0
CIRCLE
  5
66B
330
1F
100
AcDbEntity
  8
図枠
370
    18
100
AcDbCircle
 10
1256.804950566623
 20
277.4498124242746
 30
0.0
 40
4.799999999999954
  0
CIRCLE
  5
66C
330
1F
100
AcDbEntity
  8
図枠
370
    18
100
AcDbCircle
 10
1256.804950566623
 20
277.4498124242746
 30
0.0
 40
2.399999999999977
  0
CIRCLE
  5
66D
330
1F
100
AcDbEntity
  8
図枠
370
    18
100
AcDbCircle
 10
1256.804950566623
 20
277.4498124242746
 30
0.0
 40
4.799999999999954
  0
LINE
  5
66E
330
1F
100
AcDbEntity
  8
図枠
370
    18
100
AcDbLine
 10
1267.776785590005
 20
279.8498124242742
 30
0.0
 11
1277.376785590003
 21
282.2498124242748
 31
0.0
  0
LINE
  5
66F
330
1F
100
AcDbEntity
  8
図枠
370
    18
100
AcDbLine
 10
1267.776785590005
 20
275.0498124242745
 30
0.0
 11
1277.376785590003
 21
272.6498124242744
 31
0.0
  0
LINE
  5
670
330
1F
100
AcDbEntity
  8
図枠
370
    18
100
AcDbLine
 10
1267.776785590005
 20
279.8498124242742
 30
0.0
 11
1267.776785590005
 21
275.0498124242745
 31
0.0
  0
LINE
  5
671
330
1F
100
AcDbEntity
  8
図枠
370
    18
100
AcDbLine
 10
1277.376785590003
 20
282.2498124242748
 30
0.0
 11
1277.376785590003
 21
272.6498124242744
 31
0.0
  0
LINE
  5
672
330
1F
100
AcDbEntity
  8
図枠
370
    18
100
AcDbLine
 10
1248.647455664409
 20
235.9589378230876
 30
0.0
 11
1247.516084814512
 21
234.8275669731893
 31
0.0
  0
LINE
  5
673
330
1F
100
AcDbEntity
  8
図枠
  6
BORDER
370
    18
100
AcDbLine
 10
1249.604950566626
 20
277.4498124242746
 30
0.0
 11
1280.404950566625
 21
277.4498124242746
 31
0.0
  0
CIRCLE
  5
674
330
1F
100
AcDbEntity
  8
図枠
370
    18
100
AcDbCircle
 10
1256.804950566623
 20
277.4498124242746
 30
0.0
 40
2.399999999999977
  0
LINE
  5
675
330
1F
100
AcDbEntity
  8
図枠
370
     5
100
AcDbLine
 10
1430.004950566624
 20
288.4498124242746
 30
0.0
 11
1140.004950566624
 21
288.4498124242746
 31
0.0
  0
LINE
  5
676
330
1F
100
AcDbEntity
  8
図枠
370
    18
100
AcDbLine
 10
1277.376785590003
 20
282.2498124242748
 30
0.0
 11
1277.376785590003
 21
272.6498124242744
 31
0.0
  0
LINE
  5
677
330
1F
100
AcDbEntity
  8
図枠
370
    18
100
AcDbLine
 10
1267.776785590005
 20
279.8498124242742
 30
0.0
 11
1267.776785590005
 21
275.0498124242745
 31
0.0
  0
LINE
  5
678
330
1F
100
AcDbEntity
  8
図枠
370
    18
100
AcDbLine
 10
1267.776785590005
 20
275.0498124242745
 30
0.0
 11
1277.376785590003
 21
272.6498124242744
 31
0.0
  0
LINE
  5
679
330
1F
100
AcDbEntity
  8
図枠
370
    18
100
AcDbLine
 10
1240.647455664409
 20
240.6031583580502
 30
0.0
 11
1240.647455664409
 21
237.0031583580503
 31
0.0
  0
ARC
  5
67A
330
1F
100
AcDbEntity
  8
図枠
370
    18
100
AcDbCircle
 10
1226.326243543196
 20
232.6031583580502
 30
0.0
 40
6.0
100
AcDbArc
 50
270.0
 51
0.0
  0
LINE
  5
67B
330
1F
100
AcDbEntity
  8
図枠
370
     5
100
AcDbLine
 10
1140.004950566634
 20
330.4498124242743
 30
0.0
 11
1140.004950566624
 21
222.4498124242746
 31
0.0
  0
LINE
  5
67C
330
1F
100
AcDbEntity
  8
図枠
370
     5
100
AcDbLine
 10
1215.004950566624
 20
266.4498124242746
 30
0.0
 11
1215.004950566624
 21
244.4498124242746
 31
0.0
  0
LINE
  5
67D
330
1F
100
AcDbEntity
  8
図枠
370
     5
100
AcDbLine
 10
1140.004950566624
 20
244.4498124242746
 30
0.0
 11
1430.004950566624
 21
244.4498124242746
 31
0.0
  0
LINE
  5
67E
330
1F
100
AcDbEntity
  8
図枠
370
     5
100
AcDbLine
 10
1145.004950566624
 20
255.4498124242746
 30
0.0
 11
1210.004950566624
 21
255.4498124242746
 31
0.0
  0
LINE
  5
67F
330
1F
100
AcDbEntity
  8
図枠
370
     5
100
AcDbLine
 10
1220.004950566624
 20
255.4498124242746
 30
0.0
 11
1285.004950566624
 21
255.4498124242746
 31
0.0
  0
LINE
  5
680
330
1F
100
AcDbEntity
  8
図枠
370
     5
100
AcDbLine
 10
1145.004950566624
 20
277.4498124242746
 30
0.0
 11
1185.004950566624
 21
277.4498124242746
 31
0.0
  0
LINE
  5
681
330
1F
100
AcDbEntity
  8
図枠
370
     5
100
AcDbLine
 10
1190.004950566624
 20
330.4498124242743
 30
0.0
 11
1190.004950566624
 21
266.4498124242746
 31
0.0
  0
LINE
  5
682
330
1F
100
AcDbEntity
  8
図枠
370
     5
100
AcDbLine
 10
1140.004950566624
 20
266.4498124242746
 30
0.0
 11
1430.004950566624
 21
266.4498124242746
 31
0.0
  0
LINE
  5
683
330
1F
100
AcDbEntity
  8
図枠
370
     5
100
AcDbLine
 10
1240.004950566624
 20
288.4498124242746
 30
0.0
 11
1240.004950566624
 21
266.4498124242746
 31
0.0
  0
LINE
  5
684
330
1F
100
AcDbEntity
  8
図枠
  6
BORDER
370
    18
100
AcDbLine
 10
1256.804950566623
 20
284.6498124242744
 30
0.0
 11
1256.804950566623
 21
270.2498124242747
 31
0.0
  0
LINE
  5
685
330
1F
100
AcDbEntity
  8
図枠
  6
BORDER
370
    18
100
AcDbLine
 10
1256.804950566623
 20
284.6498124242744
 30
0.0
 11
1256.804950566623
 21
270.2498124242747
 31
0.0
  0
LINE
  5
686
330
1F
100
AcDbEntity
  8
図枠
370
    18
100
AcDbLine
 10
1281.082420960977
 20
237.2031583580501
 30
0.0
 11
1281.082420960977
 21
233.6031583580502
 31
0.0
  0
LINE
  5
687
330
1F
100
AcDbEntity
  8
図枠
370
     5
100
AcDbLine
 10
1195.004950566624
 20
277.4498124242746
 30
0.0
 11
1235.004950566624
 21
277.4498124242746
 31
0.0
  0
LINE
  5
688
330
1F
100
AcDbEntity
  8
図枠
370
    18
100
AcDbLine
 10
1267.776785590005
 20
279.8498124242742
 30
0.0
 11
1277.376785590003
 21
282.2498124242748
 31
0.0
  0
CIRCLE
  5
689
330
1F
100
AcDbEntity
  8
図枠
370
    18
100
AcDbCircle
 10
1256.804950566623
 20
277.4498124242746
 30
0.0
 40
4.799999999999954
  0
CIRCLE
  5
68A
330
1F
100
AcDbEntity
  8
図枠
370
    18
100
AcDbCircle
 10
1256.804950566623
 20
277.4498124242746
 30
0.0
 40
2.399999999999977
  0
CIRCLE
  5
68B
330
1F
100
AcDbEntity
  8
図枠
370
    18
100
AcDbCircle
 10
1256.804950566623
 20
277.4498124242746
 30
0.0
 40
2.399999999999977
  0
LINE
  5
68C
330
1F
100
AcDbEntity
  8
図枠
370
    18
100
AcDbLine
 10
1277.082420960977
 20
225.6031583580502
 30
0.0
 11
1276.276679615616
 21
228.4031583580504
 31
0.0
  0
LINE
  5
68D
330
1F
100
AcDbEntity
  8
図枠
370
    18
100
AcDbLine
 10
1275.2407264573
 20
232.0031583580503
 30
0.0
 11
1281.082420960977
 21
232.0031583580503
 31
0.0
  0
LINE
  5
68E
330
1F
100
AcDbEntity
  8
図枠
370
    18
100
AcDbLine
 10
1240.647455664409
 20
229.6031583580502
 30
0.0
 11
1243.04745566441
 21
229.6031583580502
 31
0.0
  0
LINE
  5
68F
330
1F
100
AcDbEntity
  8
図枠
370
    18
100
AcDbLine
 10
1267.082420960977
 20
240.6031583580502
 30
0.0
 11
1275.082420960977
 21
240.6031583580502
 31
0.0
  0
LINE
  5
690
330
1F
100
AcDbEntity
  8
図枠
370
    18
100
AcDbLine
 10
1218.326243543196
 20
236.6031583580502
 30
0.0
 11
1216.02403592009
 21
236.6031583580502
 31
0.0
  0
LINE
  5
691
330
1F
100
AcDbEntity
  8
図枠
370
    18
100
AcDbLine
 10
1240.647455664409
 20
229.6031583580502
 30
0.0
 11
1240.647455664409
 21
226.6031583580502
 31
0.0
  0
LINE
  5
692
330
1F
100
AcDbEntity
  8
図枠
370
    18
100
AcDbLine
 10
1218.326243543196
 20
233.6031583580502
 30
0.0
 11
1218.02403592009
 21
233.6031583580502
 31
0.0
  0
LINE
  5
693
330
1F
100
AcDbEntity
  8
図枠
370
    18
100
AcDbLine
 10
1218.326243543196
 20
229.6031583580502
 30
0.0
 11
1218.326243543196
 21
226.6031583580502
 31
0.0
  0
ARC
  5
694
330
1F
100
AcDbEntity
  8
図枠
370
    18
100
AcDbCircle
 10
1243.04745566441
 20
237.2031583580501
 30
0.0
 40
7.600000000000061
100
AcDbArc
 50
331.399281383265
 51
358.4920422457571
  0
LINE
  5
695
330
1F
100
AcDbEntity
  8
図枠
370
    18
100
AcDbLine
 10
1232.326243543196
 20
233.6031583580502
 30
0.0
 11
1235.326243543196
 21
233.6031583580502
 31
0.0
  0
ARC
  5
696
330
1F
100
AcDbEntity
  8
図枠
370
    18
100
AcDbCircle
 10
1245.647455664409
 20
237.6031583580502
 30
0.0
 40
11.00000000000013
100
AcDbArc
 50
270.0
 51
302.5449588540348
  0
LINE
  5
697
330
1F
100
AcDbEntity
  8
図枠
370
    18
100
AcDbLine
 10
1216.02403592009
 20
233.6031583580502
 30
0.0
 11
1218.02403592009
 21
233.6031583580502
 31
0.0
  0
ARC
  5
698
330
1F
100
AcDbEntity
  8
図枠
370
    18
100
AcDbCircle
 10
1245.647455664409
 20
237.6031583580502
 30
0.0
 40
11.0
100
AcDbArc
 50
322.4876119797345
 51
0.0
  0
LINE
  5
699
330
1F
100
AcDbEntity
  8
図枠
370
    18
100
AcDbLine
 10
1218.326243543196
 20
226.6031583580502
 30
0.0
 11
1226.326243543196
 21
226.6031583580502
 31
0.0
  0
LINE
  5
69A
330
1F
100
AcDbEntity
  8
図枠
370
    18
100
AcDbLine
 10
1263.082420960977
 20
228.4031583580504
 30
0.0
 11
1270.661087627642
 21
228.4031583580504
 31
0.0
  0
ARC
  5
69B
330
1F
100
AcDbEntity
  8
図枠
370
    18
100
AcDbCircle
 10
1224.326243543196
 20
232.6031583580502
 30
0.0
 40
3.0
100
AcDbArc
 50
270.0
 51
0.0
  0
LINE
  5
69C
330
1F
100
AcDbEntity
  8
図枠
370
    18
100
AcDbLine
 10
1263.082420960977
 20
232.0031583580503
 30
0.0
 11
1263.082420960977
 21
228.4031583580504
 31
0.0
  0
LINE
  5
69D
330
1F
100
AcDbEntity
  8
図枠
370
    18
100
AcDbLine
 10
1218.326243543196
 20
230.6031583580502
 30
0.0
 11
1223.326243543196
 21
230.6031583580502
 31
0.0
  0
LINE
  5
69E
330
1F
100
AcDbEntity
  8
図枠
370
    18
100
AcDbLine
 10
1249.72008064778
 20
233.5650165478305
 30
0.0
 11
1249.238889035149
 21
233.0335398267225
 31
0.0
  0
LINE
  5
69F
330
1F
100
AcDbEntity
  8
図枠
370
    18
100
AcDbLine
 10
1277.082420960977
 20
225.6031583580502
 30
0.0
 11
1271.482420960975
 21
225.6031583580502
 31
0.0
  0
LINE
  5
6A0
330
1F
100
AcDbEntity
  8
図枠
370
    18
100
AcDbLine
 10
1227.326243543196
 20
233.6031583580502
 30
0.0
 11
1227.326243543196
 21
232.6031583580502
 31
0.0
  0
LINE
  5
6A1
330
1F
100
AcDbEntity
  8
図枠
370
    18
100
AcDbLine
 10
1240.647455664409
 20
235.314717288125
 30
0.0
 11
1240.647455664409
 21
235.9589378230876
 31
0.0
  0
LINE
  5
6A2
330
1F
100
AcDbEntity
  8
図枠
370
    18
100
AcDbLine
 10
1216.02403592009
 20
236.6031583580502
 30
0.0
 11
1216.02403592009
 21
233.6031583580502
 31
0.0
  0
LINE
  5
6A3
330
1F
100
AcDbEntity
  8
図枠
370
    18
100
AcDbLine
 10
1235.326243543196
 20
236.6031583580502
 30
0.0
 11
1235.326243543196
 21
233.6031583580502
 31
0.0
  0
LINE
  5
6A4
330
1F
100
AcDbEntity
  8
図枠
370
    18
100
AcDbLine
 10
1235.326243543196
 20
240.6031583580502
 30
0.0
 11
1227.326243543196
 21
240.6031583580502
 31
0.0
  0
LINE
  5
6A5
330
1F
100
AcDbEntity
  8
図枠
370
    18
100
AcDbLine
 10
1232.326243543196
 20
232.6031583580502
 30
0.0
 11
1232.326243543196
 21
233.6031583580502
 31
0.0
  0
LINE
  5
6A6
330
1F
100
AcDbEntity
  8
図枠
370
    18
100
AcDbLine
 10
1263.082420960977
 20
237.2031583580501
 30
0.0
 11
1263.082420960977
 21
233.6031583580502
 31
0.0
  0
LINE
  5
6A7
330
1F
100
AcDbEntity
  8
図枠
370
    18
100
AcDbLine
 10
1227.326243543196
 20
236.6031583580502
 30
0.0
 11
1223.326243543196
 21
236.6031583580502
 31
0.0
  0
LINE
  5
6A8
330
1F
100
AcDbEntity
  8
図枠
370
    18
100
AcDbLine
 10
1226.326243543196
 20
240.6031583580502
 30
0.0
 11
1218.326243543196
 21
240.6031583580502
 31
0.0
  0
LINE
  5
6A9
330
1F
100
AcDbEntity
  8
図枠
370
    18
100
AcDbLine
 10
1223.326243543196
 20
237.6031583580502
 30
0.0
 11
1226.326243543196
 21
240.6031583580502
 31
0.0
  0
LINE
  5
6AA
330
1F
100
AcDbEntity
  8
図枠
370
    18
100
AcDbLine
 10
1218.326243543196
 20
240.6031583580502
 30
0.0
 11
1218.326243543196
 21
236.6031583580502
 31
0.0
  0
LINE
  5
6AB
330
1F
100
AcDbEntity
  8
図枠
370
    18
100
AcDbLine
 10
1276.276679615616
 20
228.4031583580504
 30
0.0
 11
1281.082420960977
 21
228.4031583580504
 31
0.0
  0
LINE
  5
6AC
330
1F
100
AcDbEntity
  8
図枠
370
    18
100
AcDbLine
 10
1268.07975429431
 20
237.2031583580501
 30
0.0
 11
1267.082420960977
 21
240.6031583580502
 31
0.0
  0
LINE
  5
6AD
330
1F
100
AcDbEntity
  8
図枠
370
    18
100
AcDbLine
 10
1263.082420960977
 20
232.0031583580503
 30
0.0
 11
1269.605087627645
 21
232.0031583580503
 31
0.0
  0
LINE
  5
6AE
330
1F
100
AcDbEntity
  8
図枠
370
    18
100
AcDbLine
 10
1275.2407264573
 20
232.0031583580503
 30
0.0
 11
1274.780302831382
 21
233.6031583580502
 31
0.0
  0
ARC
  5
6AF
330
1F
100
AcDbEntity
  8
図枠
370
    18
100
AcDbCircle
 10
1243.04745566441
 20
237.2031583580501
 30
0.0
 40
7.59999999999998
100
AcDbArc
 50
270.0
 51
298.0859048152069
  0
LINE
  5
6B0
330
1F
100
AcDbEntity
  8
図枠
370
    18
100
AcDbLine
 10
1256.647455664409
 20
237.6031583580502
 30
0.0
 11
1258.647455664409
 21
240.6031583580502
 31
0.0
  0
LINE
  5
6B1
330
1F
100
AcDbEntity
  8
図枠
370
    18
100
AcDbLine
 10
1281.082420960977
 20
232.0031583580503
 30
0.0
 11
1281.082420960977
 21
228.4031583580504
 31
0.0
  0
LINE
  5
6B2
330
1F
100
AcDbEntity
  8
図枠
370
    18
100
AcDbLine
 10
1258.647455664409
 20
229.6031583580502
 30
0.0
 11
1258.647455664409
 21
226.6031583580502
 31
0.0
  0
LINE
  5
6B3
330
1F
100
AcDbEntity
  8
図枠
370
    18
100
AcDbLine
 10
1273.744349673066
 20
237.2031583580501
 30
0.0
 11
1281.082420960977
 21
237.2031583580501
 31
0.0
  0
LINE
  5
6B4
330
1F
100
AcDbEntity
  8
図枠
370
    18
100
AcDbLine
 10
1273.744349673066
 20
237.2031583580501
 30
0.0
 11
1273.451561172615
 21
238.2206161389845
 31
0.0
  0
LINE
  5
6B5
330
1F
100
AcDbEntity
  8
図枠
370
    18
100
AcDbLine
 10
1258.647455664409
 20
240.6031583580502
 30
0.0
 11
1240.647455664409
 21
240.6031583580502
 31
0.0
  0
LINE
  5
6B6
330
1F
100
AcDbEntity
  8
図枠
370
    18
100
AcDbLine
 10
1271.482420960975
 20
225.6031583580502
 30
0.0
 11
1270.661087627642
 21
228.4031583580504
 31
0.0
  0
LINE
  5
6B7
330
1F
100
AcDbEntity
  8
図枠
370
    18
100
AcDbLine
 10
1224.326243543196
 20
229.6031583580502
 30
0.0
 11
1218.326243543196
 21
229.6031583580502
 31
0.0
  0
LINE
  5
6B8
330
1F
100
AcDbEntity
  8
図枠
370
    18
100
AcDbLine
 10
1240.647455664409
 20
237.0031583580503
 30
0.0
 11
1250.647455664409
 21
237.0031583580503
 31
0.0
  0
LINE
  5
6B9
330
1F
100
AcDbEntity
  8
図枠
370
    18
100
AcDbLine
 10
1223.326243543196
 20
233.6031583580502
 30
0.0
 11
1227.326243543196
 21
233.6031583580502
 31
0.0
  0
LINE
  5
6BA
330
1F
100
AcDbEntity
  8
図枠
370
    18
100
AcDbLine
 10
1263.082420960977
 20
233.6031583580502
 30
0.0
 11
1269.13575429431
 21
233.6031583580502
 31
0.0
  0
LINE
  5
6BB
330
1F
100
AcDbEntity
  8
図枠
370
    18
100
AcDbLine
 10
1235.326243543196
 20
236.6031583580502
 30
0.0
 11
1232.326243543196
 21
236.6031583580502
 31
0.0
  0
LINE
  5
6BC
330
1F
100
AcDbEntity
  8
図枠
370
    18
100
AcDbLine
 10
1232.326243543196
 20
236.6031583580502
 30
0.0
 11
1232.326243543196
 21
237.6031583580502
 31
0.0
  0
LINE
  5
6BD
330
1F
100
AcDbEntity
  8
図枠
370
    18
100
AcDbLine
 10
1263.082420960977
 20
237.2031583580501
 30
0.0
 11
1268.07975429431
 21
237.2031583580501
 31
0.0
  0
LINE
  5
6BE
330
1F
100
AcDbEntity
  8
図枠
370
    18
100
AcDbLine
 10
1273.451561172615
 20
238.2206161389845
 30
0.0
 11
1275.082420960977
 21
240.6031583580502
 31
0.0
  0
LINE
  5
6BF
330
1F
100
AcDbEntity
  8
図枠
370
    18
100
AcDbLine
 10
1240.647455664409
 20
226.6031583580502
 30
0.0
 11
1240.647455664409
 21
229.6031583580502
 31
0.0
  0
LINE
  5
6C0
330
1F
100
AcDbEntity
  8
図枠
370
     5
100
AcDbLine
 10
1290.004950566624
 20
288.4498124242746
 30
0.0
 11
1290.004950566624
 21
222.4498124242746
 31
0.0
  0
LINE
  5
6C1
330
1F
100
AcDbEntity
  8
図枠
370
    18
100
AcDbLine
 10
1223.326243543196
 20
230.6031583580502
 30
0.0
 11
1223.326243543196
 21
233.6031583580502
 31
0.0
  0
SPLINE
  5
6C2
330
1F
100
AcDbEntity
  8
図枠
370
    18
100
AcDbSpline
210
0.0
220
0.0
230
1.0
 70
     8
 71
     3
 72
     8
 73
     4
 74
     0
 42
0.0000000001
 43
0.0000000001
 40
0.0
 40
0.0
 40
0.0
 40
0.0
 40
1.0
 40
1.0
 40
1.0
 40
1.0
 10
1254.016690249001
 20
230.5561396517242
 30
0.0
 10
1255.496228756058
 20
230.135362752711
 30
0.0
 10
1257.071842210235
 20
229.8692605553806
 30
0.0
 10
1258.647455664409
 20
229.6031583580502
 30
0.0
  0
SPLINE
  5
6C3
330
1F
100
AcDbEntity
  8
図枠
370
    18
100
AcDbSpline
210
0.0
220
0.0
230
1.0
 70
     8
 71
     3
 72
     8
 73
     4
 74
     0
 42
0.0000000001
 43
0.0000000001
 40
0.0
 40
0.0
 40
0.0
 40
0.0
 40
1.0
 40
1.0
 40
1.0
 40
1.0
 10
1247.516084814512
 20
234.8275669731893
 30
0.0
 10
1248.074829669137
 20
234.2045665054029
 30
0.0
 10
1248.633574523765
 20
233.5815660376165
 30
0.0
 10
1249.238889035149
 20
233.0335398267225
 30
0.0
  0
SPLINE
  5
6C4
330
1F
100
AcDbEntity
  8
図枠
370
    18
100
AcDbSpline
210
0.0
220
0.0
230
1.0
 70
     8
 71
     3
 72
     8
 73
     4
 74
     0
 42
0.0000000001
 43
0.0000000001
 40
0.0
 40
0.0
 40
0.0
 40
0.0
 40
1.0
 40
1.0
 40
1.0
 40
1.0
 10
1251.565029252611
 20
228.3304930007635
 30
0.0
 10
1253.84320182491
 20
227.6019160193182
 30
0.0
 10
1256.245328744658
 20
227.1025371886844
 30
0.0
 10
1258.647455664409
 20
226.6031583580502
 30
0.0
  0
SPLINE
  5
6C5
330
1F
100
AcDbEntity
  8
図枠
370
    18
100
AcDbSpline
210
0.0
220
0.0
230
1.0
 70
     8
 71
     3
 72
     9
 73
     5
 74
     0
 42
0.0000000001
 43
0.0000000001
 40
0.0
 40
0.0
 40
0.0
 40
0.0
 40
0.9999999993702068
 40
1.0
 40
1.0
 40
1.0
 40
1.0
 10
1240.647455664409
 20
235.314717288125
 30
0.0
 10
1242.556664871142
 20
233.5548402952104
 30
0.0
 10
1244.465874079079
 20
231.7949633011876
 30
0.0
 10
1246.625496582203
 20
230.4981137473151
 30
0.0
 10
1246.625496583564
 20
230.4981137464984
 30
0.0
  0
LINE
  5
6C6
330
1F
100
AcDbEntity
  8
図枠
370
    18
100
AcDbLine
 10
1218.326243543196
 20
233.6031583580502
 30
0.0
 11
1218.326243543196
 21
230.6031583580502
 31
0.0
  0
LINE
  5
6C7
330
1F
100
AcDbEntity
  8
図枠
370
    18
100
AcDbLine
 10
1232.326243543196
 20
237.6031583580502
 30
0.0
 11
1235.326243543196
 21
240.6031583580502
 31
0.0
  0
LINE
  5
6C8
330
1F
100
AcDbEntity
  8
図枠
370
    18
100
AcDbLine
 10
1269.605087627645
 20
232.0031583580503
 30
0.0
 11
1269.13575429431
 21
233.6031583580502
 31
0.0
  0
LINE
  5
6C9
330
1F
100
AcDbEntity
  8
図枠
370
    18
100
AcDbLine
 10
1223.326243543196
 20
236.6031583580502
 30
0.0
 11
1223.326243543196
 21
237.6031583580502
 31
0.0
  0
LINE
  5
6CA
330
1F
100
AcDbEntity
  8
図枠
370
    18
100
AcDbLine
 10
1254.372894368585
 20
230.9048959401029
 30
0.0
 11
1254.016690249001
 21
230.5561396517242
 31
0.0
  0
LINE
  5
6CB
330
1F
100
AcDbEntity
  8
図枠
370
    18
100
AcDbLine
 10
1256.647455664409
 20
237.6031583580502
 30
0.0
 11
1258.647455664409
 21
240.6031583580502
 31
0.0
  0
LINE
  5
6CC
330
1F
100
AcDbEntity
  8
図枠
370
    18
100
AcDbLine
 10
1227.326243543196
 20
240.6031583580502
 30
0.0
 11
1227.326243543196
 21
236.6031583580502
 31
0.0
  0
LINE
  5
6CD
330
1F
100
AcDbEntity
  8
図枠
370
    18
100
AcDbLine
 10
1274.780302831382
 20
233.6031583580502
 30
0.0
 11
1281.082420960977
 21
233.6031583580502
 31
0.0
  0
LINE
  5
6CE
330
1F
100
AcDbEntity
  8
図枠
370
    18
100
AcDbLine
 10
1240.647455664409
 20
226.6031583580502
 30
0.0
 11
1245.647455664409
 21
226.6031583580502
 31
0.0
  0
LINE
  5
6CF
330
1F
100
AcDbEntity
  8
図枠
370
    18
100
AcDbLine
 10
1240.647455664409
 20
235.9589378230876
 30
0.0
 11
1248.647455664409
 21
235.9589378230876
 31
0.0
  0
LINE
  5
6D0
330
1F
100
AcDbEntity
  8
図枠
370
     5
100
AcDbLine
 10
1430.004950566624
 20
316.4498124242746
 30
0.0
 11
1140.004950566624
 21
316.4498124242746
 31
0.0
  0
LINE
  5
6D1
330
1F
100
AcDbEntity
  8
図枠
370
     5
100
AcDbLine
 10
1430.004950566624
 20
288.4498124242746
 30
0.0
 11
1140.004950566624
 21
288.4498124242746
 31
0.0
  0
LINE
  5
6D2
330
1F
100
AcDbEntity
  8
図枠
370
     5
100
AcDbLine
 10
1430.004950566624
 20
302.4498124242746
 30
0.0
 11
1140.004950566624
 21
302.4498124242746
 31
0.0
  0
MTEXT
  5
6D3
330
1F
100
AcDbEntity
  8
0
  6
Continuous
370
     0
100
AcDbMText
 10
1165.004950566624
 20
295.4498124242746
 30
0.0
 40
7.0
 41
50.0
 71
     5
 72
     5
  1
{\fMS Gothic|b0|i0|c128|p48;一般公差}
  7
ゴシック
 73
     1
 44
1.0
1001
ACAD
1000
MTEXTBEGIN
1070
    73
1070
     1
1070
    44
1040
1.0
1070
    74
1070
     0
1000
MTEXTEND
  0
MTEXT
  5
6D4
330
1F
100
AcDbEntity
  8
0
  6
Continuous
370
     0
100
AcDbMText
 10
1165.004950566624
 20
309.4498124242746
 30
0.0
 40
7.0
 41
50.0
 71
     5
 72
     5
  1
{\fMS Gothic|b0|i0|c128|p48;表面処理}
  7
ゴシック
 73
     1
 44
1.0
1001
ACAD
1000
MTEXTBEGIN
1070
    73
1070
     1
1070
    44
1040
1.0
1070
    74
1070
     0
1000
MTEXTEND
  0
MTEXT
  5
6D5
330
1F
100
AcDbEntity
  8
0
  6
Continuous
370
     0
100
AcDbMText
 10
1310.004950566624
 20
295.4498124242746
 30
0.0
 40
7.0
 41
240.0
 71
     5
 72
     5
  1
{\fMS Gothic|b0|i0|c128|p48;指定無き公差はJIS B0408-Bによること}
  7
ゴシック
 73
     1
 44
1.0
1001
ACAD
1000
MTEXTBEGIN
1070
    73
1070
     1
1070
    44
1040
1.0
1070
    74
1070
     0
1000
MTEXTEND
  0
LINE
  5
6D6
330
1F
100
AcDbEntity
  8
図枠
 62
     5
370
    18
100
AcDbLine
 10
1430.004950566624
 20
222.4498124242746
 30
0.0
 11
1430.004950566624
 21
782.4498124242746
 31
0.0
  0
LINE
  5
6D7
330
1F
100
AcDbEntity
  8
図枠
 62
     5
370
    18
100
AcDbLine
 10
1430.004950566624
 20
222.4498124242746
 30
0.0
 11
630.0049505666238
 21
222.4498124242746
 31
0.0
  0
LINE
  5
6D8
330
1F
100
AcDbEntity
  8
図枠
 62
     5
370
    18
100
AcDbLine
 10
630.0049505666238
 20
222.4498124242746
 30
0.0
 11
630.0049505666238
 21
782.4498124242746
 31
0.0
  0
LINE
  5
6D9
330
1F
100
AcDbEntity
  8
図枠
  6
DOT
370
     5
100
AcDbLine
 10
620.0449505666247
 20
213.9898124242745
 30
0.0
 11
620.0449505666247
 21
790.9098124242746
 31
0.0
  0
LINE
  5
6DA
330
1F
100
AcDbEntity
  8
図枠
  6
DOT
370
     5
100
AcDbLine
 10
620.0449505666247
 20
213.9898124242745
 30
0.0
 11
1439.964950566623
 21
213.9898124242745
 31
0.0
  0
LINE
  5
6DB
330
1F
100
AcDbEntity
  8
図枠
  6
DOT
370
     5
100
AcDbLine
 10
1439.964950566623
 20
790.9098124242746
 30
0.0
 11
620.0449505666247
 21
790.9098124242746
 31
0.0
  0
LINE
  5
6DC
330
1F
100
AcDbEntity
  8
図枠
  6
DOT
370
     5
100
AcDbLine
 10
1439.964950566623
 20
213.9898124242745
 30
0.0
 11
1439.964950566623
 21
790.9098124242746
 31
0.0
  0
LINE
  5
6DD
330
1F
100
AcDbEntity
  8
図枠
 62
     5
370
    18
100
AcDbLine
 10
1430.004950566624
 20
782.4498124242746
 30
0.0
 11
630.0049505666238
 21
782.4498124242746
 31
0.0
  0
MTEXT
  5
6DE
330
1F
100
AcDbEntity
  8
0
  6
Continuous
370
     0
100
AcDbMText
 10
1310.004950566624
 20
309.4498124242746
 30
0.0
 40
7.0
 41
240.0
 71
     5
 72
     5
  1
Ｎｏ{\fMS Gothic|b0|i0|c128|p48;.４仕上／ホワイト焼付塗装仕上}
  7
ゴシック
 73
     1
 44
1.0
1001
ACAD
1000
MTEXTBEGIN
1070
    73
1070
     1
1070
    44
1040
1.0
1070
    74
1070
     0
1000
MTEXTEND
  0
MTEXT
  5
6DF
330
1F
100
AcDbEntity
  8
0
  6
Continuous
370
     0
100
AcDbMText
 10
1382.504950566624
 20
323.4498124242746
 30
0.0
 40
8.0
 41
95.0
 71
     5
 72
     5
  1
{\fMS Gothic|b0|i0|c128|p48;0.8t}
  7
ゴシック
 73
     1
 44
1.0
1001
ACAD
1000
MTEXTBEGIN
1070
    73
1070
     1
1070
    44
1040
1.0
1070
    74
1070
     0
1000
MTEXTEND
  0
MTEXT
  5
6E0
330
1F
100
AcDbEntity
  8
0
  6
Continuous
370
     0
100
AcDbMText
 10
1237.504950566624
 20
323.4498124242746
 30
0.0
 40
8.0
 41
95.0
 71
     5
 72
     5
  1
{\fMS Gothic|b0|i0|c128|p48;SUS430}
  7
ゴシック
 73
     1
 44
1.0
1001
ACAD
1000
MTEXTBEGIN
1070
    73
1070
     1
1070
    44
1040
1.0
1070
    74
1070
     0
1000
MTEXTEND
  0
MTEXT
  5
6E1
330
1F
100
AcDbEntity
  8
0
  6
Continuous
370
     0
100
AcDbMText
 10
1310.004950566624
 20
323.4498124242746
 30
0.0
 40
7.0
 41
50.0
 71
     5
 72
     5
  1
{\fMS Gothic|b0|i0|c128|p48;板　　厚}
  7
ゴシック
 73
     1
 44
1.0
1001
ACAD
1000
MTEXTBEGIN
1070
    73
1070
     1
1070
    44
1040
1.0
1070
    74
1070
     0
1000
MTEXTEND
  0
MTEXT
  5
6E2
330
1F
100
AcDbEntity
  8
0
  6
Continuous
370
     0
100
AcDbMText
 10
1165.004950566624
 20
323.4498124242746
 30
0.0
 40
7.0
 41
50.0
 71
     5
 72
     5
  1
{\fMS Gothic|b0|i0|c128|p48;材　　質}
  7
ゴシック
 73
     1
 44
1.0
1001
ACAD
1000
MTEXTBEGIN
1070
    73
1070
     1
1070
    44
1040
1.0
1070
    74
1070
     0
1000
MTEXTEND
  0
LINE
  5
6E3
330
1F
100
AcDbEntity
  8
図枠
370
     5
100
AcDbLine
 10
1335.004950566624
 20
330.4498124242746
 30
0.0
 11
1335.004950566624
 21
316.4498124242746
 31
0.0
  0
LINE
  5
6E4
330
1F
100
AcDbEntity
  8
図枠
370
     5
100
AcDbLine
 10
1285.004950566624
 20
330.4498124242746
 30
0.0
 11
1285.004950566624
 21
316.4498124242746
 31
0.0
  0
LINE
  5
6E5
330
1F
100
AcDbEntity
  8
図枠
370
     5
100
AcDbLine
 10
1430.004950566624
 20
330.4498124242746
 30
0.0
 11
1140.004950566624
 21
330.4498124242746
 31
0.0
  0
MTEXT
  5
6E6
330
1F
100
AcDbEntity
  8
0
  6
Continuous
370
     0
100
AcDbMText
 10
1364.634402751765
 20
272.6382383379255
 30
0.0
 40
7.0
 41
140.0
 71
     5
 72
     5
  1
{\fMS Gothic|b0|i0|c128|p48;フィット棚柱}
  7
ゴシック
 73
     1
 44
1.0
1001
ACAD
1000
MTEXTBEGIN
1070
    73
1070
     1
1070
    44
1040
1.0
1070
    74
1070
     0
1000
MTEXTEND
  0
LINE
  5
6E7
330
1F
100
AcDbEntity
  8
0
 62
     0
 48
6.0
370
     5
100
AcDbLine
 10
678.2335240137317
 20
497.8799046392878
 30
0.0
 11
983.2335284161226
 21
497.8799046392882
 31
0.0
  0
LINE
  5
6E8
330
1F
100
AcDbEntity
  8
0
 62
     0
 48
6.0
370
     5
100
AcDbLine
 10
678.2335240137317
 20
508.8799046392877
 30
0.0
 11
983.2335284161226
 21
508.8799046392887
 31
0.0
  0
LINE
  5
6E9
330
1F
100
AcDbEntity
  8
0
 62
     0
 48
6.0
370
     5
100
AcDbLine
 10
905.8009663836902
 20
528.3567121369265
 30
0.0
 11
891.979819878442
 21
498.3799046392878
 31
0.0
  0
LINE
  5
6EA
330
1F
100
AcDbEntity
  8
0
 62
     0
 48
6.0
370
     5
100
AcDbLine
 10
868.7228006842497
 20
509.3799046392883
 30
0.0
 11
905.8009663836902
 21
528.3567121369265
 31
0.0
  0
LINE
  5
6EB
330
1F
100
AcDbEntity
  8
0
 62
     0
 48
6.0
370
     5
100
AcDbLine
 10
958.3198198439358
 20
481.8885462998618
 30
0.0
 11
925.0986735296473
 21
501.1463398088667
 31
0.0
  0
LINE
  5
6EC
330
1F
100
AcDbEntity
  8
0
 62
     0
 48
6.0
370
     5
100
AcDbLine
 10
952.5278974353886
 20
500.6921633543027
 30
0.0
 11
958.3198198439358
 21
481.8885462998618
 31
0.0
  0
TEXT
  5
6ED
330
1F
100
AcDbEntity
  8
0
 62
     0
100
AcDbText
 10
957.281600400015
 20
474.011741710276
 30
0.0
 40
6.666499999999999
  1
目印刻印
  7
ゴシック
100
AcDbText
  0
TEXT
  5
6EE
330
1F
100
AcDbEntity
  8
0
 62
     0
100
AcDbText
 10
906.3395189831707
 20
529.0645730459568
 30
0.0
 40
6.666499999999999
  1
デザインライン（Ⅴ溝）
  7
ゴシック
100
AcDbText
  0
LINE
  5
6EF
330
1F
100
AcDbEntity
  8
0
  6
DASHED2
 62
     0
370
    15
100
AcDbLine
 10
678.2335240137317
 20
494.9799046392877
 30
0.0
 11
983.2335284161226
 21
494.9799046392877
 31
0.0
  0
LINE
  5
6F0
330
1F
100
AcDbEntity
  8
0
  6
DASHED2
 62
     0
370
    15
100
AcDbLine
 10
678.2335240137317
 20
511.7799046392879
 30
0.0
 11
983.2335284161226
 21
511.7799046392879
 31
0.0
  0
MTEXT
  5
6F1
330
1F
100
AcDbEntity
  8
0
 62
     0
100
AcDbMText
 10
1059.616137668484
 20
503.3799169659751
 30
0.0
 40
7.5
 41
0.0
 71
     5
 72
     1
  1
\A1;10
  7
ゴシック
 11
0.0000000000000001
 21
1.0
 31
0.0
 73
     1
 44
1.0
1001
ACAD
1000
MTEXTBEGIN
1070
    73
1070
     1
1070
    44
1040
1.0
1070
    74
1070
     0
1000
MTEXTEND
  0
SOLID
  5
6F2
330
1F
100
AcDbEntity
  8
0
 62
     0
100
AcDbTrace
 10
1064.53280433515
 20
498.3799169659737
 30
0.0
 11
1066.199471001818
 21
498.3799169659737
 31
0.0
 12
1065.366137668484
 22
493.3799169659737
 32
0.0
 13
1065.366137668484
 23
493.3799169659737
 33
0.0
  0
SOLID
  5
6F3
330
1F
100
AcDbEntity
  8
0
 62
     0
100
AcDbTrace
 10
1064.53280433515
 20
508.3799169659733
 30
0.0
 11
1066.199471001818
 21
508.3799169659733
 31
0.0
 12
1065.366137668484
 22
513.3799169659733
 32
0.0
 13
1065.366137668484
 23
513.3799169659733
 33
0.0
  0
LINE
  5
6F4
330
1F
100
AcDbEntity
  8
0
 62
     0
370
     0
100
AcDbLine
 10
1065.366137668484
 20
508.3799169659733
 30
0.0
 11
1065.366137668484
 21
498.3799169659737
 31
0.0
  0
LINE
  5
6F5
330
1F
100
AcDbEntity
  8
0
 62
     0
370
     0
100
AcDbLine
 10
1084.844830266252
 20
493.3799169659737
 30
0.0
 11
1061.366137668484
 21
493.3799169659737
 31
0.0
  0
LINE
  5
6F6
330
1F
100
AcDbEntity
  8
0
 62
     0
370
     0
100
AcDbLine
 10
1084.844830266248
 20
513.3799169659733
 30
0.0
 11
1061.366137668484
 21
513.3799169659733
 31
0.0
  0
MTEXT
  5
6F7
330
1F
100
AcDbEntity
  8
0
 62
     0
100
AcDbMText
 10
1087.944830266248
 20
538.9931012617685
 30
0.0
 40
7.5
 41
0.0
 71
     5
 72
     1
  1
\A1;3
  7
ゴシック
 73
     1
 44
1.0
1001
ACAD
1000
MTEXTBEGIN
1070
    73
1070
     1
1070
    44
1040
1.0
1070
    74
1070
     0
1000
MTEXTEND
  0
SOLID
  5
6F8
330
1F
100
AcDbEntity
  8
0
 62
     0
100
AcDbTrace
 10
1095.94483026625
 20
534.0764345951018
 30
0.0
 11
1095.94483026625
 21
532.4097679284352
 31
0.0
 12
1090.94483026625
 22
533.2431012617685
 32
0.0
 13
1090.94483026625
 23
533.2431012617685
 33
0.0
  0
SOLID
  5
6F9
330
1F
100
AcDbEntity
  8
0
 62
     0
100
AcDbTrace
 10
1079.944830266248
 20
534.0764345951018
 30
0.0
 11
1079.944830266248
 21
532.4097679284352
 31
0.0
 12
1084.944830266248
 22
533.2431012617685
 32
0.0
 13
1084.944830266248
 23
533.2431012617685
 33
0.0
  0
LINE
  5
6FA
330
1F
100
AcDbEntity
  8
0
 62
     0
370
     0
100
AcDbLine
 10
1084.944830266248
 20
533.2431012617685
 30
0.0
 11
1090.94483026625
 21
533.2431012617685
 31
0.0
  0
LINE
  5
6FB
330
1F
100
AcDbEntity
  8
0
 62
     0
370
     0
100
AcDbLine
 10
1095.94483026625
 20
533.2431012617685
 30
0.0
 11
1100.94483026625
 21
533.2431012617685
 31
0.0
  0
LINE
  5
6FC
330
1F
100
AcDbEntity
  8
0
 62
     0
370
     0
100
AcDbLine
 10
1079.944830266248
 20
533.2431012617685
 30
0.0
 11
1074.944830266248
 21
533.2431012617685
 31
0.0
  0
LINE
  5
6FD
330
1F
100
AcDbEntity
  8
0
 62
     0
370
     0
100
AcDbLine
 10
1090.94483026625
 20
515.8799169659737
 30
0.0
 11
1090.94483026625
 21
537.2431012617685
 31
0.0
  0
LINE
  5
6FE
330
1F
100
AcDbEntity
  8
0
 62
     0
370
     0
100
AcDbLine
 10
1084.944830266248
 20
513.4799169659731
 30
0.0
 11
1084.944830266248
 21
537.2431012617685
 31
0.0
  0
MTEXT
  5
6FF
330
1F
100
AcDbEntity
  8
0
 62
     0
100
AcDbMText
 10
1108.120666384612
 20
531.4949737841571
 30
0.0
 40
7.5
 41
0.0
 71
     5
 72
     1
  1
\A1;0.8
  7
ゴシック
 11
0.0000000000000001
 21
1.0
 31
0.0
 73
     1
 44
1.0
1001
ACAD
1000
MTEXTBEGIN
1070
    73
1070
     1
1070
    44
1040
1.0
1070
    74
1070
     0
1000
MTEXTEND
  0
SOLID
  5
700
330
1F
100
AcDbEntity
  8
0
 62
     0
100
AcDbTrace
 10
1113.037333051278
 20
518.3799169659737
 30
0.0
 11
1114.703999717946
 21
518.3799169659737
 31
0.0
 12
1113.870666384612
 22
513.3799169659737
 32
0.0
 13
1113.870666384612
 23
513.3799169659737
 33
0.0
  0
SOLID
  5
701
330
1F
100
AcDbEntity
  8
0
 62
     0
100
AcDbTrace
 10
1113.037333051278
 20
506.7799169659751
 30
0.0
 11
1114.703999717946
 21
506.7799169659751
 31
0.0
 12
1113.870666384612
 22
511.7799169659751
 32
0.0
 13
1113.870666384612
 23
511.7799169659751
 33
0.0
  0
LINE
  5
702
330
1F
100
AcDbEntity
  8
0
 62
     0
370
     0
100
AcDbLine
 10
1113.870666384612
 20
511.7799169659751
 30
0.0
 11
1113.870666384612
 21
513.3799169659737
 31
0.0
  0
LINE
  5
703
330
1F
100
AcDbEntity
  8
0
 62
     0
370
     0
100
AcDbLine
 10
1113.870666384612
 20
518.3799169659737
 30
0.0
 11
1113.870666384612
 21
539.6100306023375
 31
0.0
  0
LINE
  5
704
330
1F
100
AcDbEntity
  8
0
 62
     0
370
     0
100
AcDbLine
 10
1113.870666384612
 20
506.7799169659751
 30
0.0
 11
1113.870666384612
 21
501.7799169659752
 31
0.0
  0
LINE
  5
705
330
1F
100
AcDbEntity
  8
0
 62
     0
370
     0
100
AcDbLine
 10
1093.44483026625
 20
513.3799169659737
 30
0.0
 11
1117.870666384612
 21
513.3799169659737
 31
0.0
  0
LINE
  5
706
330
1F
100
AcDbEntity
  8
0
 62
     0
370
     0
100
AcDbLine
 10
1093.44483026625
 20
511.7799169659751
 30
0.0
 11
1117.870666384612
 21
511.7799169659751
 31
0.0
  0
MTEXT
  5
707
330
1F
100
AcDbEntity
  8
0
 62
     0
100
AcDbMText
 10
694.4835240137317
 20
611.3314285382871
 30
0.0
 40
7.5
 41
0.0
 71
     5
 72
     1
  1
\A1;32.5
  7
ゴシック
 73
     1
 44
1.0
1001
ACAD
1000
MTEXTBEGIN
1070
    73
1070
     1
1070
    44
1040
1.0
1070
    74
1070
     0
1000
MTEXTEND
  0
SOLID
  5
708
330
1F
100
AcDbEntity
  8
0
 62
     0
100
AcDbTrace
 10
705.7335240137318
 20
606.4147618716203
 30
0.0
 11
705.7335240137318
 21
604.7480952049538
 31
0.0
 12
710.7335240137317
 22
605.5814285382871
 32
0.0
 13
710.7335240137317
 23
605.5814285382871
 33
0.0
  0
SOLID
  5
709
330
1F
100
AcDbEntity
  8
0
 62
     0
100
AcDbTrace
 10
683.2335240137317
 20
606.4147618716203
 30
0.0
 11
683.2335240137317
 21
604.7480952049538
 31
0.0
 12
678.2335240137317
 22
605.5814285382871
 32
0.0
 13
678.2335240137317
 23
605.5814285382871
 33
0.0
  0
LINE
  5
70A
330
1F
100
AcDbEntity
  8
0
 62
     0
370
     0
100
AcDbLine
 10
683.2335240137317
 20
605.5814285382871
 30
0.0
 11
705.7335240137318
 21
605.5814285382871
 31
0.0
  0
LINE
  5
70B
330
1F
100
AcDbEntity
  8
0
 62
     0
370
     0
100
AcDbLine
 10
710.7335240137317
 20
641.4050357569331
 30
0.0
 11
710.7335240137317
 21
601.5814285382871
 31
0.0
  0
LINE
  5
70C
330
1F
100
AcDbEntity
  8
0
 62
     0
370
     0
100
AcDbLine
 10
678.2335240137317
 20
636.4050357569331
 30
0.0
 11
678.2335240137317
 21
601.5814285382871
 31
0.0
  0
MTEXT
  5
70D
330
1F
100
AcDbEntity
  8
0
 62
     0
100
AcDbMText
 10
1311.983524013732
 20
611.3314285382871
 30
0.0
 40
7.5
 41
0.0
 71
     5
 72
     1
  1
\A1;32.5
  7
ゴシック
 73
     1
 44
1.0
1001
ACAD
1000
MTEXTBEGIN
1070
    73
1070
     1
1070
    44
1040
1.0
1070
    74
1070
     0
1000
MTEXTEND
  0
SOLID
  5
70E
330
1F
100
AcDbEntity
  8
0
 62
     0
100
AcDbTrace
 10
1323.233524013732
 20
606.4147618716203
 30
0.0
 11
1323.233524013732
 21
604.7480952049538
 31
0.0
 12
1328.233524013732
 22
605.5814285382871
 32
0.0
 13
1328.233524013732
 23
605.5814285382871
 33
0.0
  0
SOLID
  5
70F
330
1F
100
AcDbEntity
  8
0
 62
     0
100
AcDbTrace
 10
1300.733524013732
 20
606.4147618716203
 30
0.0
 11
1300.733524013732
 21
604.7480952049538
 31
0.0
 12
1295.733524013732
 22
605.5814285382871
 32
0.0
 13
1295.733524013732
 23
605.5814285382871
 33
0.0
  0
LINE
  5
710
330
1F
100
AcDbEntity
  8
0
 62
     0
370
     0
100
AcDbLine
 10
1300.733524013732
 20
605.5814285382871
 30
0.0
 11
1323.233524013732
 21
605.5814285382871
 31
0.0
  0
LINE
  5
711
330
1F
100
AcDbEntity
  8
0
 62
     0
370
     0
100
AcDbLine
 10
1328.233524013732
 20
636.4050357569322
 30
0.0
 11
1328.233524013732
 21
601.5814285382871
 31
0.0
  0
LINE
  5
712
330
1F
100
AcDbEntity
  8
0
 62
     0
370
     0
100
AcDbLine
 10
1295.733524013732
 20
641.4050357569331
 30
0.0
 11
1295.733524013732
 21
601.5814285382871
 31
0.0
  0
MTEXT
  5
713
330
1F
100
AcDbEntity
  8
0
 62
     0
100
AcDbMText
 10
1003.233524013732
 20
612.6524512655598
 30
0.0
 40
7.5
 41
0.0
 71
     5
 72
     1
  1
\A1;{\fArial|b0|i0|c0|p32;P=}195（ビス止め穴ピッチ）
  7
ゴシック
 73
     1
 44
1.0
1001
ACAD
1000
MTEXTBEGIN
1070
    73
1070
     1
1070
    44
1040
1.0
1070
    74
1070
     0
1000
MTEXTEND
  0
SOLID
  5
714
330
1F
100
AcDbEntity
  8
0
 62
     0
100
AcDbTrace
 10
1290.733524013732
 20
606.4147618716203
 30
0.0
 11
1290.733524013732
 21
604.7480952049538
 31
0.0
 12
1295.733524013732
 22
605.5814285382871
 32
0.0
 13
1295.733524013732
 23
605.5814285382871
 33
0.0
  0
SOLID
  5
715
330
1F
100
AcDbEntity
  8
0
 62
     0
100
AcDbTrace
 10
715.7335240137317
 20
606.4147618716203
 30
0.0
 11
715.7335240137317
 21
604.7480952049538
 31
0.0
 12
710.7335240137317
 22
605.5814285382871
 32
0.0
 13
710.7335240137317
 23
605.5814285382871
 33
0.0
  0
LINE
  5
716
330
1F
100
AcDbEntity
  8
0
 62
     0
370
     0
100
AcDbLine
 10
715.7335240137317
 20
605.5814285382871
 30
0.0
 11
1290.733524013732
 21
605.5814285382871
 31
0.0
  0
LINE
  5
717
330
1F
100
AcDbEntity
  8
0
 62
     0
370
     0
100
AcDbLine
 10
1295.733524013732
 20
641.4050357569331
 30
0.0
 11
1295.733524013732
 21
601.5814285382871
 31
0.0
  0
LINE
  5
718
330
1F
100
AcDbEntity
  8
0
 62
     0
370
     0
100
AcDbLine
 10
710.7335240137317
 20
641.4050357569331
 30
0.0
 11
710.7335240137317
 21
601.5814285382871
 31
0.0
  0
MTEXT
  5
719
330
1F
100
AcDbEntity
  8
0
 62
     0
100
AcDbMText
 10
808.2335240137318
 20
626.8450390681445
 30
0.0
 40
7.5
 41
0.0
 71
     5
 72
     1
  1
\A1;195
  7
ゴシック
 73
     1
 44
1.0
1001
ACAD
1000
MTEXTBEGIN
1070
    73
1070
     1
1070
    44
1040
1.0
1070
    74
1070
     0
1000
MTEXTEND
  0
SOLID
  5
71A
330
1F
100
AcDbEntity
  8
0
 62
     0
100
AcDbTrace
 10
900.7335240137317
 20
621.9283724014778
 30
0.0
 11
900.7335240137317
 21
620.2617057348113
 31
0.0
 12
905.7335240137318
 22
621.0950390681446
 32
0.0
 13
905.7335240137318
 23
621.0950390681446
 33
0.0
  0
SOLID
  5
71B
330
1F
100
AcDbEntity
  8
0
 62
     0
100
AcDbTrace
 10
715.7335240137317
 20
621.9283724014778
 30
0.0
 11
715.7335240137317
 21
620.2617057348113
 31
0.0
 12
710.7335240137317
 22
621.0950390681446
 32
0.0
 13
710.7335240137317
 23
621.0950390681446
 33
0.0
  0
LINE
  5
71C
330
1F
100
AcDbEntity
  8
0
 62
     0
370
     0
100
AcDbLine
 10
715.7335240137317
 20
621.0950390681446
 30
0.0
 11
900.7335240137317
 21
621.0950390681446
 31
0.0
  0
LINE
  5
71D
330
1F
100
AcDbEntity
  8
0
 62
     0
370
     0
100
AcDbLine
 10
905.7335240137318
 20
641.4050357569331
 30
0.0
 11
905.7335240137318
 21
617.0950390681446
 31
0.0
  0
LINE
  5
71E
330
1F
100
AcDbEntity
  8
0
 62
     0
370
     0
100
AcDbLine
 10
710.7335240137317
 20
641.4050357569331
 30
0.0
 11
710.7335240137317
 21
617.0950390681446
 31
0.0
  0
MTEXT
  5
71F
330
1F
100
AcDbEntity
  8
0
 62
     0
100
AcDbMText
 10
1007.575938579684
 20
593.0638893888335
 30
0.0
 40
7.5
 41
0.0
 71
     5
 72
     1
  1
\A1;Ｌ（全長）
  7
ゴシック
 73
     1
 44
1.0
1001
ACAD
1000
MTEXTBEGIN
1070
    73
1070
     1
1070
    44
1040
1.0
1070
    74
1070
     0
1000
MTEXTEND
  0
SOLID
  5
720
330
1F
100
AcDbEntity
  8
0
 62
     0
100
AcDbTrace
 10
1323.233524013732
 20
586.8048931767122
 30
0.0
 11
1323.233524013732
 21
585.1382265100458
 31
0.0
 12
1328.233524013732
 22
585.971559843379
 32
0.0
 13
1328.233524013732
 23
585.971559843379
 33
0.0
  0
SOLID
  5
721
330
1F
100
AcDbEntity
  8
0
 62
     0
100
AcDbTrace
 10
683.2335240137317
 20
586.8048931767122
 30
0.0
 11
683.2335240137317
 21
585.1382265100458
 31
0.0
 12
678.2335240137317
 22
585.971559843379
 32
0.0
 13
678.2335240137317
 23
585.971559843379
 33
0.0
  0
LINE
  5
722
330
1F
100
AcDbEntity
  8
0
 62
     0
370
     0
100
AcDbLine
 10
683.2335240137317
 20
585.971559843379
 30
0.0
 11
1323.233524013732
 21
585.971559843379
 31
0.0
  0
LINE
  5
723
330
1F
100
AcDbEntity
  8
0
 62
     0
370
     0
100
AcDbLine
 10
1328.233524013732
 20
631.4050357569321
 30
0.0
 11
1328.233524013732
 21
581.971559843379
 31
0.0
  0
LINE
  5
724
330
1F
100
AcDbEntity
  8
0
 62
     0
370
     0
100
AcDbLine
 10
678.2335240137317
 20
636.4050357569331
 30
0.0
 11
678.2335240137317
 21
581.971559843379
 31
0.0
  0
MTEXT
  5
725
330
1F
100
AcDbEntity
  8
0
 62
     0
100
AcDbMText
 10
1001.66438635696
 20
704.5930373861797
 30
0.0
 40
7.5
 41
0.0
 71
     5
 72
     1
  1
\A1;{\fArial|b0|i0|c128|p32;P=15(}棚受取付け穴ピッチ{\fArial|b0|i0|c128|p32;)}
  7
ゴシック
 73
     1
 44
1.0
1001
ACAD
1000
MTEXTBEGIN
1070
    73
1070
     1
1070
    44
1040
1.0
1070
    74
1070
     0
1000
MTEXTEND
  0
SOLID
  5
726
330
1F
100
AcDbEntity
  8
0
 62
     0
100
AcDbTrace
 10
1283.233521812538
 20
698.3979616286039
 30
0.0
 11
1283.233521812538
 21
696.7312949619374
 31
0.0
 12
1288.233521812538
 22
697.5646282952707
 32
0.0
 13
1288.233521812538
 23
697.5646282952707
 33
0.0
  0
SOLID
  5
727
330
1F
100
AcDbEntity
  8
0
 62
     0
100
AcDbTrace
 10
723.2335231332536
 20
698.3979616286039
 30
0.0
 11
723.2335231332536
 21
696.7312949619374
 31
0.0
 12
718.2335231332536
 22
697.5646282952707
 32
0.0
 13
718.2335231332536
 23
697.5646282952707
 33
0.0
  0
LINE
  5
728
330
1F
100
AcDbEntity
  8
0
 62
     0
370
     0
100
AcDbLine
 10
723.2335231332536
 20
697.5646282952707
 30
0.0
 11
1283.233521812538
 21
697.5646282952707
 31
0.0
  0
LINE
  5
729
330
1F
100
AcDbEntity
  8
0
 62
     0
370
     0
100
AcDbLine
 10
1288.233521812538
 20
648.4050388386026
 30
0.0
 11
1288.233521812538
 21
701.5646282952707
 31
0.0
  0
LINE
  5
72A
330
1F
100
AcDbEntity
  8
0
 62
     0
370
     0
100
AcDbLine
 10
718.2335231332536
 20
648.405038838604
 30
0.0
 11
718.2335231332536
 21
701.5646282952707
 31
0.0
  0
MTEXT
  5
72B
330
1F
100
AcDbEntity
  8
0
 62
     0
100
AcDbMText
 10
1387.20173214774
 20
672.7585612627222
 30
-0.0000000000001296
 40
7.5
 41
0.0
 71
     5
 72
     1
  1
\A1;3
  7
ゴシック
 73
     1
 44
1.0
1001
ACAD
1000
MTEXTBEGIN
1070
    73
1070
     1
1070
    44
1040
1.0
1070
    74
1070
     0
1000
MTEXTEND
  0
SOLID
  5
72C
330
1F
100
AcDbEntity
  8
0
 62
     0
100
AcDbTrace
 10
1393.70173214774
 20
667.8418945960554
 30
-0.0000000000001296
 11
1393.70173214774
 21
666.1752279293889
 31
-0.0000000000001296
 12
1388.701732147741
 22
667.0085612627222
 32
-0.0000000000001296
 13
1388.701732147741
 23
667.0085612627222
 33
-0.0000000000001296
  0
SOLID
  5
72D
330
1F
100
AcDbEntity
  8
0
 62
     0
100
AcDbTrace
 10
1380.701732147741
 20
667.8418945960554
 30
-0.0000000000001296
 11
1380.701732147741
 21
666.1752279293889
 31
-0.0000000000001296
 12
1385.70173214774
 22
667.0085612627222
 32
-0.0000000000001296
 13
1385.70173214774
 23
667.0085612627222
 33
-0.0000000000001296
  0
LINE
  5
72E
330
1F
100
AcDbEntity
  8
0
 62
     0
370
     0
100
AcDbLine
 10
1385.70173214774
 20
667.0085612627222
 30
-0.0000000000001296
 11
1388.701732147741
 21
667.0085612627222
 31
-0.0000000000001296
  0
LINE
  5
72F
330
1F
100
AcDbEntity
  8
0
 62
     0
370
     0
100
AcDbLine
 10
1393.70173214774
 20
667.0085612627222
 30
-0.0000000000001296
 11
1398.70173214774
 21
667.0085612627222
 31
-0.0000000000001296
  0
LINE
  5
730
330
1F
100
AcDbEntity
  8
0
 62
     0
370
     0
100
AcDbLine
 10
1380.701732147741
 20
667.0085612627222
 30
-0.0000000000001296
 11
1375.70173214774
 21
667.0085612627222
 31
-0.0000000000001296
  0
LINE
  5
731
330
1F
100
AcDbEntity
  8
0
 62
     0
370
     0
100
AcDbLine
 10
1388.701732147741
 20
651.4050357569336
 30
-0.0000000000001296
 11
1388.701732147741
 21
671.0085612627222
 31
-0.0000000000001296
  0
LINE
  5
732
330
1F
100
AcDbEntity
  8
0
 62
     0
370
     0
100
AcDbLine
 10
1385.70173214774
 20
650.6050357569343
 30
-0.0000000000001296
 11
1385.70173214774
 21
671.0085612627222
 31
-0.0000000000001296
  0
MTEXT
  5
733
330
1F
100
AcDbEntity
  8
0
 62
     0
100
AcDbMText
 10
1360.812685542098
 20
665.5925357569331
 30
-0.0000000000001296
 40
7.5
 41
0.0
 71
     5
 72
     1
  1
\A1;10
  7
ゴシック
 11
0.0000000000000001
 21
1.0
 31
0.0
 73
     1
 44
1.0
1001
ACAD
1000
MTEXTBEGIN
1070
    73
1070
     1
1070
    44
1040
1.0
1070
    74
1070
     0
1000
MTEXTEND
  0
SOLID
  5
734
330
1F
100
AcDbEntity
  8
0
 62
     0
100
AcDbTrace
 10
1365.729352208765
 20
653.9050357569313
 30
-0.0000000000001296
 11
1367.396018875433
 21
653.9050357569313
 31
-0.0000000000001296
 12
1366.562685542098
 22
648.9050357569312
 32
-0.0000000000001296
 13
1366.562685542098
 23
648.9050357569312
 33
-0.0000000000001296
  0
SOLID
  5
735
330
1F
100
AcDbEntity
  8
0
 62
     0
100
AcDbTrace
 10
1365.729352208765
 20
633.9050357569313
 30
-0.0000000000001296
 11
1367.396018875433
 21
633.9050357569313
 31
-0.0000000000001296
 12
1366.562685542098
 22
638.9050357569312
 32
-0.0000000000001296
 13
1366.562685542098
 23
638.9050357569312
 33
-0.0000000000001296
  0
LINE
  5
736
330
1F
100
AcDbEntity
  8
0
 62
     0
370
     0
100
AcDbLine
 10
1366.562685542098
 20
638.9050357569312
 30
-0.0000000000001296
 11
1366.562685542098
 21
648.9050357569312
 31
-0.0000000000001296
  0
LINE
  5
737
330
1F
100
AcDbEntity
  8
0
 62
     0
370
     0
100
AcDbLine
 10
1366.562685542098
 20
653.9050357569313
 30
-0.0000000000001296
 11
1366.562685542098
 21
672.2800357569314
 31
-0.0000000000001296
  0
LINE
  5
738
330
1F
100
AcDbEntity
  8
0
 62
     0
370
     0
100
AcDbLine
 10
1366.562685542098
 20
633.9050357569313
 30
-0.0000000000001296
 11
1366.562685542098
 21
628.9050357569313
 31
-0.0000000000001296
  0
LINE
  5
739
330
1F
100
AcDbEntity
  8
0
 62
     0
370
     0
100
AcDbLine
 10
1384.001732147742
 20
648.9050357569312
 30
-0.0000000000001296
 11
1362.562685542099
 21
648.9050357569312
 31
-0.0000000000001296
  0
LINE
  5
73A
330
1F
100
AcDbEntity
  8
0
 62
     0
370
     0
100
AcDbLine
 10
1384.001732147742
 20
638.9050357569312
 30
-0.0000000000001296
 11
1362.562685542099
 21
638.9050357569312
 31
-0.0000000000001296
  0
MTEXT
  5
73B
330
1F
100
AcDbEntity
  8
PV-95
 62
     0
100
AcDbMText
 10
905.7335240137318
 20
669.4987912663687
 30
0.0
 40
7.5
 41
0.0
 71
     5
 72
     1
  1
\A1;195
  7
ゴシック
 73
     1
 44
1.0
1001
ACAD
1000
MTEXTBEGIN
1070
    73
1070
     1
1070
    44
1040
1.0
1070
    74
1070
     0
1000
MTEXTEND
  0
SOLID
  5
73C
330
1F
100
AcDbEntity
  8
PV-95
 62
     0
100
AcDbTrace
 10
998.2335240137317
 20
664.5821245997019
 30
0.0
 11
998.2335240137317
 21
662.9154579330354
 31
0.0
 12
1003.233524013732
 22
663.7487912663686
 32
0.0
 13
1003.233524013732
 23
663.7487912663686
 33
0.0
  0
SOLID
  5
73D
330
1F
100
AcDbEntity
  8
PV-95
 62
     0
100
AcDbTrace
 10
813.2335240137317
 20
664.5821245997019
 30
0.0
 11
813.2335240137317
 21
662.9154579330354
 31
0.0
 12
808.2335240137318
 22
663.7487912663686
 32
0.0
 13
808.2335240137318
 23
663.7487912663686
 33
0.0
  0
LINE
  5
73E
330
1F
100
AcDbEntity
  8
PV-95
 62
     0
370
     0
100
AcDbLine
 10
813.2335240137317
 20
663.7487912663686
 30
0.0
 11
998.2335240137317
 21
663.7487912663686
 31
0.0
  0
LINE
  5
73F
330
1F
100
AcDbEntity
  8
PV-95
 62
     0
370
     0
100
AcDbLine
 10
1003.233524013732
 20
647.7050357569328
 30
0.0
 11
1003.233524013732
 21
667.7487912663687
 31
0.0
  0
LINE
  5
740
330
1F
100
AcDbEntity
  8
PV-95
 62
     0
370
     0
100
AcDbLine
 10
808.2335240137318
 20
647.7050357569328
 30
0.0
 11
808.2335240137318
 21
667.7487912663687
 31
0.0
  0
MTEXT
  5
741
330
1F
100
AcDbEntity
  8
PV-95
 62
     0
100
AcDbMText
 10
763.2335240137317
 20
685.8283632511316
 30
0.0
 40
7.5
 41
0.0
 71
     5
 72
     1
  1
\A1;90
  7
ゴシック
 73
     1
 44
1.0
1001
ACAD
1000
MTEXTBEGIN
1070
    73
1070
     1
1070
    44
1040
1.0
1070
    74
1070
     0
1000
MTEXTEND
  0
SOLID
  5
742
330
1F
100
AcDbEntity
  8
PV-95
 62
     0
100
AcDbTrace
 10
803.2335240137317
 20
680.9116965844648
 30
0.0
 11
803.2335240137317
 21
679.2450299177983
 31
0.0
 12
808.2335240137318
 22
680.0783632511316
 32
0.0
 13
808.2335240137318
 23
680.0783632511316
 33
0.0
  0
SOLID
  5
743
330
1F
100
AcDbEntity
  8
PV-95
 62
     0
100
AcDbTrace
 10
723.2335240137317
 20
680.9116965844648
 30
0.0
 11
723.2335240137317
 21
679.2450299177983
 31
0.0
 12
718.2335240137318
 22
680.0783632511316
 32
0.0
 13
718.2335240137318
 23
680.0783632511316
 33
0.0
  0
LINE
  5
744
330
1F
100
AcDbEntity
  8
PV-95
 62
     0
370
     0
100
AcDbLine
 10
723.2335240137317
 20
680.0783632511316
 30
0.0
 11
803.2335240137317
 21
680.0783632511316
 31
0.0
  0
LINE
  5
745
330
1F
100
AcDbEntity
  8
PV-95
 62
     0
370
     0
100
AcDbLine
 10
808.2335240137318
 20
647.7050357569328
 30
0.0
 11
808.2335240137318
 21
684.0783632511316
 31
0.0
  0
LINE
  5
746
330
1F
100
AcDbEntity
  8
PV-95
 62
     0
370
     0
100
AcDbLine
 10
718.2335240137318
 20
647.8050357569327
 30
0.0
 11
718.2335240137318
 21
684.0783632511316
 31
0.0
  0
MTEXT
  5
747
330
1F
100
AcDbEntity
  8
0
 62
     0
100
AcDbMText
 10
698.2335240137317
 20
703.314628442017
 30
0.0
 40
7.5
 41
0.0
 71
     5
 72
     1
  1
\A1;40
  7
ゴシック
 73
     1
 44
1.0
1001
ACAD
1000
MTEXTBEGIN
1070
    73
1070
     1
1070
    44
1040
1.0
1070
    74
1070
     0
1000
MTEXTEND
  0
SOLID
  5
748
330
1F
100
AcDbEntity
  8
0
 62
     0
100
AcDbTrace
 10
713.2335240137317
 20
698.3979617753503
 30
0.0
 11
713.2335240137317
 21
696.7312951086837
 31
0.0
 12
718.2335240137318
 22
697.564628442017
 32
0.0
 13
718.2335240137318
 23
697.564628442017
 33
0.0
  0
SOLID
  5
749
330
1F
100
AcDbEntity
  8
0
 62
     0
100
AcDbTrace
 10
683.2335240137317
 20
698.3979617753503
 30
0.0
 11
683.2335240137317
 21
696.7312951086837
 31
0.0
 12
678.2335240137317
 22
697.564628442017
 32
0.0
 13
678.2335240137317
 23
697.564628442017
 33
0.0
  0
LINE
  5
74A
330
1F
100
AcDbEntity
  8
0
 62
     0
370
     0
100
AcDbLine
 10
683.2335240137317
 20
697.564628442017
 30
0.0
 11
713.2335240137317
 21
697.564628442017
 31
0.0
  0
LINE
  5
74B
330
1F
100
AcDbEntity
  8
0
 62
     0
370
     0
100
AcDbLine
 10
718.2335240137318
 20
647.8050357569327
 30
0.0
 11
718.2335240137318
 21
701.564628442017
 31
0.0
  0
LINE
  5
74C
330
1F
100
AcDbEntity
  8
0
 62
     0
370
     0
100
AcDbLine
 10
678.2335240137317
 20
651.4050357569331
 30
0.0
 11
678.2335240137317
 21
701.564628442017
 31
0.0
  0
MTEXT
  5
74D
330
1F
100
AcDbEntity
  8
0
 62
     0
100
AcDbMText
 10
1308.233524013732
 20
703.3146286621363
 30
0.0
 40
7.5
 41
0.0
 71
     5
 72
     1
  1
\A1;40
  7
ゴシック
 73
     1
 44
1.0
1001
ACAD
1000
MTEXTBEGIN
1070
    73
1070
     1
1070
    44
1040
1.0
1070
    74
1070
     0
1000
MTEXTEND
  0
SOLID
  5
74E
330
1F
100
AcDbEntity
  8
0
 62
     0
100
AcDbTrace
 10
1323.233524013732
 20
698.3979619954696
 30
0.0
 11
1323.233524013732
 21
696.731295328803
 31
0.0
 12
1328.233524013732
 22
697.5646286621363
 32
0.0
 13
1328.233524013732
 23
697.5646286621363
 33
0.0
  0
SOLID
  5
74F
330
1F
100
AcDbEntity
  8
0
 62
     0
100
AcDbTrace
 10
1293.233524013732
 20
698.3979619954696
 30
0.0
 11
1293.233524013732
 21
696.731295328803
 31
0.0
 12
1288.233524013732
 22
697.5646286621363
 32
0.0
 13
1288.233524013732
 23
697.5646286621363
 33
0.0
  0
LINE
  5
750
330
1F
100
AcDbEntity
  8
0
 62
     0
370
     0
100
AcDbLine
 10
1293.233524013732
 20
697.5646286621363
 30
0.0
 11
1323.233524013732
 21
697.5646286621363
 31
0.0
  0
LINE
  5
751
330
1F
100
AcDbEntity
  8
0
 62
     0
370
     0
100
AcDbLine
 10
1328.233524013732
 20
651.4050357569331
 30
0.0
 11
1328.233524013732
 21
701.5646286621363
 31
0.0
  0
LINE
  5
752
330
1F
100
AcDbEntity
  8
0
 62
     0
370
     0
100
AcDbLine
 10
1288.233524013732
 20
647.8050357569327
 30
0.0
 11
1288.233524013732
 21
701.5646286621363
 31
0.0
  0
MTEXT
  5
753
330
1F
100
AcDbEntity
  8
0
 62
     0
100
AcDbMText
 10
725.2805480508913
 20
669.4987912663687
 30
0.0
 40
7.5
 41
0.0
 71
     5
 72
     1
  1
\A1;15
  7
ゴシック
 73
     1
 44
1.0
1001
ACAD
1000
MTEXTBEGIN
1070
    73
1070
     1
1070
    44
1040
1.0
1070
    74
1070
     0
1000
MTEXTEND
  0
SOLID
  5
754
330
1F
100
AcDbEntity
  8
0
 62
     0
100
AcDbTrace
 10
728.2335240137317
 20
664.5821245997019
 30
0.0
 11
728.2335240137317
 21
662.9154579330354
 31
0.0
 12
733.2335240137317
 22
663.7487912663686
 32
0.0
 13
733.2335240137317
 23
663.7487912663686
 33
0.0
  0
SOLID
  5
755
330
1F
100
AcDbEntity
  8
0
 62
     0
100
AcDbTrace
 10
723.2335240137317
 20
664.5821245997019
 30
0.0
 11
723.2335240137317
 21
662.9154579330354
 31
0.0
 12
718.2335240137318
 22
663.7487912663686
 32
0.0
 13
718.2335240137318
 23
663.7487912663686
 33
0.0
  0
LINE
  5
756
330
1F
100
AcDbEntity
  8
0
 62
     0
370
     0
100
AcDbLine
 10
723.2335240137317
 20
663.7487912663686
 30
0.0
 11
728.2335240137317
 21
663.7487912663686
 31
0.0
  0
LINE
  5
757
330
1F
100
AcDbEntity
  8
0
 62
     0
370
     0
100
AcDbLine
 10
733.2335240137317
 20
647.7050357569328
 30
0.0
 11
733.2335240137317
 21
667.7487912663687
 31
0.0
  0
LINE
  5
758
330
1F
100
AcDbEntity
  8
0
 62
     0
370
     0
100
AcDbLine
 10
718.2335240137318
 20
647.8050357569327
 30
0.0
 11
718.2335240137318
 21
667.7487912663687
 31
0.0
  0
MTEXT
  5
759
330
1F
100
AcDbEntity
  8
0
 62
     0
100
AcDbMText
 10
1243.233524013732
 20
685.8283632511316
 30
0.0
 40
7.5
 41
0.0
 71
     5
 72
     1
  1
\A1;90
  7
ゴシック
 73
     1
 44
1.0
1001
ACAD
1000
MTEXTBEGIN
1070
    73
1070
     1
1070
    44
1040
1.0
1070
    74
1070
     0
1000
MTEXTEND
  0
SOLID
  5
75A
330
1F
100
AcDbEntity
  8
0
 62
     0
100
AcDbTrace
 10
1283.233524013732
 20
680.9116965844648
 30
0.0
 11
1283.233524013732
 21
679.2450299177983
 31
0.0
 12
1288.233524013732
 22
680.0783632511316
 32
0.0
 13
1288.233524013732
 23
680.0783632511316
 33
0.0
  0
SOLID
  5
75B
330
1F
100
AcDbEntity
  8
0
 62
     0
100
AcDbTrace
 10
1203.233524013732
 20
680.9116965844648
 30
0.0
 11
1203.233524013732
 21
679.2450299177983
 31
0.0
 12
1198.233524013732
 22
680.0783632511316
 32
0.0
 13
1198.233524013732
 23
680.0783632511316
 33
0.0
  0
LINE
  5
75C
330
1F
100
AcDbEntity
  8
0
 62
     0
370
     0
100
AcDbLine
 10
1203.233524013732
 20
680.0783632511316
 30
0.0
 11
1283.233524013732
 21
680.0783632511316
 31
0.0
  0
LINE
  5
75D
330
1F
100
AcDbEntity
  8
0
 62
     0
370
     0
100
AcDbLine
 10
1288.233524013732
 20
647.8050357569327
 30
0.0
 11
1288.233524013732
 21
684.0783632511316
 31
0.0
  0
LINE
  5
75E
330
1F
100
AcDbEntity
  8
0
 62
     0
370
     0
100
AcDbLine
 10
1198.233524013732
 20
647.8050357569327
 30
0.0
 11
1198.233524013732
 21
684.0783632511316
 31
0.0
  0
MTEXT
  5
75F
330
1F
100
AcDbEntity
  8
0
 62
     0
100
AcDbMText
 10
1003.233524013732
 20
687.0854655238588
 30
0.0
 40
7.5
 41
0.0
 71
     5
 72
     1
  1
\A1;P=195（刻印ピッチ）
  7
ゴシック
 73
     1
 44
1.0
1001
ACAD
1000
MTEXTBEGIN
1070
    73
1070
     1
1070
    44
1040
1.0
1070
    74
1070
     0
1000
MTEXTEND
  0
SOLID
  5
760
330
1F
100
AcDbEntity
  8
0
 62
     0
100
AcDbTrace
 10
1193.233524013732
 20
680.9116965844648
 30
0.0
 11
1193.233524013732
 21
679.2450299177983
 31
0.0
 12
1198.233524013732
 22
680.0783632511316
 32
0.0
 13
1198.233524013732
 23
680.0783632511316
 33
0.0
  0
SOLID
  5
761
330
1F
100
AcDbEntity
  8
0
 62
     0
100
AcDbTrace
 10
813.2335240137317
 20
680.9116965844648
 30
0.0
 11
813.2335240137317
 21
679.2450299177983
 31
0.0
 12
808.2335240137318
 22
680.0783632511316
 32
0.0
 13
808.2335240137318
 23
680.0783632511316
 33
0.0
  0
LINE
  5
762
330
1F
100
AcDbEntity
  8
0
 62
     0
370
     0
100
AcDbLine
 10
813.2335240137317
 20
680.0783632511316
 30
0.0
 11
1193.233524013732
 21
680.0783632511316
 31
0.0
  0
LINE
  5
763
330
1F
100
AcDbEntity
  8
0
 62
     0
370
     0
100
AcDbLine
 10
1198.233524013732
 20
647.8050357569327
 30
0.0
 11
1198.233524013732
 21
684.0783632511316
 31
0.0
  0
LINE
  5
764
330
1F
100
AcDbEntity
  8
0
 62
     0
370
     0
100
AcDbLine
 10
808.2335240137318
 20
650.2050357569328
 30
0.0
 11
808.2335240137318
 21
684.0783632511316
 31
0.0
  0
TEXT
  5
765
330
1F
100
AcDbEntity
  8
0
 62
     0
100
AcDbText
 10
1072.228965886831
 20
476.5632961777287
 30
0.0
 40
6.666499999999999
  1
＜拡大図＞
  7
ゴシック
100
AcDbText
  0
TEXT
  5
766
330
1F
100
AcDbEntity
  8
0
 62
     0
100
AcDbText
 10
816.1841764012633
 20
476.5632961777287
 30
0.0
 40
6.666499999999999
  1
＜拡大図＞
  7
ゴシック
100
AcDbText
  0
CIRCLE
  5
767
330
1F
100
AcDbEntity
  8
0
 62
     0
370
     5
100
AcDbCircle
 10
1191.233524013733
 20
644.7710611607167
 30
0.0
 40
0.5
  0
CIRCLE
  5
768
330
1F
100
AcDbEntity
  8
0
 62
     0
370
     5
100
AcDbCircle
 10
1191.233524013733
 20
643.0390103531485
 30
0.0
 40
0.5
  0
CIRCLE
  5
769
330
1F
100
AcDbEntity
  8
0
 62
     0
370
     5
100
AcDbCircle
 10
1189.733524013733
 20
643.9050357569326
 30
0.0
 40
0.5
  0
CIRCLE
  5
76A
330
1F
100
AcDbEntity
  8
0
 62
     0
370
     5
100
AcDbCircle
 10
1205.233524013733
 20
643.0390103531485
 30
0.0
 40
0.5
  0
CIRCLE
  5
76B
330
1F
100
AcDbEntity
  8
0
 62
     0
370
     5
100
AcDbCircle
 10
1205.233524013733
 20
644.7710611607167
 30
0.0
 40
0.5
  0
CIRCLE
  5
76C
330
1F
100
AcDbEntity
  8
0
 62
     0
370
     5
100
AcDbCircle
 10
1206.733524013733
 20
643.9050357569326
 30
0.0
 40
0.5
  0
CIRCLE
  5
76D
330
1F
100
AcDbEntity
  8
0
 62
     0
370
     5
100
AcDbCircle
 10
996.2335240137335
 20
644.7710611607167
 30
0.0
 40
0.5
  0
CIRCLE
  5
76E
330
1F
100
AcDbEntity
  8
0
 62
     0
370
     5
100
AcDbCircle
 10
996.2335240137335
 20
643.0390103531485
 30
0.0
 40
0.5
  0
CIRCLE
  5
76F
330
1F
100
AcDbEntity
  8
0
 62
     0
370
     5
100
AcDbCircle
 10
994.7335240137336
 20
643.9050357569326
 30
0.0
 40
0.5
  0
CIRCLE
  5
770
330
1F
100
AcDbEntity
  8
0
 62
     0
370
     5
100
AcDbCircle
 10
1010.233524013733
 20
643.0390103531485
 30
0.0
 40
0.5
  0
CIRCLE
  5
771
330
1F
100
AcDbEntity
  8
0
 62
     0
370
     5
100
AcDbCircle
 10
1010.233524013733
 20
644.7710611607167
 30
0.0
 40
0.5
  0
CIRCLE
  5
772
330
1F
100
AcDbEntity
  8
0
 62
     0
370
     5
100
AcDbCircle
 10
1011.733524013733
 20
643.9050357569326
 30
0.0
 40
0.5
  0
CIRCLE
  5
773
330
1F
100
AcDbEntity
  8
0
 62
     0
370
     5
100
AcDbCircle
 10
801.2335240137336
 20
644.7710611607167
 30
0.0
 40
0.5
  0
CIRCLE
  5
774
330
1F
100
AcDbEntity
  8
0
 62
     0
370
     5
100
AcDbCircle
 10
801.2335240137336
 20
643.0390103531485
 30
0.0
 40
0.5
  0
CIRCLE
  5
775
330
1F
100
AcDbEntity
  8
0
 62
     0
370
     5
100
AcDbCircle
 10
799.7335240137336
 20
643.9050357569326
 30
0.0
 40
0.5
  0
CIRCLE
  5
776
330
1F
100
AcDbEntity
  8
0
 62
     0
370
     5
100
AcDbCircle
 10
815.2335240137336
 20
643.0390103531485
 30
0.0
 40
0.5
  0
CIRCLE
  5
777
330
1F
100
AcDbEntity
  8
0
 62
     0
370
     5
100
AcDbCircle
 10
815.2335240137336
 20
644.7710611607167
 30
0.0
 40
0.5
  0
CIRCLE
  5
778
330
1F
100
AcDbEntity
  8
0
 62
     0
370
     5
100
AcDbCircle
 10
816.7335240137335
 20
643.9050357569326
 30
0.0
 40
0.5
  0
CIRCLE
  5
779
330
1F
100
AcDbEntity
  8
0
 62
     0
 48
6.0
370
     5
100
AcDbCircle
 10
710.7335240137335
 20
643.9050357569326
 30
0.0
 40
3.5
  0
CIRCLE
  5
77A
330
1F
100
AcDbEntity
  8
0
 62
     0
 48
6.0
370
     5
100
AcDbCircle
 10
905.7335240137335
 20
643.9050357569326
 30
0.0
 40
3.5
  0
CIRCLE
  5
77B
330
1F
100
AcDbEntity
  8
0
 62
     0
 48
6.0
370
     5
100
AcDbCircle
 10
1100.733524013733
 20
643.9050357569326
 30
0.0
 40
3.5
  0
CIRCLE
  5
77C
330
1F
100
AcDbEntity
  8
0
 62
     0
 48
6.0
370
     5
100
AcDbCircle
 10
1295.733524013733
 20
643.9050357569326
 30
0.0
 40
3.5
  0
LINE
  5
77D
330
1F
100
AcDbEntity
  8
0
 62
     0
 48
6.0
370
     5
100
AcDbLine
 10
678.2335240137317
 20
641.4050357569331
 30
0.0
 11
1144.739072150408
 21
641.4050357569331
 31
0.0
  0
LINE
  5
77E
330
1F
100
AcDbEntity
  8
0
 62
     0
 48
6.0
370
     5
100
AcDbLine
 10
678.2335240137317
 20
640.9050357569331
 30
0.0
 11
1144.739072150408
 21
640.9050357569331
 31
0.0
  0
LINE
  5
77F
330
1F
100
AcDbEntity
  8
0
 62
     0
 48
6.0
370
     5
100
AcDbLine
 10
678.2335240137317
 20
646.405035756933
 30
0.0
 11
1144.739072150408
 21
646.405035756933
 31
0.0
  0
LINE
  5
780
330
1F
100
AcDbEntity
  8
0
 62
     0
 48
6.0
370
     5
100
AcDbLine
 10
678.2335240137317
 20
646.905035756933
 30
0.0
 11
1144.739072150408
 21
646.905035756933
 31
0.0
  0
LINE
  5
781
330
1F
100
AcDbEntity
  8
0
 62
     0
 48
6.0
370
     5
100
AcDbLine
 10
1146.739072150404
 20
640.9050357569331
 30
0.0
 11
1328.233524013732
 21
640.9050357569331
 31
0.0
  0
LINE
  5
782
330
1F
100
AcDbEntity
  8
0
 62
     0
 48
6.0
370
     5
100
AcDbLine
 10
1146.739072150404
 20
641.4050357569331
 30
0.0
 11
1328.233524013732
 21
641.4050357569331
 31
0.0
  0
LINE
  5
783
330
1F
100
AcDbEntity
  8
0
 62
     0
 48
6.0
370
     5
100
AcDbLine
 10
1146.739072150404
 20
646.405035756933
 30
0.0
 11
1328.233524013732
 21
646.405035756933
 31
0.0
  0
LINE
  5
784
330
1F
100
AcDbEntity
  8
0
 62
     0
 48
6.0
370
     5
100
AcDbLine
 10
1146.739072150404
 20
646.905035756933
 30
0.0
 11
1328.233524013732
 21
646.905035756933
 31
0.0
  0
ARC
  5
785
330
1F
100
AcDbEntity
  8
0
 62
     0
100
AcDbCircle
 10
1225.633524016378
 20
643.3050419153455
 30
0.0
 40
0.2
100
AcDbArc
 50
180.0000001086498
 51
270.0000001085976
  0
LINE
  5
786
330
1F
100
AcDbEntity
  8
0
 62
     0
100
AcDbLine
 10
1225.433524014482
 20
644.5050419149675
 30
0.0
 11
1225.433524016755
 21
643.3050295988987
 31
0.0
  0
ARC
  5
787
330
1F
100
AcDbEntity
  8
0
 62
     0
100
AcDbCircle
 10
1225.633524014481
 20
644.5050419153463
 30
0.0
 40
0.2
100
AcDbArc
 50
90.00000010859768
 51
180.0000001086498
  0
ARC
  5
788
330
1F
100
AcDbEntity
  8
0
 62
     0
100
AcDbCircle
 10
1230.833524011846
 20
644.5050419202758
 30
0.0
 40
0.2
100
AcDbArc
 50
0.0
 51
90.0
  0
ARC
  5
789
330
1F
100
AcDbEntity
  8
0
 62
     0
100
AcDbCircle
 10
1230.833524011846
 20
643.305041920275
 30
0.0
 40
0.2
100
AcDbArc
 50
270.0
 51
0.0
  0
LINE
  5
78A
330
1F
100
AcDbEntity
  8
0
 62
     0
100
AcDbLine
 10
1230.407203761316
 20
643.1050419202748
 30
0.0
 11
1230.833524011846
 21
643.1050419202756
 31
0.0
  0
LINE
  5
78B
330
1F
100
AcDbEntity
  8
0
 62
     0
100
AcDbLine
 10
1231.033524011846
 20
644.5050419202762
 30
0.0
 11
1231.033524011846
 21
643.3050419202754
 31
0.0
  0
ARC
  5
78C
330
1F
100
AcDbEntity
  8
0
 62
     0
100
AcDbCircle
 10
1228.233526214927
 20
642.5050388386048
 30
0.0
 40
0.6
100
AcDbArc
 50
236.9999999999826
 51
303.0000000000173
  0
LINE
  5
78D
330
1F
100
AcDbEntity
  8
0
 62
     0
100
AcDbLine
 10
1228.560309637493
 20
642.0018364988491
 30
0.0
 11
1230.13488424381
 21
643.0243772042476
 31
0.0
  0
ARC
  5
78E
330
1F
100
AcDbEntity
  8
0
 62
     0
100
AcDbCircle
 10
1230.407203761318
 20
642.6050419202742
 30
0.0
 40
0.5
100
AcDbArc
 50
90.00000000020843
 51
123.0000000000173
  0
ARC
  5
78F
330
1F
100
AcDbEntity
  8
0
 62
     0
100
AcDbCircle
 10
1226.059848668535
 20
642.6050419202742
 30
0.0
 40
0.5
100
AcDbArc
 50
56.99999999998267
 51
89.99999999979156
  0
LINE
  5
790
330
1F
100
AcDbEntity
  8
0
 62
     0
100
AcDbLine
 10
1226.059848668537
 20
643.1050419202748
 30
0.0
 11
1225.633528418007
 21
643.1050419202756
 31
0.0
  0
LINE
  5
791
330
1F
100
AcDbEntity
  8
0
 62
     0
100
AcDbLine
 10
1227.906742792361
 20
642.0018364988491
 30
0.0
 11
1226.332168186042
 21
643.0243772042476
 31
0.0
  0
LINE
  5
792
330
1F
100
AcDbEntity
  8
0
 62
     0
100
AcDbLine
 10
1227.906738603043
 20
645.8082404590459
 30
0.0
 11
1226.33216624754
 21
644.7856962877058
 31
0.0
  0
LINE
  5
793
330
1F
100
AcDbEntity
  8
0
 62
     0
100
AcDbLine
 10
1226.059846907595
 20
644.7050309722517
 30
0.0
 11
1225.633526657065
 21
644.7050300338369
 31
0.0
  0
ARC
  5
794
330
1F
100
AcDbEntity
  8
0
 62
     0
100
AcDbCircle
 10
1226.059845806993
 20
645.2050309722494
 30
0.0
 40
0.5
100
AcDbArc
 50
270.0001261193138
 51
303.000126119065
  0
ARC
  5
795
330
1F
100
AcDbEntity
  8
0
 62
     0
100
AcDbCircle
 10
1228.233523133253
 20
645.305038838604
 30
0.0
 40
0.6
100
AcDbArc
 50
57.00012611909873
 51
123.000126119065
  0
LINE
  5
796
330
1F
100
AcDbEntity
  8
0
 62
     0
100
AcDbLine
 10
1228.560305448175
 20
645.8082418976736
 30
0.0
 11
1230.134882305298
 21
644.7857046582202
 31
0.0
  0
ARC
  5
797
330
1F
100
AcDbEntity
  8
0
 62
     0
100
AcDbCircle
 10
1230.407200899767
 20
645.2050405416208
 30
0.0
 40
0.5
100
AcDbArc
 50
237.0001261190988
 51
270.0001261188969
  0
LINE
  5
798
330
1F
100
AcDbEntity
  8
0
 62
     0
100
AcDbLine
 10
1230.407202000361
 20
644.705040541623
 30
0.0
 11
1230.833522250891
 21
644.7050414800351
 31
0.0
  0
ARC
  5
799
330
1F
100
AcDbEntity
  8
0
 62
     0
100
AcDbCircle
 10
1240.633524016378
 20
643.3050419153455
 30
0.0
 40
0.2
100
AcDbArc
 50
180.0000001086498
 51
270.0000001085976
  0
LINE
  5
79A
330
1F
100
AcDbEntity
  8
0
 62
     0
100
AcDbLine
 10
1240.433524014482
 20
644.5050419149675
 30
0.0
 11
1240.433524016755
 21
643.3050295988987
 31
0.0
  0
ARC
  5
79B
330
1F
100
AcDbEntity
  8
0
 62
     0
100
AcDbCircle
 10
1240.633524014481
 20
644.5050419153463
 30
0.0
 40
0.2
100
AcDbArc
 50
90.00000010859768
 51
180.0000001086498
  0
ARC
  5
79C
330
1F
100
AcDbEntity
  8
0
 62
     0
100
AcDbCircle
 10
1245.833524011846
 20
644.5050419202758
 30
0.0
 40
0.2
100
AcDbArc
 50
0.0
 51
90.0
  0
ARC
  5
79D
330
1F
100
AcDbEntity
  8
0
 62
     0
100
AcDbCircle
 10
1245.833524011846
 20
643.305041920275
 30
0.0
 40
0.2
100
AcDbArc
 50
270.0
 51
0.0
  0
LINE
  5
79E
330
1F
100
AcDbEntity
  8
0
 62
     0
100
AcDbLine
 10
1245.407203761316
 20
643.1050419202748
 30
0.0
 11
1245.833524011846
 21
643.1050419202756
 31
0.0
  0
LINE
  5
79F
330
1F
100
AcDbEntity
  8
0
 62
     0
100
AcDbLine
 10
1246.033524011846
 20
644.5050419202762
 30
0.0
 11
1246.033524011846
 21
643.3050419202754
 31
0.0
  0
ARC
  5
7A0
330
1F
100
AcDbEntity
  8
0
 62
     0
100
AcDbCircle
 10
1243.233526214927
 20
642.5050388386048
 30
0.0
 40
0.6
100
AcDbArc
 50
236.9999999999826
 51
303.0000000000173
  0
LINE
  5
7A1
330
1F
100
AcDbEntity
  8
0
 62
     0
100
AcDbLine
 10
1243.560309637493
 20
642.0018364988491
 30
0.0
 11
1245.13488424381
 21
643.0243772042476
 31
0.0
  0
ARC
  5
7A2
330
1F
100
AcDbEntity
  8
0
 62
     0
100
AcDbCircle
 10
1245.407203761318
 20
642.6050419202742
 30
0.0
 40
0.5
100
AcDbArc
 50
90.00000000020843
 51
123.0000000000173
  0
ARC
  5
7A3
330
1F
100
AcDbEntity
  8
0
 62
     0
100
AcDbCircle
 10
1241.059848668535
 20
642.6050419202742
 30
0.0
 40
0.5
100
AcDbArc
 50
56.99999999998267
 51
89.99999999979156
  0
LINE
  5
7A4
330
1F
100
AcDbEntity
  8
0
 62
     0
100
AcDbLine
 10
1241.059848668537
 20
643.1050419202748
 30
0.0
 11
1240.633528418007
 21
643.1050419202756
 31
0.0
  0
LINE
  5
7A5
330
1F
100
AcDbEntity
  8
0
 62
     0
100
AcDbLine
 10
1242.906742792361
 20
642.0018364988491
 30
0.0
 11
1241.332168186042
 21
643.0243772042476
 31
0.0
  0
LINE
  5
7A6
330
1F
100
AcDbEntity
  8
0
 62
     0
100
AcDbLine
 10
1242.906738603043
 20
645.8082404590459
 30
0.0
 11
1241.33216624754
 21
644.7856962877058
 31
0.0
  0
LINE
  5
7A7
330
1F
100
AcDbEntity
  8
0
 62
     0
100
AcDbLine
 10
1241.059846907595
 20
644.7050309722517
 30
0.0
 11
1240.633526657065
 21
644.7050300338369
 31
0.0
  0
ARC
  5
7A8
330
1F
100
AcDbEntity
  8
0
 62
     0
100
AcDbCircle
 10
1241.059845806993
 20
645.2050309722494
 30
0.0
 40
0.5
100
AcDbArc
 50
270.0001261193138
 51
303.000126119065
  0
ARC
  5
7A9
330
1F
100
AcDbEntity
  8
0
 62
     0
100
AcDbCircle
 10
1243.233523133253
 20
645.305038838604
 30
0.0
 40
0.6
100
AcDbArc
 50
57.00012611909873
 51
123.000126119065
  0
LINE
  5
7AA
330
1F
100
AcDbEntity
  8
0
 62
     0
100
AcDbLine
 10
1243.560305448175
 20
645.8082418976736
 30
0.0
 11
1245.134882305298
 21
644.7857046582202
 31
0.0
  0
ARC
  5
7AB
330
1F
100
AcDbEntity
  8
0
 62
     0
100
AcDbCircle
 10
1245.407200899767
 20
645.2050405416208
 30
0.0
 40
0.5
100
AcDbArc
 50
237.0001261190988
 51
270.0001261188969
  0
LINE
  5
7AC
330
1F
100
AcDbEntity
  8
0
 62
     0
100
AcDbLine
 10
1245.407202000361
 20
644.705040541623
 30
0.0
 11
1245.833522250891
 21
644.7050414800351
 31
0.0
  0
ARC
  5
7AD
330
1F
100
AcDbEntity
  8
0
 62
     0
100
AcDbCircle
 10
1255.633524016378
 20
643.3050419153455
 30
0.0
 40
0.2
100
AcDbArc
 50
180.0000001086498
 51
270.0000001085976
  0
LINE
  5
7AE
330
1F
100
AcDbEntity
  8
0
 62
     0
100
AcDbLine
 10
1255.433524014482
 20
644.5050419149675
 30
0.0
 11
1255.433524016756
 21
643.3050295988987
 31
0.0
  0
ARC
  5
7AF
330
1F
100
AcDbEntity
  8
0
 62
     0
100
AcDbCircle
 10
1255.633524014481
 20
644.5050419153463
 30
0.0
 40
0.2
100
AcDbArc
 50
90.00000010859768
 51
180.0000001086498
  0
ARC
  5
7B0
330
1F
100
AcDbEntity
  8
0
 62
     0
100
AcDbCircle
 10
1260.833524011846
 20
644.5050419202758
 30
0.0
 40
0.2
100
AcDbArc
 50
0.0
 51
90.0
  0
ARC
  5
7B1
330
1F
100
AcDbEntity
  8
0
 62
     0
100
AcDbCircle
 10
1260.833524011846
 20
643.305041920275
 30
0.0
 40
0.2
100
AcDbArc
 50
270.0
 51
0.0
  0
LINE
  5
7B2
330
1F
100
AcDbEntity
  8
0
 62
     0
100
AcDbLine
 10
1260.407203761316
 20
643.1050419202748
 30
0.0
 11
1260.833524011846
 21
643.1050419202756
 31
0.0
  0
LINE
  5
7B3
330
1F
100
AcDbEntity
  8
0
 62
     0
100
AcDbLine
 10
1261.033524011846
 20
644.5050419202762
 30
0.0
 11
1261.033524011846
 21
643.3050419202754
 31
0.0
  0
ARC
  5
7B4
330
1F
100
AcDbEntity
  8
0
 62
     0
100
AcDbCircle
 10
1258.233526214927
 20
642.5050388386048
 30
0.0
 40
0.6
100
AcDbArc
 50
236.9999999999826
 51
303.0000000000173
  0
LINE
  5
7B5
330
1F
100
AcDbEntity
  8
0
 62
     0
100
AcDbLine
 10
1258.560309637493
 20
642.0018364988491
 30
0.0
 11
1260.13488424381
 21
643.0243772042476
 31
0.0
  0
ARC
  5
7B6
330
1F
100
AcDbEntity
  8
0
 62
     0
100
AcDbCircle
 10
1260.407203761318
 20
642.6050419202742
 30
0.0
 40
0.5
100
AcDbArc
 50
90.00000000020843
 51
123.0000000000173
  0
ARC
  5
7B7
330
1F
100
AcDbEntity
  8
0
 62
     0
100
AcDbCircle
 10
1256.059848668535
 20
642.6050419202742
 30
0.0
 40
0.5
100
AcDbArc
 50
56.99999999998267
 51
89.99999999979156
  0
LINE
  5
7B8
330
1F
100
AcDbEntity
  8
0
 62
     0
100
AcDbLine
 10
1256.059848668537
 20
643.1050419202748
 30
0.0
 11
1255.633528418007
 21
643.1050419202756
 31
0.0
  0
LINE
  5
7B9
330
1F
100
AcDbEntity
  8
0
 62
     0
100
AcDbLine
 10
1257.906742792361
 20
642.0018364988491
 30
0.0
 11
1256.332168186042
 21
643.0243772042476
 31
0.0
  0
LINE
  5
7BA
330
1F
100
AcDbEntity
  8
0
 62
     0
100
AcDbLine
 10
1257.906738603043
 20
645.8082404590459
 30
0.0
 11
1256.33216624754
 21
644.7856962877058
 31
0.0
  0
LINE
  5
7BB
330
1F
100
AcDbEntity
  8
0
 62
     0
100
AcDbLine
 10
1256.059846907595
 20
644.7050309722517
 30
0.0
 11
1255.633526657065
 21
644.7050300338369
 31
0.0
  0
ARC
  5
7BC
330
1F
100
AcDbEntity
  8
0
 62
     0
100
AcDbCircle
 10
1256.059845806993
 20
645.2050309722494
 30
0.0
 40
0.5
100
AcDbArc
 50
270.0001261193138
 51
303.000126119065
  0
ARC
  5
7BD
330
1F
100
AcDbEntity
  8
0
 62
     0
100
AcDbCircle
 10
1258.233523133253
 20
645.305038838604
 30
0.0
 40
0.6
100
AcDbArc
 50
57.00012611909873
 51
123.000126119065
  0
LINE
  5
7BE
330
1F
100
AcDbEntity
  8
0
 62
     0
100
AcDbLine
 10
1258.560305448175
 20
645.8082418976736
 30
0.0
 11
1260.134882305298
 21
644.7857046582202
 31
0.0
  0
ARC
  5
7BF
330
1F
100
AcDbEntity
  8
0
 62
     0
100
AcDbCircle
 10
1260.407200899767
 20
645.2050405416208
 30
0.0
 40
0.5
100
AcDbArc
 50
237.0001261190988
 51
270.0001261188969
  0
LINE
  5
7C0
330
1F
100
AcDbEntity
  8
0
 62
     0
100
AcDbLine
 10
1260.407202000361
 20
644.705040541623
 30
0.0
 11
1260.833522250891
 21
644.7050414800351
 31
0.0
  0
ARC
  5
7C1
330
1F
100
AcDbEntity
  8
0
 62
     0
100
AcDbCircle
 10
1285.633524016378
 20
643.3050419153455
 30
0.0
 40
0.2
100
AcDbArc
 50
180.0000001086498
 51
270.0000001085976
  0
LINE
  5
7C2
330
1F
100
AcDbEntity
  8
0
 62
     0
100
AcDbLine
 10
1285.433524014482
 20
644.5050419149675
 30
0.0
 11
1285.433524016756
 21
643.3050295988987
 31
0.0
  0
ARC
  5
7C3
330
1F
100
AcDbEntity
  8
0
 62
     0
100
AcDbCircle
 10
1285.633524014481
 20
644.5050419153463
 30
0.0
 40
0.2
100
AcDbArc
 50
90.00000010859768
 51
180.0000001086498
  0
ARC
  5
7C4
330
1F
100
AcDbEntity
  8
0
 62
     0
100
AcDbCircle
 10
1290.833524011846
 20
644.5050419202758
 30
0.0
 40
0.2
100
AcDbArc
 50
0.0
 51
90.0
  0
ARC
  5
7C5
330
1F
100
AcDbEntity
  8
0
 62
     0
100
AcDbCircle
 10
1290.833524011846
 20
643.305041920275
 30
0.0
 40
0.2
100
AcDbArc
 50
270.0
 51
0.0
  0
LINE
  5
7C6
330
1F
100
AcDbEntity
  8
0
 62
     0
100
AcDbLine
 10
1290.407203761316
 20
643.1050419202748
 30
0.0
 11
1290.833524011846
 21
643.1050419202756
 31
0.0
  0
LINE
  5
7C7
330
1F
100
AcDbEntity
  8
0
 62
     0
100
AcDbLine
 10
1291.033524011846
 20
644.5050419202762
 30
0.0
 11
1291.033524011846
 21
643.3050419202754
 31
0.0
  0
ARC
  5
7C8
330
1F
100
AcDbEntity
  8
0
 62
     0
100
AcDbCircle
 10
1288.233526214927
 20
642.5050388386048
 30
0.0
 40
0.6
100
AcDbArc
 50
236.9999999999826
 51
303.0000000000173
  0
LINE
  5
7C9
330
1F
100
AcDbEntity
  8
0
 62
     0
100
AcDbLine
 10
1288.560309637493
 20
642.0018364988491
 30
0.0
 11
1290.13488424381
 21
643.0243772042476
 31
0.0
  0
ARC
  5
7CA
330
1F
100
AcDbEntity
  8
0
 62
     0
100
AcDbCircle
 10
1290.407203761318
 20
642.6050419202742
 30
0.0
 40
0.5
100
AcDbArc
 50
90.00000000020843
 51
123.0000000000173
  0
ARC
  5
7CB
330
1F
100
AcDbEntity
  8
0
 62
     0
100
AcDbCircle
 10
1286.059848668535
 20
642.6050419202742
 30
0.0
 40
0.5
100
AcDbArc
 50
56.99999999998267
 51
89.99999999979156
  0
LINE
  5
7CC
330
1F
100
AcDbEntity
  8
0
 62
     0
100
AcDbLine
 10
1286.059848668537
 20
643.1050419202748
 30
0.0
 11
1285.633528418007
 21
643.1050419202756
 31
0.0
  0
LINE
  5
7CD
330
1F
100
AcDbEntity
  8
0
 62
     0
100
AcDbLine
 10
1287.906742792361
 20
642.0018364988491
 30
0.0
 11
1286.332168186042
 21
643.0243772042476
 31
0.0
  0
LINE
  5
7CE
330
1F
100
AcDbEntity
  8
0
 62
     0
100
AcDbLine
 10
1287.906738603043
 20
645.8082404590459
 30
0.0
 11
1286.33216624754
 21
644.7856962877058
 31
0.0
  0
LINE
  5
7CF
330
1F
100
AcDbEntity
  8
0
 62
     0
100
AcDbLine
 10
1286.059846907595
 20
644.7050309722517
 30
0.0
 11
1285.633526657065
 21
644.7050300338369
 31
0.0
  0
ARC
  5
7D0
330
1F
100
AcDbEntity
  8
0
 62
     0
100
AcDbCircle
 10
1286.059845806993
 20
645.2050309722494
 30
0.0
 40
0.5
100
AcDbArc
 50
270.0001261193138
 51
303.000126119065
  0
ARC
  5
7D1
330
1F
100
AcDbEntity
  8
0
 62
     0
100
AcDbCircle
 10
1288.233523133254
 20
645.305038838604
 30
0.0
 40
0.6
100
AcDbArc
 50
57.00012611909873
 51
123.000126119065
  0
LINE
  5
7D2
330
1F
100
AcDbEntity
  8
0
 62
     0
100
AcDbLine
 10
1288.560305448175
 20
645.8082418976736
 30
0.0
 11
1290.134882305298
 21
644.7857046582202
 31
0.0
  0
ARC
  5
7D3
330
1F
100
AcDbEntity
  8
0
 62
     0
100
AcDbCircle
 10
1290.407200899767
 20
645.2050405416208
 30
0.0
 40
0.5
100
AcDbArc
 50
237.0001261190988
 51
270.0001261188969
  0
LINE
  5
7D4
330
1F
100
AcDbEntity
  8
0
 62
     0
100
AcDbLine
 10
1290.407202000361
 20
644.705040541623
 30
0.0
 11
1290.833522250891
 21
644.7050414800351
 31
0.0
  0
ARC
  5
7D5
330
1F
100
AcDbEntity
  8
0
 62
     0
100
AcDbCircle
 10
1270.633524016378
 20
643.3050419153455
 30
0.0
 40
0.2
100
AcDbArc
 50
180.0000001086498
 51
270.0000001085976
  0
LINE
  5
7D6
330
1F
100
AcDbEntity
  8
0
 62
     0
100
AcDbLine
 10
1270.433524014482
 20
644.5050419149675
 30
0.0
 11
1270.433524016756
 21
643.3050295988987
 31
0.0
  0
ARC
  5
7D7
330
1F
100
AcDbEntity
  8
0
 62
     0
100
AcDbCircle
 10
1270.633524014481
 20
644.5050419153463
 30
0.0
 40
0.2
100
AcDbArc
 50
90.00000010859768
 51
180.0000001086498
  0
ARC
  5
7D8
330
1F
100
AcDbEntity
  8
0
 62
     0
100
AcDbCircle
 10
1275.833524011846
 20
644.5050419202758
 30
0.0
 40
0.2
100
AcDbArc
 50
0.0
 51
90.0
  0
ARC
  5
7D9
330
1F
100
AcDbEntity
  8
0
 62
     0
100
AcDbCircle
 10
1275.833524011846
 20
643.305041920275
 30
0.0
 40
0.2
100
AcDbArc
 50
270.0
 51
0.0
  0
LINE
  5
7DA
330
1F
100
AcDbEntity
  8
0
 62
     0
100
AcDbLine
 10
1275.407203761316
 20
643.1050419202748
 30
0.0
 11
1275.833524011846
 21
643.1050419202756
 31
0.0
  0
LINE
  5
7DB
330
1F
100
AcDbEntity
  8
0
 62
     0
100
AcDbLine
 10
1276.033524011846
 20
644.5050419202762
 30
0.0
 11
1276.033524011846
 21
643.3050419202754
 31
0.0
  0
ARC
  5
7DC
330
1F
100
AcDbEntity
  8
0
 62
     0
100
AcDbCircle
 10
1273.233526214927
 20
642.5050388386048
 30
0.0
 40
0.6
100
AcDbArc
 50
236.9999999999826
 51
303.0000000000173
  0
LINE
  5
7DD
330
1F
100
AcDbEntity
  8
0
 62
     0
100
AcDbLine
 10
1273.560309637493
 20
642.0018364988491
 30
0.0
 11
1275.13488424381
 21
643.0243772042476
 31
0.0
  0
ARC
  5
7DE
330
1F
100
AcDbEntity
  8
0
 62
     0
100
AcDbCircle
 10
1275.407203761317
 20
642.6050419202742
 30
0.0
 40
0.5
100
AcDbArc
 50
90.00000000020843
 51
123.0000000000173
  0
ARC
  5
7DF
330
1F
100
AcDbEntity
  8
0
 62
     0
100
AcDbCircle
 10
1271.059848668535
 20
642.6050419202742
 30
0.0
 40
0.5
100
AcDbArc
 50
56.99999999998267
 51
89.99999999979156
  0
LINE
  5
7E0
330
1F
100
AcDbEntity
  8
0
 62
     0
100
AcDbLine
 10
1271.059848668536
 20
643.1050419202748
 30
0.0
 11
1270.633528418007
 21
643.1050419202756
 31
0.0
  0
LINE
  5
7E1
330
1F
100
AcDbEntity
  8
0
 62
     0
100
AcDbLine
 10
1272.906742792361
 20
642.0018364988491
 30
0.0
 11
1271.332168186042
 21
643.0243772042476
 31
0.0
  0
LINE
  5
7E2
330
1F
100
AcDbEntity
  8
0
 62
     0
100
AcDbLine
 10
1272.906738603043
 20
645.8082404590459
 30
0.0
 11
1271.33216624754
 21
644.7856962877058
 31
0.0
  0
LINE
  5
7E3
330
1F
100
AcDbEntity
  8
0
 62
     0
100
AcDbLine
 10
1271.059846907595
 20
644.7050309722517
 30
0.0
 11
1270.633526657065
 21
644.7050300338369
 31
0.0
  0
ARC
  5
7E4
330
1F
100
AcDbEntity
  8
0
 62
     0
100
AcDbCircle
 10
1271.059845806993
 20
645.2050309722494
 30
0.0
 40
0.5
100
AcDbArc
 50
270.0001261193138
 51
303.000126119065
  0
ARC
  5
7E5
330
1F
100
AcDbEntity
  8
0
 62
     0
100
AcDbCircle
 10
1273.233523133253
 20
645.305038838604
 30
0.0
 40
0.6
100
AcDbArc
 50
57.00012611909873
 51
123.000126119065
  0
LINE
  5
7E6
330
1F
100
AcDbEntity
  8
0
 62
     0
100
AcDbLine
 10
1273.560305448175
 20
645.8082418976736
 30
0.0
 11
1275.134882305298
 21
644.7857046582202
 31
0.0
  0
ARC
  5
7E7
330
1F
100
AcDbEntity
  8
0
 62
     0
100
AcDbCircle
 10
1275.407200899767
 20
645.2050405416208
 30
0.0
 40
0.5
100
AcDbArc
 50
237.0001261190988
 51
270.0001261188969
  0
LINE
  5
7E8
330
1F
100
AcDbEntity
  8
0
 62
     0
100
AcDbLine
 10
1275.407202000361
 20
644.705040541623
 30
0.0
 11
1275.833522250891
 21
644.7050414800351
 31
0.0
  0
ARC
  5
7E9
330
1F
100
AcDbEntity
  8
0
 62
     0
370
    15
100
AcDbCircle
 10
1195.633524016378
 20
643.3050419153455
 30
0.0
 40
0.2
100
AcDbArc
 50
180.0000001086498
 51
270.0000001085976
  0
LINE
  5
7EA
330
1F
100
AcDbEntity
  8
0
 62
     0
370
    15
100
AcDbLine
 10
1195.433524014482
 20
644.5050419149675
 30
0.0
 11
1195.433524016755
 21
643.3050295988987
 31
0.0
  0
ARC
  5
7EB
330
1F
100
AcDbEntity
  8
0
 62
     0
370
    15
100
AcDbCircle
 10
1195.633524014481
 20
644.5050419153463
 30
0.0
 40
0.2
100
AcDbArc
 50
90.00000010859768
 51
180.0000001086498
  0
ARC
  5
7EC
330
1F
100
AcDbEntity
  8
0
 62
     0
370
    15
100
AcDbCircle
 10
1200.833524011846
 20
644.5050419202758
 30
0.0
 40
0.2
100
AcDbArc
 50
0.0
 51
90.0
  0
ARC
  5
7ED
330
1F
100
AcDbEntity
  8
0
 62
     0
370
    15
100
AcDbCircle
 10
1200.833524011846
 20
643.305041920275
 30
0.0
 40
0.2
100
AcDbArc
 50
270.0
 51
0.0
  0
LINE
  5
7EE
330
1F
100
AcDbEntity
  8
0
 62
     0
370
    15
100
AcDbLine
 10
1200.407203761316
 20
643.1050419202748
 30
0.0
 11
1200.833524011846
 21
643.1050419202756
 31
0.0
  0
LINE
  5
7EF
330
1F
100
AcDbEntity
  8
0
 62
     0
370
    15
100
AcDbLine
 10
1201.033524011846
 20
644.5050419202762
 30
0.0
 11
1201.033524011846
 21
643.3050419202754
 31
0.0
  0
ARC
  5
7F0
330
1F
100
AcDbEntity
  8
0
 62
     0
370
    15
100
AcDbCircle
 10
1198.233526214927
 20
642.5050388386048
 30
0.0
 40
0.6
100
AcDbArc
 50
236.9999999999826
 51
303.0000000000173
  0
LINE
  5
7F1
330
1F
100
AcDbEntity
  8
0
 62
     0
370
    15
100
AcDbLine
 10
1198.560309637493
 20
642.0018364988491
 30
0.0
 11
1200.13488424381
 21
643.0243772042476
 31
0.0
  0
ARC
  5
7F2
330
1F
100
AcDbEntity
  8
0
 62
     0
370
    15
100
AcDbCircle
 10
1200.407203761318
 20
642.6050419202742
 30
0.0
 40
0.5
100
AcDbArc
 50
90.00000000020843
 51
123.0000000000173
  0
ARC
  5
7F3
330
1F
100
AcDbEntity
  8
0
 62
     0
370
    15
100
AcDbCircle
 10
1196.059848668535
 20
642.6050419202742
 30
0.0
 40
0.5
100
AcDbArc
 50
56.99999999998267
 51
89.99999999979156
  0
LINE
  5
7F4
330
1F
100
AcDbEntity
  8
0
 62
     0
370
    15
100
AcDbLine
 10
1196.059848668536
 20
643.1050419202748
 30
0.0
 11
1195.633528418007
 21
643.1050419202756
 31
0.0
  0
LINE
  5
7F5
330
1F
100
AcDbEntity
  8
0
 62
     0
370
    15
100
AcDbLine
 10
1197.906742792361
 20
642.0018364988491
 30
0.0
 11
1196.332168186042
 21
643.0243772042476
 31
0.0
  0
LINE
  5
7F6
330
1F
100
AcDbEntity
  8
0
 62
     0
370
    15
100
AcDbLine
 10
1197.906738603043
 20
645.8082404590459
 30
0.0
 11
1196.33216624754
 21
644.7856962877058
 31
0.0
  0
LINE
  5
7F7
330
1F
100
AcDbEntity
  8
0
 62
     0
370
    15
100
AcDbLine
 10
1196.059846907595
 20
644.7050309722517
 30
0.0
 11
1195.633526657065
 21
644.7050300338369
 31
0.0
  0
ARC
  5
7F8
330
1F
100
AcDbEntity
  8
0
 62
     0
370
    15
100
AcDbCircle
 10
1196.059845806993
 20
645.2050309722494
 30
0.0
 40
0.5
100
AcDbArc
 50
270.0001261193138
 51
303.000126119065
  0
ARC
  5
7F9
330
1F
100
AcDbEntity
  8
0
 62
     0
370
    15
100
AcDbCircle
 10
1198.233523133253
 20
645.305038838604
 30
0.0
 40
0.6
100
AcDbArc
 50
57.00012611909873
 51
123.000126119065
  0
LINE
  5
7FA
330
1F
100
AcDbEntity
  8
0
 62
     0
370
    15
100
AcDbLine
 10
1198.560305448175
 20
645.8082418976736
 30
0.0
 11
1200.134882305298
 21
644.7857046582202
 31
0.0
  0
ARC
  5
7FB
330
1F
100
AcDbEntity
  8
0
 62
     0
370
    15
100
AcDbCircle
 10
1200.407200899767
 20
645.2050405416208
 30
0.0
 40
0.5
100
AcDbArc
 50
237.0001261190988
 51
270.0001261188969
  0
LINE
  5
7FC
330
1F
100
AcDbEntity
  8
0
 62
     0
370
    15
100
AcDbLine
 10
1200.407202000361
 20
644.705040541623
 30
0.0
 11
1200.833522250891
 21
644.7050414800351
 31
0.0
  0
ARC
  5
7FD
330
1F
100
AcDbEntity
  8
0
 62
     0
370
    15
100
AcDbCircle
 10
1210.633524016378
 20
643.3050419153455
 30
0.0
 40
0.2
100
AcDbArc
 50
180.0000001086498
 51
270.0000001085976
  0
LINE
  5
7FE
330
1F
100
AcDbEntity
  8
0
 62
     0
370
    15
100
AcDbLine
 10
1210.433524014482
 20
644.5050419149675
 30
0.0
 11
1210.433524016756
 21
643.3050295988987
 31
0.0
  0
ARC
  5
7FF
330
1F
100
AcDbEntity
  8
0
 62
     0
370
    15
100
AcDbCircle
 10
1210.633524014481
 20
644.5050419153463
 30
0.0
 40
0.2
100
AcDbArc
 50
90.00000010859768
 51
180.0000001086498
  0
ARC
  5
800
330
1F
100
AcDbEntity
  8
0
 62
     0
100
AcDbCircle
 10
1215.833524011846
 20
644.5050419202758
 30
0.0
 40
0.2
100
AcDbArc
 50
0.0
 51
90.0
  0
ARC
  5
801
330
1F
100
AcDbEntity
  8
0
 62
     0
100
AcDbCircle
 10
1215.833524011846
 20
643.305041920275
 30
0.0
 40
0.2
100
AcDbArc
 50
270.0
 51
0.0
  0
LINE
  5
802
330
1F
100
AcDbEntity
  8
0
 62
     0
100
AcDbLine
 10
1215.407203761316
 20
643.1050419202748
 30
0.0
 11
1215.833524011846
 21
643.1050419202756
 31
0.0
  0
LINE
  5
803
330
1F
100
AcDbEntity
  8
0
 62
     0
100
AcDbLine
 10
1216.033524011846
 20
644.5050419202762
 30
0.0
 11
1216.033524011846
 21
643.3050419202754
 31
0.0
  0
ARC
  5
804
330
1F
100
AcDbEntity
  8
0
 62
     0
370
    15
100
AcDbCircle
 10
1213.233526214927
 20
642.5050388386048
 30
0.0
 40
0.6
100
AcDbArc
 50
236.9999999999826
 51
303.0000000000173
  0
LINE
  5
805
330
1F
100
AcDbEntity
  8
0
 62
     0
370
    15
100
AcDbLine
 10
1213.560309637493
 20
642.0018364988491
 30
0.0
 11
1215.13488424381
 21
643.0243772042476
 31
0.0
  0
ARC
  5
806
330
1F
100
AcDbEntity
  8
0
 62
     0
100
AcDbCircle
 10
1215.407203761318
 20
642.6050419202742
 30
0.0
 40
0.5
100
AcDbArc
 50
90.00000000020843
 51
123.0000000000173
  0
ARC
  5
807
330
1F
100
AcDbEntity
  8
0
 62
     0
370
    15
100
AcDbCircle
 10
1211.059848668535
 20
642.6050419202742
 30
0.0
 40
0.5
100
AcDbArc
 50
56.99999999998267
 51
89.99999999979156
  0
LINE
  5
808
330
1F
100
AcDbEntity
  8
0
 62
     0
370
    15
100
AcDbLine
 10
1211.059848668537
 20
643.1050419202748
 30
0.0
 11
1210.633528418006
 21
643.1050419202756
 31
0.0
  0
LINE
  5
809
330
1F
100
AcDbEntity
  8
0
 62
     0
370
    15
100
AcDbLine
 10
1212.906742792361
 20
642.0018364988491
 30
0.0
 11
1211.332168186042
 21
643.0243772042476
 31
0.0
  0
LINE
  5
80A
330
1F
100
AcDbEntity
  8
0
 62
     0
370
    15
100
AcDbLine
 10
1212.906738603043
 20
645.8082404590459
 30
0.0
 11
1211.33216624754
 21
644.7856962877058
 31
0.0
  0
LINE
  5
80B
330
1F
100
AcDbEntity
  8
0
 62
     0
370
    15
100
AcDbLine
 10
1211.059846907595
 20
644.7050309722517
 30
0.0
 11
1210.633526657065
 21
644.7050300338369
 31
0.0
  0
ARC
  5
80C
330
1F
100
AcDbEntity
  8
0
 62
     0
370
    15
100
AcDbCircle
 10
1211.059845806993
 20
645.2050309722494
 30
0.0
 40
0.5
100
AcDbArc
 50
270.0001261193138
 51
303.000126119065
  0
ARC
  5
80D
330
1F
100
AcDbEntity
  8
0
 62
     0
370
    15
100
AcDbCircle
 10
1213.233523133254
 20
645.305038838604
 30
0.0
 40
0.6
100
AcDbArc
 50
57.00012611909873
 51
123.000126119065
  0
LINE
  5
80E
330
1F
100
AcDbEntity
  8
0
 62
     0
370
    15
100
AcDbLine
 10
1213.560305448175
 20
645.8082418976736
 30
0.0
 11
1215.134882305298
 21
644.7857046582202
 31
0.0
  0
ARC
  5
80F
330
1F
100
AcDbEntity
  8
0
 62
     0
100
AcDbCircle
 10
1215.407200899767
 20
645.2050405416208
 30
0.0
 40
0.5
100
AcDbArc
 50
237.0001261190988
 51
270.0001261188969
  0
LINE
  5
810
330
1F
100
AcDbEntity
  8
0
 62
     0
100
AcDbLine
 10
1215.407202000361
 20
644.705040541623
 30
0.0
 11
1215.833522250891
 21
644.7050414800351
 31
0.0
  0
ARC
  5
811
330
1F
100
AcDbEntity
  8
0
 62
     0
100
AcDbCircle
 10
1225.633524016378
 20
643.3050419153455
 30
0.0
 40
0.2
100
AcDbArc
 50
180.0000001086498
 51
270.0000001085976
  0
LINE
  5
812
330
1F
100
AcDbEntity
  8
0
 62
     0
100
AcDbLine
 10
1225.433524014482
 20
644.5050419149675
 30
0.0
 11
1225.433524016755
 21
643.3050295988987
 31
0.0
  0
ARC
  5
813
330
1F
100
AcDbEntity
  8
0
 62
     0
100
AcDbCircle
 10
1225.633524014481
 20
644.5050419153463
 30
0.0
 40
0.2
100
AcDbArc
 50
90.00000010859768
 51
180.0000001086498
  0
ARC
  5
814
330
1F
100
AcDbEntity
  8
0
 62
     0
100
AcDbCircle
 10
1230.833524011846
 20
644.5050419202758
 30
0.0
 40
0.2
100
AcDbArc
 50
0.0
 51
90.0
  0
ARC
  5
815
330
1F
100
AcDbEntity
  8
0
 62
     0
100
AcDbCircle
 10
1230.833524011846
 20
643.305041920275
 30
0.0
 40
0.2
100
AcDbArc
 50
270.0
 51
0.0
  0
LINE
  5
816
330
1F
100
AcDbEntity
  8
0
 62
     0
100
AcDbLine
 10
1230.407203761316
 20
643.1050419202748
 30
0.0
 11
1230.833524011846
 21
643.1050419202756
 31
0.0
  0
LINE
  5
817
330
1F
100
AcDbEntity
  8
0
 62
     0
100
AcDbLine
 10
1231.033524011846
 20
644.5050419202762
 30
0.0
 11
1231.033524011846
 21
643.3050419202754
 31
0.0
  0
ARC
  5
818
330
1F
100
AcDbEntity
  8
0
 62
     0
100
AcDbCircle
 10
1228.233526214927
 20
642.5050388386048
 30
0.0
 40
0.6
100
AcDbArc
 50
236.9999999999826
 51
303.0000000000173
  0
LINE
  5
819
330
1F
100
AcDbEntity
  8
0
 62
     0
100
AcDbLine
 10
1228.560309637493
 20
642.0018364988491
 30
0.0
 11
1230.13488424381
 21
643.0243772042476
 31
0.0
  0
ARC
  5
81A
330
1F
100
AcDbEntity
  8
0
 62
     0
100
AcDbCircle
 10
1230.407203761318
 20
642.6050419202742
 30
0.0
 40
0.5
100
AcDbArc
 50
90.00000000020843
 51
123.0000000000173
  0
ARC
  5
81B
330
1F
100
AcDbEntity
  8
0
 62
     0
100
AcDbCircle
 10
1226.059848668535
 20
642.6050419202742
 30
0.0
 40
0.5
100
AcDbArc
 50
56.99999999998267
 51
89.99999999979156
  0
LINE
  5
81C
330
1F
100
AcDbEntity
  8
0
 62
     0
100
AcDbLine
 10
1226.059848668537
 20
643.1050419202748
 30
0.0
 11
1225.633528418007
 21
643.1050419202756
 31
0.0
  0
LINE
  5
81D
330
1F
100
AcDbEntity
  8
0
 62
     0
100
AcDbLine
 10
1227.906742792361
 20
642.0018364988491
 30
0.0
 11
1226.332168186042
 21
643.0243772042476
 31
0.0
  0
LINE
  5
81E
330
1F
100
AcDbEntity
  8
0
 62
     0
100
AcDbLine
 10
1227.906738603043
 20
645.8082404590459
 30
0.0
 11
1226.33216624754
 21
644.7856962877058
 31
0.0
  0
LINE
  5
81F
330
1F
100
AcDbEntity
  8
0
 62
     0
100
AcDbLine
 10
1226.059846907595
 20
644.7050309722517
 30
0.0
 11
1225.633526657065
 21
644.7050300338369
 31
0.0
  0
ARC
  5
820
330
1F
100
AcDbEntity
  8
0
 62
     0
100
AcDbCircle
 10
1226.059845806993
 20
645.2050309722494
 30
0.0
 40
0.5
100
AcDbArc
 50
270.0001261193138
 51
303.000126119065
  0
ARC
  5
821
330
1F
100
AcDbEntity
  8
0
 62
     0
100
AcDbCircle
 10
1228.233523133253
 20
645.305038838604
 30
0.0
 40
0.6
100
AcDbArc
 50
57.00012611909873
 51
123.000126119065
  0
LINE
  5
822
330
1F
100
AcDbEntity
  8
0
 62
     0
100
AcDbLine
 10
1228.560305448175
 20
645.8082418976736
 30
0.0
 11
1230.134882305298
 21
644.7857046582202
 31
0.0
  0
ARC
  5
823
330
1F
100
AcDbEntity
  8
0
 62
     0
100
AcDbCircle
 10
1230.407200899767
 20
645.2050405416208
 30
0.0
 40
0.5
100
AcDbArc
 50
237.0001261190988
 51
270.0001261188969
  0
LINE
  5
824
330
1F
100
AcDbEntity
  8
0
 62
     0
100
AcDbLine
 10
1230.407202000361
 20
644.705040541623
 30
0.0
 11
1230.833522250891
 21
644.7050414800351
 31
0.0
  0
ARC
  5
825
330
1F
100
AcDbEntity
  8
0
 62
     0
100
AcDbCircle
 10
1240.633524016378
 20
643.3050419153455
 30
0.0
 40
0.2
100
AcDbArc
 50
180.0000001086498
 51
270.0000001085976
  0
LINE
  5
826
330
1F
100
AcDbEntity
  8
0
 62
     0
100
AcDbLine
 10
1240.433524014482
 20
644.5050419149675
 30
0.0
 11
1240.433524016755
 21
643.3050295988987
 31
0.0
  0
ARC
  5
827
330
1F
100
AcDbEntity
  8
0
 62
     0
100
AcDbCircle
 10
1240.633524014481
 20
644.5050419153463
 30
0.0
 40
0.2
100
AcDbArc
 50
90.00000010859768
 51
180.0000001086498
  0
ARC
  5
828
330
1F
100
AcDbEntity
  8
0
 62
     0
100
AcDbCircle
 10
1245.833524011846
 20
644.5050419202758
 30
0.0
 40
0.2
100
AcDbArc
 50
0.0
 51
90.0
  0
ARC
  5
829
330
1F
100
AcDbEntity
  8
0
 62
     0
100
AcDbCircle
 10
1245.833524011846
 20
643.305041920275
 30
0.0
 40
0.2
100
AcDbArc
 50
270.0
 51
0.0
  0
LINE
  5
82A
330
1F
100
AcDbEntity
  8
0
 62
     0
100
AcDbLine
 10
1245.407203761316
 20
643.1050419202748
 30
0.0
 11
1245.833524011846
 21
643.1050419202756
 31
0.0
  0
LINE
  5
82B
330
1F
100
AcDbEntity
  8
0
 62
     0
100
AcDbLine
 10
1246.033524011846
 20
644.5050419202762
 30
0.0
 11
1246.033524011846
 21
643.3050419202754
 31
0.0
  0
ARC
  5
82C
330
1F
100
AcDbEntity
  8
0
 62
     0
100
AcDbCircle
 10
1243.233526214927
 20
642.5050388386048
 30
0.0
 40
0.6
100
AcDbArc
 50
236.9999999999826
 51
303.0000000000173
  0
LINE
  5
82D
330
1F
100
AcDbEntity
  8
0
 62
     0
100
AcDbLine
 10
1243.560309637493
 20
642.0018364988491
 30
0.0
 11
1245.13488424381
 21
643.0243772042476
 31
0.0
  0
ARC
  5
82E
330
1F
100
AcDbEntity
  8
0
 62
     0
100
AcDbCircle
 10
1245.407203761318
 20
642.6050419202742
 30
0.0
 40
0.5
100
AcDbArc
 50
90.00000000020843
 51
123.0000000000173
  0
ARC
  5
82F
330
1F
100
AcDbEntity
  8
0
 62
     0
100
AcDbCircle
 10
1241.059848668535
 20
642.6050419202742
 30
0.0
 40
0.5
100
AcDbArc
 50
56.99999999998267
 51
89.99999999979156
  0
LINE
  5
830
330
1F
100
AcDbEntity
  8
0
 62
     0
100
AcDbLine
 10
1241.059848668537
 20
643.1050419202748
 30
0.0
 11
1240.633528418007
 21
643.1050419202756
 31
0.0
  0
LINE
  5
831
330
1F
100
AcDbEntity
  8
0
 62
     0
100
AcDbLine
 10
1242.906742792361
 20
642.0018364988491
 30
0.0
 11
1241.332168186042
 21
643.0243772042476
 31
0.0
  0
LINE
  5
832
330
1F
100
AcDbEntity
  8
0
 62
     0
100
AcDbLine
 10
1242.906738603043
 20
645.8082404590459
 30
0.0
 11
1241.33216624754
 21
644.7856962877058
 31
0.0
  0
LINE
  5
833
330
1F
100
AcDbEntity
  8
0
 62
     0
100
AcDbLine
 10
1241.059846907595
 20
644.7050309722517
 30
0.0
 11
1240.633526657065
 21
644.7050300338369
 31
0.0
  0
ARC
  5
834
330
1F
100
AcDbEntity
  8
0
 62
     0
100
AcDbCircle
 10
1241.059845806993
 20
645.2050309722494
 30
0.0
 40
0.5
100
AcDbArc
 50
270.0001261193138
 51
303.000126119065
  0
ARC
  5
835
330
1F
100
AcDbEntity
  8
0
 62
     0
100
AcDbCircle
 10
1243.233523133253
 20
645.305038838604
 30
0.0
 40
0.6
100
AcDbArc
 50
57.00012611909873
 51
123.000126119065
  0
LINE
  5
836
330
1F
100
AcDbEntity
  8
0
 62
     0
100
AcDbLine
 10
1243.560305448175
 20
645.8082418976736
 30
0.0
 11
1245.134882305298
 21
644.7857046582202
 31
0.0
  0
ARC
  5
837
330
1F
100
AcDbEntity
  8
0
 62
     0
100
AcDbCircle
 10
1245.407200899767
 20
645.2050405416208
 30
0.0
 40
0.5
100
AcDbArc
 50
237.0001261190988
 51
270.0001261188969
  0
LINE
  5
838
330
1F
100
AcDbEntity
  8
0
 62
     0
100
AcDbLine
 10
1245.407202000361
 20
644.705040541623
 30
0.0
 11
1245.833522250891
 21
644.7050414800351
 31
0.0
  0
ARC
  5
839
330
1F
100
AcDbEntity
  8
0
 62
     0
370
    15
100
AcDbCircle
 10
955.6335240163781
 20
643.3050419153455
 30
0.0
 40
0.2
100
AcDbArc
 50
180.0000001086498
 51
270.0000001085976
  0
LINE
  5
83A
330
1F
100
AcDbEntity
  8
0
 62
     0
370
    15
100
AcDbLine
 10
955.4335240144819
 20
644.5050419149675
 30
0.0
 11
955.4335240167556
 21
643.3050295988987
 31
0.0
  0
ARC
  5
83B
330
1F
100
AcDbEntity
  8
0
 62
     0
370
    15
100
AcDbCircle
 10
955.6335240144807
 20
644.5050419153463
 30
0.0
 40
0.2
100
AcDbArc
 50
90.00000010859768
 51
180.0000001086498
  0
ARC
  5
83C
330
1F
100
AcDbEntity
  8
0
 62
     0
370
    15
100
AcDbCircle
 10
960.8335240118458
 20
644.5050419202758
 30
0.0
 40
0.2
100
AcDbArc
 50
0.0
 51
90.0
  0
ARC
  5
83D
330
1F
100
AcDbEntity
  8
0
 62
     0
370
    15
100
AcDbCircle
 10
960.8335240118458
 20
643.305041920275
 30
0.0
 40
0.2
100
AcDbArc
 50
270.0
 51
0.0
  0
LINE
  5
83E
330
1F
100
AcDbEntity
  8
0
 62
     0
370
    15
100
AcDbLine
 10
960.4072037613159
 20
643.1050419202748
 30
0.0
 11
960.8335240118458
 21
643.1050419202756
 31
0.0
  0
LINE
  5
83F
330
1F
100
AcDbEntity
  8
0
 62
     0
370
    15
100
AcDbLine
 10
961.0335240118466
 20
644.5050419202762
 30
0.0
 11
961.0335240118466
 21
643.3050419202754
 31
0.0
  0
ARC
  5
840
330
1F
100
AcDbEntity
  8
0
 62
     0
370
    15
100
AcDbCircle
 10
958.2335262149271
 20
642.5050388386048
 30
0.0
 40
0.6
100
AcDbArc
 50
236.9999999999826
 51
303.0000000000173
  0
LINE
  5
841
330
1F
100
AcDbEntity
  8
0
 62
     0
370
    15
100
AcDbLine
 10
958.5603096374935
 20
642.0018364988491
 30
0.0
 11
960.1348842438101
 21
643.0243772042476
 31
0.0
  0
ARC
  5
842
330
1F
100
AcDbEntity
  8
0
 62
     0
370
    15
100
AcDbCircle
 10
960.4072037613176
 20
642.6050419202742
 30
0.0
 40
0.5
100
AcDbArc
 50
90.00000000020843
 51
123.0000000000173
  0
ARC
  5
843
330
1F
100
AcDbEntity
  8
0
 62
     0
370
    15
100
AcDbCircle
 10
956.0598486685348
 20
642.6050419202742
 30
0.0
 40
0.5
100
AcDbArc
 50
56.99999999998267
 51
89.99999999979156
  0
LINE
  5
844
330
1F
100
AcDbEntity
  8
0
 62
     0
370
    15
100
AcDbLine
 10
956.0598486685366
 20
643.1050419202748
 30
0.0
 11
955.6335284180068
 21
643.1050419202756
 31
0.0
  0
LINE
  5
845
330
1F
100
AcDbEntity
  8
0
 62
     0
370
    15
100
AcDbLine
 10
957.9067427923609
 20
642.0018364988491
 30
0.0
 11
956.3321681860426
 21
643.0243772042476
 31
0.0
  0
LINE
  5
846
330
1F
100
AcDbEntity
  8
0
 62
     0
370
    15
100
AcDbLine
 10
957.9067386030429
 20
645.8082404590459
 30
0.0
 11
956.33216624754
 21
644.7856962877058
 31
0.0
  0
LINE
  5
847
330
1F
100
AcDbEntity
  8
0
 62
     0
370
    15
100
AcDbLine
 10
956.0598469075948
 20
644.7050309722517
 30
0.0
 11
955.633526657065
 21
644.7050300338369
 31
0.0
  0
ARC
  5
848
330
1F
100
AcDbEntity
  8
0
 62
     0
370
    15
100
AcDbCircle
 10
956.0598458069934
 20
645.2050309722494
 30
0.0
 40
0.5
100
AcDbArc
 50
270.0001261193138
 51
303.000126119065
  0
ARC
  5
849
330
1F
100
AcDbEntity
  8
0
 62
     0
370
    15
100
AcDbCircle
 10
958.2335231332535
 20
645.305038838604
 30
0.0
 40
0.6
100
AcDbArc
 50
57.00012611909873
 51
123.000126119065
  0
LINE
  5
84A
330
1F
100
AcDbEntity
  8
0
 62
     0
370
    15
100
AcDbLine
 10
958.5603054481753
 20
645.8082418976736
 30
0.0
 11
960.1348823052985
 21
644.7857046582202
 31
0.0
  0
ARC
  5
84B
330
1F
100
AcDbEntity
  8
0
 62
     0
370
    15
100
AcDbCircle
 10
960.4072008997674
 20
645.2050405416208
 30
0.0
 40
0.5
100
AcDbArc
 50
237.0001261190988
 51
270.0001261188969
  0
LINE
  5
84C
330
1F
100
AcDbEntity
  8
0
 62
     0
370
    15
100
AcDbLine
 10
960.4072020003613
 20
644.705040541623
 30
0.0
 11
960.8335222508912
 21
644.7050414800351
 31
0.0
  0
ARC
  5
84D
330
1F
100
AcDbEntity
  8
0
 62
     0
370
    15
100
AcDbCircle
 10
970.6335240163779
 20
643.3050419153455
 30
0.0
 40
0.2
100
AcDbArc
 50
180.0000001086498
 51
270.0000001085976
  0
LINE
  5
84E
330
1F
100
AcDbEntity
  8
0
 62
     0
370
    15
100
AcDbLine
 10
970.4335240144819
 20
644.5050419149675
 30
0.0
 11
970.4335240167557
 21
643.3050295988987
 31
0.0
  0
ARC
  5
84F
330
1F
100
AcDbEntity
  8
0
 62
     0
370
    15
100
AcDbCircle
 10
970.6335240144808
 20
644.5050419153463
 30
0.0
 40
0.2
100
AcDbArc
 50
90.00000010859768
 51
180.0000001086498
  0
ARC
  5
850
330
1F
100
AcDbEntity
  8
0
 62
     0
370
    15
100
AcDbCircle
 10
975.8335240118459
 20
644.5050419202758
 30
0.0
 40
0.2
100
AcDbArc
 50
0.0
 51
90.0
  0
ARC
  5
851
330
1F
100
AcDbEntity
  8
0
 62
     0
370
    15
100
AcDbCircle
 10
975.8335240118459
 20
643.305041920275
 30
0.0
 40
0.2
100
AcDbArc
 50
270.0
 51
0.0
  0
LINE
  5
852
330
1F
100
AcDbEntity
  8
0
 62
     0
370
    15
100
AcDbLine
 10
975.4072037613159
 20
643.1050419202748
 30
0.0
 11
975.8335240118459
 21
643.1050419202756
 31
0.0
  0
LINE
  5
853
330
1F
100
AcDbEntity
  8
0
 62
     0
370
    15
100
AcDbLine
 10
976.0335240118465
 20
644.5050419202762
 30
0.0
 11
976.0335240118465
 21
643.3050419202754
 31
0.0
  0
ARC
  5
854
330
1F
100
AcDbEntity
  8
0
 62
     0
370
    15
100
AcDbCircle
 10
973.2335262149272
 20
642.5050388386048
 30
0.0
 40
0.6
100
AcDbArc
 50
236.9999999999826
 51
303.0000000000173
  0
LINE
  5
855
330
1F
100
AcDbEntity
  8
0
 62
     0
370
    15
100
AcDbLine
 10
973.5603096374934
 20
642.0018364988491
 30
0.0
 11
975.1348842438101
 21
643.0243772042476
 31
0.0
  0
ARC
  5
856
330
1F
100
AcDbEntity
  8
0
 62
     0
370
    15
100
AcDbCircle
 10
975.4072037613177
 20
642.6050419202742
 30
0.0
 40
0.5
100
AcDbArc
 50
90.00000000020843
 51
123.0000000000173
  0
ARC
  5
857
330
1F
100
AcDbEntity
  8
0
 62
     0
370
    15
100
AcDbCircle
 10
971.0598486685348
 20
642.6050419202742
 30
0.0
 40
0.5
100
AcDbArc
 50
56.99999999998267
 51
89.99999999979156
  0
LINE
  5
858
330
1F
100
AcDbEntity
  8
0
 62
     0
370
    15
100
AcDbLine
 10
971.0598486685366
 20
643.1050419202748
 30
0.0
 11
970.6335284180068
 21
643.1050419202756
 31
0.0
  0
LINE
  5
859
330
1F
100
AcDbEntity
  8
0
 62
     0
370
    15
100
AcDbLine
 10
972.906742792361
 20
642.0018364988491
 30
0.0
 11
971.3321681860424
 21
643.0243772042476
 31
0.0
  0
LINE
  5
85A
330
1F
100
AcDbEntity
  8
0
 62
     0
370
    15
100
AcDbLine
 10
972.9067386030429
 20
645.8082404590459
 30
0.0
 11
971.3321662475401
 21
644.7856962877058
 31
0.0
  0
LINE
  5
85B
330
1F
100
AcDbEntity
  8
0
 62
     0
370
    15
100
AcDbLine
 10
971.0598469075948
 20
644.7050309722517
 30
0.0
 11
970.6335266570649
 21
644.7050300338369
 31
0.0
  0
ARC
  5
85C
330
1F
100
AcDbEntity
  8
0
 62
     0
370
    15
100
AcDbCircle
 10
971.0598458069934
 20
645.2050309722494
 30
0.0
 40
0.5
100
AcDbArc
 50
270.0001261193138
 51
303.000126119065
  0
ARC
  5
85D
330
1F
100
AcDbEntity
  8
0
 62
     0
370
    15
100
AcDbCircle
 10
973.2335231332536
 20
645.305038838604
 30
0.0
 40
0.6
100
AcDbArc
 50
57.00012611909873
 51
123.000126119065
  0
LINE
  5
85E
330
1F
100
AcDbEntity
  8
0
 62
     0
370
    15
100
AcDbLine
 10
973.5603054481753
 20
645.8082418976736
 30
0.0
 11
975.1348823052985
 21
644.7857046582202
 31
0.0
  0
ARC
  5
85F
330
1F
100
AcDbEntity
  8
0
 62
     0
370
    15
100
AcDbCircle
 10
975.4072008997672
 20
645.2050405416208
 30
0.0
 40
0.5
100
AcDbArc
 50
237.0001261190988
 51
270.0001261188969
  0
LINE
  5
860
330
1F
100
AcDbEntity
  8
0
 62
     0
370
    15
100
AcDbLine
 10
975.4072020003613
 20
644.705040541623
 30
0.0
 11
975.8335222508913
 21
644.7050414800351
 31
0.0
  0
ARC
  5
861
330
1F
100
AcDbEntity
  8
0
 62
     0
370
    15
100
AcDbCircle
 10
1000.633524016378
 20
643.3050419153455
 30
0.0
 40
0.2
100
AcDbArc
 50
180.0000001086498
 51
270.0000001085976
  0
LINE
  5
862
330
1F
100
AcDbEntity
  8
0
 62
     0
370
    15
100
AcDbLine
 10
1000.433524014482
 20
644.5050419149675
 30
0.0
 11
1000.433524016755
 21
643.3050295988987
 31
0.0
  0
ARC
  5
863
330
1F
100
AcDbEntity
  8
0
 62
     0
370
    15
100
AcDbCircle
 10
1000.633524014481
 20
644.5050419153463
 30
0.0
 40
0.2
100
AcDbArc
 50
90.00000010859768
 51
180.0000001086498
  0
ARC
  5
864
330
1F
100
AcDbEntity
  8
0
 62
     0
370
    15
100
AcDbCircle
 10
1005.833524011846
 20
644.5050419202758
 30
0.0
 40
0.2
100
AcDbArc
 50
0.0
 51
90.0
  0
ARC
  5
865
330
1F
100
AcDbEntity
  8
0
 62
     0
370
    15
100
AcDbCircle
 10
1005.833524011846
 20
643.305041920275
 30
0.0
 40
0.2
100
AcDbArc
 50
270.0
 51
0.0
  0
LINE
  5
866
330
1F
100
AcDbEntity
  8
0
 62
     0
370
    15
100
AcDbLine
 10
1005.407203761316
 20
643.1050419202748
 30
0.0
 11
1005.833524011846
 21
643.1050419202756
 31
0.0
  0
LINE
  5
867
330
1F
100
AcDbEntity
  8
0
 62
     0
370
    15
100
AcDbLine
 10
1006.033524011846
 20
644.5050419202762
 30
0.0
 11
1006.033524011846
 21
643.3050419202754
 31
0.0
  0
ARC
  5
868
330
1F
100
AcDbEntity
  8
0
 62
     0
370
    15
100
AcDbCircle
 10
1003.233526214927
 20
642.5050388386048
 30
0.0
 40
0.6
100
AcDbArc
 50
236.9999999999826
 51
303.0000000000173
  0
LINE
  5
869
330
1F
100
AcDbEntity
  8
0
 62
     0
370
    15
100
AcDbLine
 10
1003.560309637493
 20
642.0018364988491
 30
0.0
 11
1005.13488424381
 21
643.0243772042476
 31
0.0
  0
ARC
  5
86A
330
1F
100
AcDbEntity
  8
0
 62
     0
370
    15
100
AcDbCircle
 10
1005.407203761317
 20
642.6050419202742
 30
0.0
 40
0.5
100
AcDbArc
 50
90.00000000020843
 51
123.0000000000173
  0
ARC
  5
86B
330
1F
100
AcDbEntity
  8
0
 62
     0
370
    15
100
AcDbCircle
 10
1001.059848668535
 20
642.6050419202742
 30
0.0
 40
0.5
100
AcDbArc
 50
56.99999999998267
 51
89.99999999979156
  0
LINE
  5
86C
330
1F
100
AcDbEntity
  8
0
 62
     0
370
    15
100
AcDbLine
 10
1001.059848668536
 20
643.1050419202748
 30
0.0
 11
1000.633528418007
 21
643.1050419202756
 31
0.0
  0
LINE
  5
86D
330
1F
100
AcDbEntity
  8
0
 62
     0
370
    15
100
AcDbLine
 10
1002.906742792361
 20
642.0018364988491
 30
0.0
 11
1001.332168186042
 21
643.0243772042476
 31
0.0
  0
LINE
  5
86E
330
1F
100
AcDbEntity
  8
0
 62
     0
370
    15
100
AcDbLine
 10
1002.906738603043
 20
645.8082404590459
 30
0.0
 11
1001.33216624754
 21
644.7856962877058
 31
0.0
  0
LINE
  5
86F
330
1F
100
AcDbEntity
  8
0
 62
     0
370
    15
100
AcDbLine
 10
1001.059846907595
 20
644.7050309722517
 30
0.0
 11
1000.633526657065
 21
644.7050300338369
 31
0.0
  0
ARC
  5
870
330
1F
100
AcDbEntity
  8
0
 62
     0
370
    15
100
AcDbCircle
 10
1001.059845806993
 20
645.2050309722494
 30
0.0
 40
0.5
100
AcDbArc
 50
270.0001261193138
 51
303.000126119065
  0
ARC
  5
871
330
1F
100
AcDbEntity
  8
0
 62
     0
370
    15
100
AcDbCircle
 10
1003.233523133253
 20
645.305038838604
 30
0.0
 40
0.6
100
AcDbArc
 50
57.00012611909873
 51
123.000126119065
  0
LINE
  5
872
330
1F
100
AcDbEntity
  8
0
 62
     0
370
    15
100
AcDbLine
 10
1003.560305448175
 20
645.8082418976736
 30
0.0
 11
1005.134882305299
 21
644.7857046582202
 31
0.0
  0
ARC
  5
873
330
1F
100
AcDbEntity
  8
0
 62
     0
370
    15
100
AcDbCircle
 10
1005.407200899767
 20
645.2050405416208
 30
0.0
 40
0.5
100
AcDbArc
 50
237.0001261190988
 51
270.0001261188969
  0
LINE
  5
874
330
1F
100
AcDbEntity
  8
0
 62
     0
370
    15
100
AcDbLine
 10
1005.407202000361
 20
644.705040541623
 30
0.0
 11
1005.833522250891
 21
644.7050414800351
 31
0.0
  0
ARC
  5
875
330
1F
100
AcDbEntity
  8
0
 62
     0
370
    15
100
AcDbCircle
 10
985.633524016378
 20
643.3050419153455
 30
0.0
 40
0.2
100
AcDbArc
 50
180.0000001086498
 51
270.0000001085976
  0
LINE
  5
876
330
1F
100
AcDbEntity
  8
0
 62
     0
370
    15
100
AcDbLine
 10
985.4335240144818
 20
644.5050419149675
 30
0.0
 11
985.4335240167555
 21
643.3050295988987
 31
0.0
  0
ARC
  5
877
330
1F
100
AcDbEntity
  8
0
 62
     0
370
    15
100
AcDbCircle
 10
985.6335240144808
 20
644.5050419153463
 30
0.0
 40
0.2
100
AcDbArc
 50
90.00000010859768
 51
180.0000001086498
  0
ARC
  5
878
330
1F
100
AcDbEntity
  8
0
 62
     0
370
    15
100
AcDbCircle
 10
990.8335240118459
 20
644.5050419202758
 30
0.0
 40
0.2
100
AcDbArc
 50
0.0
 51
90.0
  0
ARC
  5
879
330
1F
100
AcDbEntity
  8
0
 62
     0
370
    15
100
AcDbCircle
 10
990.8335240118459
 20
643.305041920275
 30
0.0
 40
0.2
100
AcDbArc
 50
270.0
 51
0.0
  0
LINE
  5
87A
330
1F
100
AcDbEntity
  8
0
 62
     0
370
    15
100
AcDbLine
 10
990.4072037613159
 20
643.1050419202748
 30
0.0
 11
990.8335240118459
 21
643.1050419202756
 31
0.0
  0
LINE
  5
87B
330
1F
100
AcDbEntity
  8
0
 62
     0
370
    15
100
AcDbLine
 10
991.0335240118465
 20
644.5050419202762
 30
0.0
 11
991.0335240118465
 21
643.3050419202754
 31
0.0
  0
ARC
  5
87C
330
1F
100
AcDbEntity
  8
0
 62
     0
370
    15
100
AcDbCircle
 10
988.2335262149272
 20
642.5050388386048
 30
0.0
 40
0.6
100
AcDbArc
 50
236.9999999999826
 51
303.0000000000173
  0
LINE
  5
87D
330
1F
100
AcDbEntity
  8
0
 62
     0
370
    15
100
AcDbLine
 10
988.5603096374934
 20
642.0018364988491
 30
0.0
 11
990.1348842438101
 21
643.0243772042476
 31
0.0
  0
ARC
  5
87E
330
1F
100
AcDbEntity
  8
0
 62
     0
370
    15
100
AcDbCircle
 10
990.4072037613177
 20
642.6050419202742
 30
0.0
 40
0.5
100
AcDbArc
 50
90.00000000020843
 51
123.0000000000173
  0
ARC
  5
87F
330
1F
100
AcDbEntity
  8
0
 62
     0
370
    15
100
AcDbCircle
 10
986.0598486685349
 20
642.6050419202742
 30
0.0
 40
0.5
100
AcDbArc
 50
56.99999999998267
 51
89.99999999979156
  0
LINE
  5
880
330
1F
100
AcDbEntity
  8
0
 62
     0
370
    15
100
AcDbLine
 10
986.0598486685367
 20
643.1050419202748
 30
0.0
 11
985.6335284180067
 21
643.1050419202756
 31
0.0
  0
LINE
  5
881
330
1F
100
AcDbEntity
  8
0
 62
     0
370
    15
100
AcDbLine
 10
987.906742792361
 20
642.0018364988491
 30
0.0
 11
986.3321681860425
 21
643.0243772042476
 31
0.0
  0
LINE
  5
882
330
1F
100
AcDbEntity
  8
0
 62
     0
370
    15
100
AcDbLine
 10
987.9067386030428
 20
645.8082404590459
 30
0.0
 11
986.3321662475399
 21
644.7856962877058
 31
0.0
  0
LINE
  5
883
330
1F
100
AcDbEntity
  8
0
 62
     0
370
    15
100
AcDbLine
 10
986.0598469075949
 20
644.7050309722517
 30
0.0
 11
985.6335266570649
 21
644.7050300338369
 31
0.0
  0
ARC
  5
884
330
1F
100
AcDbEntity
  8
0
 62
     0
370
    15
100
AcDbCircle
 10
986.0598458069935
 20
645.2050309722494
 30
0.0
 40
0.5
100
AcDbArc
 50
270.0001261193138
 51
303.000126119065
  0
ARC
  5
885
330
1F
100
AcDbEntity
  8
0
 62
     0
370
    15
100
AcDbCircle
 10
988.2335231332536
 20
645.305038838604
 30
0.0
 40
0.6
100
AcDbArc
 50
57.00012611909873
 51
123.000126119065
  0
LINE
  5
886
330
1F
100
AcDbEntity
  8
0
 62
     0
370
    15
100
AcDbLine
 10
988.5603054481753
 20
645.8082418976736
 30
0.0
 11
990.1348823052986
 21
644.7857046582202
 31
0.0
  0
ARC
  5
887
330
1F
100
AcDbEntity
  8
0
 62
     0
370
    15
100
AcDbCircle
 10
990.4072008997673
 20
645.2050405416208
 30
0.0
 40
0.5
100
AcDbArc
 50
237.0001261190988
 51
270.0001261188969
  0
LINE
  5
888
330
1F
100
AcDbEntity
  8
0
 62
     0
370
    15
100
AcDbLine
 10
990.4072020003614
 20
644.705040541623
 30
0.0
 11
990.8335222508913
 21
644.7050414800351
 31
0.0
  0
ARC
  5
889
330
1F
100
AcDbEntity
  8
0
 62
     0
370
    15
100
AcDbCircle
 10
1030.633524016378
 20
643.3050419153455
 30
0.0
 40
0.2
100
AcDbArc
 50
180.0000001086498
 51
270.0000001085976
  0
LINE
  5
88A
330
1F
100
AcDbEntity
  8
0
 62
     0
370
    15
100
AcDbLine
 10
1030.433524014482
 20
644.5050419149675
 30
0.0
 11
1030.433524016755
 21
643.3050295988987
 31
0.0
  0
ARC
  5
88B
330
1F
100
AcDbEntity
  8
0
 62
     0
370
    15
100
AcDbCircle
 10
1030.633524014481
 20
644.5050419153463
 30
0.0
 40
0.2
100
AcDbArc
 50
90.00000010859768
 51
180.0000001086498
  0
ARC
  5
88C
330
1F
100
AcDbEntity
  8
0
 62
     0
370
    15
100
AcDbCircle
 10
1035.833524011846
 20
644.5050419202758
 30
0.0
 40
0.2
100
AcDbArc
 50
0.0
 51
90.0
  0
ARC
  5
88D
330
1F
100
AcDbEntity
  8
0
 62
     0
370
    15
100
AcDbCircle
 10
1035.833524011846
 20
643.305041920275
 30
0.0
 40
0.2
100
AcDbArc
 50
270.0
 51
0.0
  0
LINE
  5
88E
330
1F
100
AcDbEntity
  8
0
 62
     0
370
    15
100
AcDbLine
 10
1035.407203761316
 20
643.1050419202748
 30
0.0
 11
1035.833524011846
 21
643.1050419202756
 31
0.0
  0
LINE
  5
88F
330
1F
100
AcDbEntity
  8
0
 62
     0
370
    15
100
AcDbLine
 10
1036.033524011847
 20
644.5050419202762
 30
0.0
 11
1036.033524011847
 21
643.3050419202754
 31
0.0
  0
ARC
  5
890
330
1F
100
AcDbEntity
  8
0
 62
     0
370
    15
100
AcDbCircle
 10
1033.233526214927
 20
642.5050388386048
 30
0.0
 40
0.6
100
AcDbArc
 50
236.9999999999826
 51
303.0000000000173
  0
LINE
  5
891
330
1F
100
AcDbEntity
  8
0
 62
     0
370
    15
100
AcDbLine
 10
1033.560309637493
 20
642.0018364988491
 30
0.0
 11
1035.13488424381
 21
643.0243772042476
 31
0.0
  0
ARC
  5
892
330
1F
100
AcDbEntity
  8
0
 62
     0
370
    15
100
AcDbCircle
 10
1035.407203761318
 20
642.6050419202742
 30
0.0
 40
0.5
100
AcDbArc
 50
90.00000000020843
 51
123.0000000000173
  0
ARC
  5
893
330
1F
100
AcDbEntity
  8
0
 62
     0
370
    15
100
AcDbCircle
 10
1031.059848668535
 20
642.6050419202742
 30
0.0
 40
0.5
100
AcDbArc
 50
56.99999999998267
 51
89.99999999979156
  0
LINE
  5
894
330
1F
100
AcDbEntity
  8
0
 62
     0
370
    15
100
AcDbLine
 10
1031.059848668536
 20
643.1050419202748
 30
0.0
 11
1030.633528418007
 21
643.1050419202756
 31
0.0
  0
LINE
  5
895
330
1F
100
AcDbEntity
  8
0
 62
     0
370
    15
100
AcDbLine
 10
1032.906742792361
 20
642.0018364988491
 30
0.0
 11
1031.332168186042
 21
643.0243772042476
 31
0.0
  0
LINE
  5
896
330
1F
100
AcDbEntity
  8
0
 62
     0
370
    15
100
AcDbLine
 10
1032.906738603043
 20
645.8082404590459
 30
0.0
 11
1031.33216624754
 21
644.7856962877058
 31
0.0
  0
LINE
  5
897
330
1F
100
AcDbEntity
  8
0
 62
     0
370
    15
100
AcDbLine
 10
1031.059846907595
 20
644.7050309722517
 30
0.0
 11
1030.633526657065
 21
644.7050300338369
 31
0.0
  0
ARC
  5
898
330
1F
100
AcDbEntity
  8
0
 62
     0
370
    15
100
AcDbCircle
 10
1031.059845806993
 20
645.2050309722494
 30
0.0
 40
0.5
100
AcDbArc
 50
270.0001261193138
 51
303.000126119065
  0
ARC
  5
899
330
1F
100
AcDbEntity
  8
0
 62
     0
370
    15
100
AcDbCircle
 10
1033.233523133253
 20
645.305038838604
 30
0.0
 40
0.6
100
AcDbArc
 50
57.00012611909873
 51
123.000126119065
  0
LINE
  5
89A
330
1F
100
AcDbEntity
  8
0
 62
     0
370
    15
100
AcDbLine
 10
1033.560305448175
 20
645.8082418976736
 30
0.0
 11
1035.134882305298
 21
644.7857046582202
 31
0.0
  0
ARC
  5
89B
330
1F
100
AcDbEntity
  8
0
 62
     0
370
    15
100
AcDbCircle
 10
1035.407200899767
 20
645.2050405416208
 30
0.0
 40
0.5
100
AcDbArc
 50
237.0001261190988
 51
270.0001261188969
  0
LINE
  5
89C
330
1F
100
AcDbEntity
  8
0
 62
     0
370
    15
100
AcDbLine
 10
1035.407202000361
 20
644.705040541623
 30
0.0
 11
1035.833522250891
 21
644.7050414800351
 31
0.0
  0
ARC
  5
89D
330
1F
100
AcDbEntity
  8
0
 62
     0
370
    15
100
AcDbCircle
 10
1015.633524016378
 20
643.3050419153455
 30
0.0
 40
0.2
100
AcDbArc
 50
180.0000001086498
 51
270.0000001085976
  0
LINE
  5
89E
330
1F
100
AcDbEntity
  8
0
 62
     0
370
    15
100
AcDbLine
 10
1015.433524014482
 20
644.5050419149675
 30
0.0
 11
1015.433524016756
 21
643.3050295988987
 31
0.0
  0
ARC
  5
89F
330
1F
100
AcDbEntity
  8
0
 62
     0
370
    15
100
AcDbCircle
 10
1015.633524014481
 20
644.5050419153463
 30
0.0
 40
0.2
100
AcDbArc
 50
90.00000010859768
 51
180.0000001086498
  0
ARC
  5
8A0
330
1F
100
AcDbEntity
  8
0
 62
     0
370
    15
100
AcDbCircle
 10
1020.833524011846
 20
644.5050419202758
 30
0.0
 40
0.2
100
AcDbArc
 50
0.0
 51
90.0
  0
ARC
  5
8A1
330
1F
100
AcDbEntity
  8
0
 62
     0
370
    15
100
AcDbCircle
 10
1020.833524011846
 20
643.305041920275
 30
0.0
 40
0.2
100
AcDbArc
 50
270.0
 51
0.0
  0
LINE
  5
8A2
330
1F
100
AcDbEntity
  8
0
 62
     0
370
    15
100
AcDbLine
 10
1020.407203761316
 20
643.1050419202748
 30
0.0
 11
1020.833524011846
 21
643.1050419202756
 31
0.0
  0
LINE
  5
8A3
330
1F
100
AcDbEntity
  8
0
 62
     0
370
    15
100
AcDbLine
 10
1021.033524011846
 20
644.5050419202762
 30
0.0
 11
1021.033524011846
 21
643.3050419202754
 31
0.0
  0
ARC
  5
8A4
330
1F
100
AcDbEntity
  8
0
 62
     0
370
    15
100
AcDbCircle
 10
1018.233526214927
 20
642.5050388386048
 30
0.0
 40
0.6
100
AcDbArc
 50
236.9999999999826
 51
303.0000000000173
  0
LINE
  5
8A5
330
1F
100
AcDbEntity
  8
0
 62
     0
370
    15
100
AcDbLine
 10
1018.560309637493
 20
642.0018364988491
 30
0.0
 11
1020.13488424381
 21
643.0243772042476
 31
0.0
  0
ARC
  5
8A6
330
1F
100
AcDbEntity
  8
0
 62
     0
370
    15
100
AcDbCircle
 10
1020.407203761318
 20
642.6050419202742
 30
0.0
 40
0.5
100
AcDbArc
 50
90.00000000020843
 51
123.0000000000173
  0
ARC
  5
8A7
330
1F
100
AcDbEntity
  8
0
 62
     0
370
    15
100
AcDbCircle
 10
1016.059848668535
 20
642.6050419202742
 30
0.0
 40
0.5
100
AcDbArc
 50
56.99999999998267
 51
89.99999999979156
  0
LINE
  5
8A8
330
1F
100
AcDbEntity
  8
0
 62
     0
370
    15
100
AcDbLine
 10
1016.059848668537
 20
643.1050419202748
 30
0.0
 11
1015.633528418007
 21
643.1050419202756
 31
0.0
  0
LINE
  5
8A9
330
1F
100
AcDbEntity
  8
0
 62
     0
370
    15
100
AcDbLine
 10
1017.906742792361
 20
642.0018364988491
 30
0.0
 11
1016.332168186042
 21
643.0243772042476
 31
0.0
  0
LINE
  5
8AA
330
1F
100
AcDbEntity
  8
0
 62
     0
370
    15
100
AcDbLine
 10
1017.906738603043
 20
645.8082404590459
 30
0.0
 11
1016.33216624754
 21
644.7856962877058
 31
0.0
  0
LINE
  5
8AB
330
1F
100
AcDbEntity
  8
0
 62
     0
370
    15
100
AcDbLine
 10
1016.059846907594
 20
644.7050309722517
 30
0.0
 11
1015.633526657065
 21
644.7050300338369
 31
0.0
  0
ARC
  5
8AC
330
1F
100
AcDbEntity
  8
0
 62
     0
370
    15
100
AcDbCircle
 10
1016.059845806993
 20
645.2050309722494
 30
0.0
 40
0.5
100
AcDbArc
 50
270.0001261193138
 51
303.000126119065
  0
ARC
  5
8AD
330
1F
100
AcDbEntity
  8
0
 62
     0
370
    15
100
AcDbCircle
 10
1018.233523133253
 20
645.305038838604
 30
0.0
 40
0.6
100
AcDbArc
 50
57.00012611909873
 51
123.000126119065
  0
LINE
  5
8AE
330
1F
100
AcDbEntity
  8
0
 62
     0
370
    15
100
AcDbLine
 10
1018.560305448175
 20
645.8082418976736
 30
0.0
 11
1020.134882305298
 21
644.7857046582202
 31
0.0
  0
ARC
  5
8AF
330
1F
100
AcDbEntity
  8
0
 62
     0
370
    15
100
AcDbCircle
 10
1020.407200899767
 20
645.2050405416208
 30
0.0
 40
0.5
100
AcDbArc
 50
237.0001261190988
 51
270.0001261188969
  0
LINE
  5
8B0
330
1F
100
AcDbEntity
  8
0
 62
     0
370
    15
100
AcDbLine
 10
1020.407202000361
 20
644.705040541623
 30
0.0
 11
1020.833522250891
 21
644.7050414800351
 31
0.0
  0
ARC
  5
8B1
330
1F
100
AcDbEntity
  8
0
 62
     0
370
    15
100
AcDbCircle
 10
1045.633524016378
 20
643.3050419153455
 30
0.0
 40
0.2
100
AcDbArc
 50
180.0000001086498
 51
270.0000001085976
  0
LINE
  5
8B2
330
1F
100
AcDbEntity
  8
0
 62
     0
370
    15
100
AcDbLine
 10
1045.433524014482
 20
644.5050419149675
 30
0.0
 11
1045.433524016756
 21
643.3050295988987
 31
0.0
  0
ARC
  5
8B3
330
1F
100
AcDbEntity
  8
0
 62
     0
370
    15
100
AcDbCircle
 10
1045.633524014481
 20
644.5050419153463
 30
0.0
 40
0.2
100
AcDbArc
 50
90.00000010859768
 51
180.0000001086498
  0
ARC
  5
8B4
330
1F
100
AcDbEntity
  8
0
 62
     0
370
    15
100
AcDbCircle
 10
1050.833524011846
 20
644.5050419202758
 30
0.0
 40
0.2
100
AcDbArc
 50
0.0
 51
90.0
  0
ARC
  5
8B5
330
1F
100
AcDbEntity
  8
0
 62
     0
370
    15
100
AcDbCircle
 10
1050.833524011846
 20
643.305041920275
 30
0.0
 40
0.2
100
AcDbArc
 50
270.0
 51
0.0
  0
LINE
  5
8B6
330
1F
100
AcDbEntity
  8
0
 62
     0
370
    15
100
AcDbLine
 10
1050.407203761316
 20
643.1050419202748
 30
0.0
 11
1050.833524011846
 21
643.1050419202756
 31
0.0
  0
LINE
  5
8B7
330
1F
100
AcDbEntity
  8
0
 62
     0
370
    15
100
AcDbLine
 10
1051.033524011846
 20
644.5050419202762
 30
0.0
 11
1051.033524011846
 21
643.3050419202754
 31
0.0
  0
ARC
  5
8B8
330
1F
100
AcDbEntity
  8
0
 62
     0
370
    15
100
AcDbCircle
 10
1048.233526214927
 20
642.5050388386048
 30
0.0
 40
0.6
100
AcDbArc
 50
236.9999999999826
 51
303.0000000000173
  0
LINE
  5
8B9
330
1F
100
AcDbEntity
  8
0
 62
     0
370
    15
100
AcDbLine
 10
1048.560309637493
 20
642.0018364988491
 30
0.0
 11
1050.13488424381
 21
643.0243772042476
 31
0.0
  0
ARC
  5
8BA
330
1F
100
AcDbEntity
  8
0
 62
     0
370
    15
100
AcDbCircle
 10
1050.407203761317
 20
642.6050419202742
 30
0.0
 40
0.5
100
AcDbArc
 50
90.00000000020843
 51
123.0000000000173
  0
ARC
  5
8BB
330
1F
100
AcDbEntity
  8
0
 62
     0
370
    15
100
AcDbCircle
 10
1046.059848668535
 20
642.6050419202742
 30
0.0
 40
0.5
100
AcDbArc
 50
56.99999999998267
 51
89.99999999979156
  0
LINE
  5
8BC
330
1F
100
AcDbEntity
  8
0
 62
     0
370
    15
100
AcDbLine
 10
1046.059848668536
 20
643.1050419202748
 30
0.0
 11
1045.633528418007
 21
643.1050419202756
 31
0.0
  0
LINE
  5
8BD
330
1F
100
AcDbEntity
  8
0
 62
     0
370
    15
100
AcDbLine
 10
1047.906742792361
 20
642.0018364988491
 30
0.0
 11
1046.332168186042
 21
643.0243772042476
 31
0.0
  0
LINE
  5
8BE
330
1F
100
AcDbEntity
  8
0
 62
     0
370
    15
100
AcDbLine
 10
1047.906738603043
 20
645.8082404590459
 30
0.0
 11
1046.33216624754
 21
644.7856962877058
 31
0.0
  0
LINE
  5
8BF
330
1F
100
AcDbEntity
  8
0
 62
     0
370
    15
100
AcDbLine
 10
1046.059846907595
 20
644.7050309722517
 30
0.0
 11
1045.633526657065
 21
644.7050300338369
 31
0.0
  0
ARC
  5
8C0
330
1F
100
AcDbEntity
  8
0
 62
     0
370
    15
100
AcDbCircle
 10
1046.059845806993
 20
645.2050309722494
 30
0.0
 40
0.5
100
AcDbArc
 50
270.0001261193138
 51
303.000126119065
  0
ARC
  5
8C1
330
1F
100
AcDbEntity
  8
0
 62
     0
370
    15
100
AcDbCircle
 10
1048.233523133253
 20
645.305038838604
 30
0.0
 40
0.6
100
AcDbArc
 50
57.00012611909873
 51
123.000126119065
  0
LINE
  5
8C2
330
1F
100
AcDbEntity
  8
0
 62
     0
370
    15
100
AcDbLine
 10
1048.560305448175
 20
645.8082418976736
 30
0.0
 11
1050.134882305298
 21
644.7857046582202
 31
0.0
  0
ARC
  5
8C3
330
1F
100
AcDbEntity
  8
0
 62
     0
370
    15
100
AcDbCircle
 10
1050.407200899767
 20
645.2050405416208
 30
0.0
 40
0.5
100
AcDbArc
 50
237.0001261190988
 51
270.0001261188969
  0
LINE
  5
8C4
330
1F
100
AcDbEntity
  8
0
 62
     0
370
    15
100
AcDbLine
 10
1050.407202000361
 20
644.705040541623
 30
0.0
 11
1050.833522250891
 21
644.7050414800351
 31
0.0
  0
ARC
  5
8C5
330
1F
100
AcDbEntity
  8
0
 62
     0
370
    15
100
AcDbCircle
 10
1060.633524016378
 20
643.3050419153455
 30
0.0
 40
0.2
100
AcDbArc
 50
180.0000001086498
 51
270.0000001085976
  0
LINE
  5
8C6
330
1F
100
AcDbEntity
  8
0
 62
     0
370
    15
100
AcDbLine
 10
1060.433524014482
 20
644.5050419149675
 30
0.0
 11
1060.433524016755
 21
643.3050295988987
 31
0.0
  0
ARC
  5
8C7
330
1F
100
AcDbEntity
  8
0
 62
     0
370
    15
100
AcDbCircle
 10
1060.633524014481
 20
644.5050419153463
 30
0.0
 40
0.2
100
AcDbArc
 50
90.00000010859768
 51
180.0000001086498
  0
ARC
  5
8C8
330
1F
100
AcDbEntity
  8
0
 62
     0
370
    15
100
AcDbCircle
 10
1065.833524011846
 20
644.5050419202758
 30
0.0
 40
0.2
100
AcDbArc
 50
0.0
 51
90.0
  0
ARC
  5
8C9
330
1F
100
AcDbEntity
  8
0
 62
     0
370
    15
100
AcDbCircle
 10
1065.833524011846
 20
643.305041920275
 30
0.0
 40
0.2
100
AcDbArc
 50
270.0
 51
0.0
  0
LINE
  5
8CA
330
1F
100
AcDbEntity
  8
0
 62
     0
370
    15
100
AcDbLine
 10
1065.407203761316
 20
643.1050419202748
 30
0.0
 11
1065.833524011846
 21
643.1050419202756
 31
0.0
  0
LINE
  5
8CB
330
1F
100
AcDbEntity
  8
0
 62
     0
370
    15
100
AcDbLine
 10
1066.033524011846
 20
644.5050419202762
 30
0.0
 11
1066.033524011846
 21
643.3050419202754
 31
0.0
  0
ARC
  5
8CC
330
1F
100
AcDbEntity
  8
0
 62
     0
370
    15
100
AcDbCircle
 10
1063.233526214927
 20
642.5050388386048
 30
0.0
 40
0.6
100
AcDbArc
 50
236.9999999999826
 51
303.0000000000173
  0
LINE
  5
8CD
330
1F
100
AcDbEntity
  8
0
 62
     0
370
    15
100
AcDbLine
 10
1063.560309637493
 20
642.0018364988491
 30
0.0
 11
1065.13488424381
 21
643.0243772042476
 31
0.0
  0
ARC
  5
8CE
330
1F
100
AcDbEntity
  8
0
 62
     0
370
    15
100
AcDbCircle
 10
1065.407203761318
 20
642.6050419202742
 30
0.0
 40
0.5
100
AcDbArc
 50
90.00000000020843
 51
123.0000000000173
  0
ARC
  5
8CF
330
1F
100
AcDbEntity
  8
0
 62
     0
370
    15
100
AcDbCircle
 10
1061.059848668535
 20
642.6050419202742
 30
0.0
 40
0.5
100
AcDbArc
 50
56.99999999998267
 51
89.99999999979156
  0
LINE
  5
8D0
330
1F
100
AcDbEntity
  8
0
 62
     0
370
    15
100
AcDbLine
 10
1061.059848668536
 20
643.1050419202748
 30
0.0
 11
1060.633528418007
 21
643.1050419202756
 31
0.0
  0
LINE
  5
8D1
330
1F
100
AcDbEntity
  8
0
 62
     0
370
    15
100
AcDbLine
 10
1062.906742792361
 20
642.0018364988491
 30
0.0
 11
1061.332168186042
 21
643.0243772042476
 31
0.0
  0
LINE
  5
8D2
330
1F
100
AcDbEntity
  8
0
 62
     0
370
    15
100
AcDbLine
 10
1062.906738603043
 20
645.8082404590459
 30
0.0
 11
1061.33216624754
 21
644.7856962877058
 31
0.0
  0
LINE
  5
8D3
330
1F
100
AcDbEntity
  8
0
 62
     0
370
    15
100
AcDbLine
 10
1061.059846907595
 20
644.7050309722517
 30
0.0
 11
1060.633526657065
 21
644.7050300338369
 31
0.0
  0
ARC
  5
8D4
330
1F
100
AcDbEntity
  8
0
 62
     0
370
    15
100
AcDbCircle
 10
1061.059845806993
 20
645.2050309722494
 30
0.0
 40
0.5
100
AcDbArc
 50
270.0001261193138
 51
303.000126119065
  0
ARC
  5
8D5
330
1F
100
AcDbEntity
  8
0
 62
     0
370
    15
100
AcDbCircle
 10
1063.233523133253
 20
645.305038838604
 30
0.0
 40
0.6
100
AcDbArc
 50
57.00012611909873
 51
123.000126119065
  0
LINE
  5
8D6
330
1F
100
AcDbEntity
  8
0
 62
     0
370
    15
100
AcDbLine
 10
1063.560305448175
 20
645.8082418976736
 30
0.0
 11
1065.134882305298
 21
644.7857046582202
 31
0.0
  0
ARC
  5
8D7
330
1F
100
AcDbEntity
  8
0
 62
     0
370
    15
100
AcDbCircle
 10
1065.407200899767
 20
645.2050405416208
 30
0.0
 40
0.5
100
AcDbArc
 50
237.0001261190988
 51
270.0001261188969
  0
LINE
  5
8D8
330
1F
100
AcDbEntity
  8
0
 62
     0
370
    15
100
AcDbLine
 10
1065.407202000361
 20
644.705040541623
 30
0.0
 11
1065.833522250891
 21
644.7050414800351
 31
0.0
  0
ARC
  5
8D9
330
1F
100
AcDbEntity
  8
0
 62
     0
370
    15
100
AcDbCircle
 10
1105.633524016378
 20
643.3050419153455
 30
0.0
 40
0.2
100
AcDbArc
 50
180.0000001086498
 51
270.0000001085976
  0
LINE
  5
8DA
330
1F
100
AcDbEntity
  8
0
 62
     0
370
    15
100
AcDbLine
 10
1105.433524014482
 20
644.5050419149675
 30
0.0
 11
1105.433524016755
 21
643.3050295988987
 31
0.0
  0
ARC
  5
8DB
330
1F
100
AcDbEntity
  8
0
 62
     0
370
    15
100
AcDbCircle
 10
1105.633524014481
 20
644.5050419153463
 30
0.0
 40
0.2
100
AcDbArc
 50
90.00000010859768
 51
180.0000001086498
  0
ARC
  5
8DC
330
1F
100
AcDbEntity
  8
0
 62
     0
370
    15
100
AcDbCircle
 10
1110.833524011846
 20
644.5050419202758
 30
0.0
 40
0.2
100
AcDbArc
 50
0.0
 51
90.0
  0
ARC
  5
8DD
330
1F
100
AcDbEntity
  8
0
 62
     0
370
    15
100
AcDbCircle
 10
1110.833524011846
 20
643.305041920275
 30
0.0
 40
0.2
100
AcDbArc
 50
270.0
 51
0.0
  0
LINE
  5
8DE
330
1F
100
AcDbEntity
  8
0
 62
     0
370
    15
100
AcDbLine
 10
1110.407203761316
 20
643.1050419202748
 30
0.0
 11
1110.833524011846
 21
643.1050419202756
 31
0.0
  0
LINE
  5
8DF
330
1F
100
AcDbEntity
  8
0
 62
     0
370
    15
100
AcDbLine
 10
1111.033524011846
 20
644.5050419202762
 30
0.0
 11
1111.033524011846
 21
643.3050419202754
 31
0.0
  0
ARC
  5
8E0
330
1F
100
AcDbEntity
  8
0
 62
     0
370
    15
100
AcDbCircle
 10
1108.233526214927
 20
642.5050388386048
 30
0.0
 40
0.6
100
AcDbArc
 50
236.9999999999826
 51
303.0000000000173
  0
LINE
  5
8E1
330
1F
100
AcDbEntity
  8
0
 62
     0
370
    15
100
AcDbLine
 10
1108.560309637493
 20
642.0018364988491
 30
0.0
 11
1110.13488424381
 21
643.0243772042476
 31
0.0
  0
ARC
  5
8E2
330
1F
100
AcDbEntity
  8
0
 62
     0
370
    15
100
AcDbCircle
 10
1110.407203761317
 20
642.6050419202742
 30
0.0
 40
0.5
100
AcDbArc
 50
90.00000000020843
 51
123.0000000000173
  0
ARC
  5
8E3
330
1F
100
AcDbEntity
  8
0
 62
     0
370
    15
100
AcDbCircle
 10
1106.059848668535
 20
642.6050419202742
 30
0.0
 40
0.5
100
AcDbArc
 50
56.99999999998267
 51
89.99999999979156
  0
LINE
  5
8E4
330
1F
100
AcDbEntity
  8
0
 62
     0
370
    15
100
AcDbLine
 10
1106.059848668536
 20
643.1050419202748
 30
0.0
 11
1105.633528418007
 21
643.1050419202756
 31
0.0
  0
LINE
  5
8E5
330
1F
100
AcDbEntity
  8
0
 62
     0
370
    15
100
AcDbLine
 10
1107.906742792361
 20
642.0018364988491
 30
0.0
 11
1106.332168186042
 21
643.0243772042476
 31
0.0
  0
LINE
  5
8E6
330
1F
100
AcDbEntity
  8
0
 62
     0
370
    15
100
AcDbLine
 10
1107.906738603043
 20
645.8082404590459
 30
0.0
 11
1106.33216624754
 21
644.7856962877058
 31
0.0
  0
LINE
  5
8E7
330
1F
100
AcDbEntity
  8
0
 62
     0
370
    15
100
AcDbLine
 10
1106.059846907595
 20
644.7050309722517
 30
0.0
 11
1105.633526657065
 21
644.7050300338369
 31
0.0
  0
ARC
  5
8E8
330
1F
100
AcDbEntity
  8
0
 62
     0
370
    15
100
AcDbCircle
 10
1106.059845806993
 20
645.2050309722494
 30
0.0
 40
0.5
100
AcDbArc
 50
270.0001261193138
 51
303.000126119065
  0
ARC
  5
8E9
330
1F
100
AcDbEntity
  8
0
 62
     0
370
    15
100
AcDbCircle
 10
1108.233523133253
 20
645.305038838604
 30
0.0
 40
0.6
100
AcDbArc
 50
57.00012611909873
 51
123.000126119065
  0
LINE
  5
8EA
330
1F
100
AcDbEntity
  8
0
 62
     0
370
    15
100
AcDbLine
 10
1108.560305448175
 20
645.8082418976736
 30
0.0
 11
1110.134882305298
 21
644.7857046582202
 31
0.0
  0
ARC
  5
8EB
330
1F
100
AcDbEntity
  8
0
 62
     0
370
    15
100
AcDbCircle
 10
1110.407200899767
 20
645.2050405416208
 30
0.0
 40
0.5
100
AcDbArc
 50
237.0001261190988
 51
270.0001261188969
  0
LINE
  5
8EC
330
1F
100
AcDbEntity
  8
0
 62
     0
370
    15
100
AcDbLine
 10
1110.407202000361
 20
644.705040541623
 30
0.0
 11
1110.833522250891
 21
644.7050414800351
 31
0.0
  0
ARC
  5
8ED
330
1F
100
AcDbEntity
  8
0
 62
     0
370
    15
100
AcDbCircle
 10
1120.633524016378
 20
643.3050419153455
 30
0.0
 40
0.2
100
AcDbArc
 50
180.0000001086498
 51
270.0000001085976
  0
LINE
  5
8EE
330
1F
100
AcDbEntity
  8
0
 62
     0
370
    15
100
AcDbLine
 10
1120.433524014482
 20
644.5050419149675
 30
0.0
 11
1120.433524016755
 21
643.3050295988987
 31
0.0
  0
ARC
  5
8EF
330
1F
100
AcDbEntity
  8
0
 62
     0
370
    15
100
AcDbCircle
 10
1120.633524014481
 20
644.5050419153463
 30
0.0
 40
0.2
100
AcDbArc
 50
90.00000010859768
 51
180.0000001086498
  0
ARC
  5
8F0
330
1F
100
AcDbEntity
  8
0
 62
     0
370
    15
100
AcDbCircle
 10
1125.833524011846
 20
644.5050419202758
 30
0.0
 40
0.2
100
AcDbArc
 50
0.0
 51
90.0
  0
ARC
  5
8F1
330
1F
100
AcDbEntity
  8
0
 62
     0
370
    15
100
AcDbCircle
 10
1125.833524011846
 20
643.305041920275
 30
0.0
 40
0.2
100
AcDbArc
 50
270.0
 51
0.0
  0
LINE
  5
8F2
330
1F
100
AcDbEntity
  8
0
 62
     0
370
    15
100
AcDbLine
 10
1125.407203761316
 20
643.1050419202748
 30
0.0
 11
1125.833524011846
 21
643.1050419202756
 31
0.0
  0
LINE
  5
8F3
330
1F
100
AcDbEntity
  8
0
 62
     0
370
    15
100
AcDbLine
 10
1126.033524011846
 20
644.5050419202762
 30
0.0
 11
1126.033524011846
 21
643.3050419202754
 31
0.0
  0
ARC
  5
8F4
330
1F
100
AcDbEntity
  8
0
 62
     0
370
    15
100
AcDbCircle
 10
1123.233526214927
 20
642.5050388386048
 30
0.0
 40
0.6
100
AcDbArc
 50
236.9999999999826
 51
303.0000000000173
  0
LINE
  5
8F5
330
1F
100
AcDbEntity
  8
0
 62
     0
370
    15
100
AcDbLine
 10
1123.560309637493
 20
642.0018364988491
 30
0.0
 11
1125.13488424381
 21
643.0243772042476
 31
0.0
  0
ARC
  5
8F6
330
1F
100
AcDbEntity
  8
0
 62
     0
370
    15
100
AcDbCircle
 10
1125.407203761318
 20
642.6050419202742
 30
0.0
 40
0.5
100
AcDbArc
 50
90.00000000020843
 51
123.0000000000173
  0
ARC
  5
8F7
330
1F
100
AcDbEntity
  8
0
 62
     0
370
    15
100
AcDbCircle
 10
1121.059848668535
 20
642.6050419202742
 30
0.0
 40
0.5
100
AcDbArc
 50
56.99999999998267
 51
89.99999999979156
  0
LINE
  5
8F8
330
1F
100
AcDbEntity
  8
0
 62
     0
370
    15
100
AcDbLine
 10
1121.059848668537
 20
643.1050419202748
 30
0.0
 11
1120.633528418007
 21
643.1050419202756
 31
0.0
  0
LINE
  5
8F9
330
1F
100
AcDbEntity
  8
0
 62
     0
370
    15
100
AcDbLine
 10
1122.906742792361
 20
642.0018364988491
 30
0.0
 11
1121.332168186042
 21
643.0243772042476
 31
0.0
  0
LINE
  5
8FA
330
1F
100
AcDbEntity
  8
0
 62
     0
370
    15
100
AcDbLine
 10
1122.906738603043
 20
645.8082404590459
 30
0.0
 11
1121.33216624754
 21
644.7856962877058
 31
0.0
  0
LINE
  5
8FB
330
1F
100
AcDbEntity
  8
0
 62
     0
370
    15
100
AcDbLine
 10
1121.059846907595
 20
644.7050309722517
 30
0.0
 11
1120.633526657065
 21
644.7050300338369
 31
0.0
  0
ARC
  5
8FC
330
1F
100
AcDbEntity
  8
0
 62
     0
370
    15
100
AcDbCircle
 10
1121.059845806993
 20
645.2050309722494
 30
0.0
 40
0.5
100
AcDbArc
 50
270.0001261193138
 51
303.000126119065
  0
ARC
  5
8FD
330
1F
100
AcDbEntity
  8
0
 62
     0
370
    15
100
AcDbCircle
 10
1123.233523133253
 20
645.305038838604
 30
0.0
 40
0.6
100
AcDbArc
 50
57.00012611909873
 51
123.000126119065
  0
LINE
  5
8FE
330
1F
100
AcDbEntity
  8
0
 62
     0
370
    15
100
AcDbLine
 10
1123.560305448175
 20
645.8082418976736
 30
0.0
 11
1125.134882305298
 21
644.7857046582202
 31
0.0
  0
ARC
  5
8FF
330
1F
100
AcDbEntity
  8
0
 62
     0
370
    15
100
AcDbCircle
 10
1125.407200899767
 20
645.2050405416208
 30
0.0
 40
0.5
100
AcDbArc
 50
237.0001261190988
 51
270.0001261188969
  0
LINE
  5
900
330
1F
100
AcDbEntity
  8
0
 62
     0
370
    15
100
AcDbLine
 10
1125.407202000361
 20
644.705040541623
 30
0.0
 11
1125.833522250891
 21
644.7050414800351
 31
0.0
  0
ARC
  5
901
330
1F
100
AcDbEntity
  8
0
 62
     0
370
    15
100
AcDbCircle
 10
1090.633524016378
 20
643.3050419153455
 30
0.0
 40
0.2
100
AcDbArc
 50
180.0000001086498
 51
270.0000001085976
  0
LINE
  5
902
330
1F
100
AcDbEntity
  8
0
 62
     0
370
    15
100
AcDbLine
 10
1090.433524014482
 20
644.5050419149675
 30
0.0
 11
1090.433524016755
 21
643.3050295988987
 31
0.0
  0
ARC
  5
903
330
1F
100
AcDbEntity
  8
0
 62
     0
370
    15
100
AcDbCircle
 10
1090.633524014481
 20
644.5050419153463
 30
0.0
 40
0.2
100
AcDbArc
 50
90.00000010859768
 51
180.0000001086498
  0
ARC
  5
904
330
1F
100
AcDbEntity
  8
0
 62
     0
370
    15
100
AcDbCircle
 10
1095.833524011846
 20
644.5050419202758
 30
0.0
 40
0.2
100
AcDbArc
 50
0.0
 51
90.0
  0
ARC
  5
905
330
1F
100
AcDbEntity
  8
0
 62
     0
370
    15
100
AcDbCircle
 10
1095.833524011846
 20
643.305041920275
 30
0.0
 40
0.2
100
AcDbArc
 50
270.0
 51
0.0
  0
LINE
  5
906
330
1F
100
AcDbEntity
  8
0
 62
     0
370
    15
100
AcDbLine
 10
1095.407203761316
 20
643.1050419202748
 30
0.0
 11
1095.833524011846
 21
643.1050419202756
 31
0.0
  0
LINE
  5
907
330
1F
100
AcDbEntity
  8
0
 62
     0
370
    15
100
AcDbLine
 10
1096.033524011846
 20
644.5050419202762
 30
0.0
 11
1096.033524011846
 21
643.3050419202754
 31
0.0
  0
ARC
  5
908
330
1F
100
AcDbEntity
  8
0
 62
     0
370
    15
100
AcDbCircle
 10
1093.233526214927
 20
642.5050388386048
 30
0.0
 40
0.6
100
AcDbArc
 50
236.9999999999826
 51
303.0000000000173
  0
LINE
  5
909
330
1F
100
AcDbEntity
  8
0
 62
     0
370
    15
100
AcDbLine
 10
1093.560309637493
 20
642.0018364988491
 30
0.0
 11
1095.13488424381
 21
643.0243772042476
 31
0.0
  0
ARC
  5
90A
330
1F
100
AcDbEntity
  8
0
 62
     0
370
    15
100
AcDbCircle
 10
1095.407203761318
 20
642.6050419202742
 30
0.0
 40
0.5
100
AcDbArc
 50
90.00000000020843
 51
123.0000000000173
  0
ARC
  5
90B
330
1F
100
AcDbEntity
  8
0
 62
     0
370
    15
100
AcDbCircle
 10
1091.059848668535
 20
642.6050419202742
 30
0.0
 40
0.5
100
AcDbArc
 50
56.99999999998267
 51
89.99999999979156
  0
LINE
  5
90C
330
1F
100
AcDbEntity
  8
0
 62
     0
370
    15
100
AcDbLine
 10
1091.059848668536
 20
643.1050419202748
 30
0.0
 11
1090.633528418007
 21
643.1050419202756
 31
0.0
  0
LINE
  5
90D
330
1F
100
AcDbEntity
  8
0
 62
     0
370
    15
100
AcDbLine
 10
1092.906742792361
 20
642.0018364988491
 30
0.0
 11
1091.332168186042
 21
643.0243772042476
 31
0.0
  0
LINE
  5
90E
330
1F
100
AcDbEntity
  8
0
 62
     0
370
    15
100
AcDbLine
 10
1092.906738603043
 20
645.8082404590459
 30
0.0
 11
1091.33216624754
 21
644.7856962877058
 31
0.0
  0
LINE
  5
90F
330
1F
100
AcDbEntity
  8
0
 62
     0
370
    15
100
AcDbLine
 10
1091.059846907595
 20
644.7050309722517
 30
0.0
 11
1090.633526657065
 21
644.7050300338369
 31
0.0
  0
ARC
  5
910
330
1F
100
AcDbEntity
  8
0
 62
     0
370
    15
100
AcDbCircle
 10
1091.059845806993
 20
645.2050309722494
 30
0.0
 40
0.5
100
AcDbArc
 50
270.0001261193138
 51
303.000126119065
  0
ARC
  5
911
330
1F
100
AcDbEntity
  8
0
 62
     0
370
    15
100
AcDbCircle
 10
1093.233523133253
 20
645.305038838604
 30
0.0
 40
0.6
100
AcDbArc
 50
57.00012611909873
 51
123.000126119065
  0
LINE
  5
912
330
1F
100
AcDbEntity
  8
0
 62
     0
370
    15
100
AcDbLine
 10
1093.560305448175
 20
645.8082418976736
 30
0.0
 11
1095.134882305298
 21
644.7857046582202
 31
0.0
  0
ARC
  5
913
330
1F
100
AcDbEntity
  8
0
 62
     0
370
    15
100
AcDbCircle
 10
1095.407200899767
 20
645.2050405416208
 30
0.0
 40
0.5
100
AcDbArc
 50
237.0001261190988
 51
270.0001261188969
  0
LINE
  5
914
330
1F
100
AcDbEntity
  8
0
 62
     0
370
    15
100
AcDbLine
 10
1095.407202000361
 20
644.705040541623
 30
0.0
 11
1095.833522250891
 21
644.7050414800351
 31
0.0
  0
ARC
  5
915
330
1F
100
AcDbEntity
  8
0
 62
     0
370
    15
100
AcDbCircle
 10
1075.633524016378
 20
643.3050419153455
 30
0.0
 40
0.2
100
AcDbArc
 50
180.0000001086498
 51
270.0000001085976
  0
LINE
  5
916
330
1F
100
AcDbEntity
  8
0
 62
     0
370
    15
100
AcDbLine
 10
1075.433524014482
 20
644.5050419149675
 30
0.0
 11
1075.433524016755
 21
643.3050295988987
 31
0.0
  0
ARC
  5
917
330
1F
100
AcDbEntity
  8
0
 62
     0
370
    15
100
AcDbCircle
 10
1075.633524014481
 20
644.5050419153463
 30
0.0
 40
0.2
100
AcDbArc
 50
90.00000010859768
 51
180.0000001086498
  0
ARC
  5
918
330
1F
100
AcDbEntity
  8
0
 62
     0
370
    15
100
AcDbCircle
 10
1080.833524011846
 20
644.5050419202758
 30
0.0
 40
0.2
100
AcDbArc
 50
0.0
 51
90.0
  0
ARC
  5
919
330
1F
100
AcDbEntity
  8
0
 62
     0
370
    15
100
AcDbCircle
 10
1080.833524011846
 20
643.305041920275
 30
0.0
 40
0.2
100
AcDbArc
 50
270.0
 51
0.0
  0
LINE
  5
91A
330
1F
100
AcDbEntity
  8
0
 62
     0
370
    15
100
AcDbLine
 10
1080.407203761316
 20
643.1050419202748
 30
0.0
 11
1080.833524011846
 21
643.1050419202756
 31
0.0
  0
LINE
  5
91B
330
1F
100
AcDbEntity
  8
0
 62
     0
370
    15
100
AcDbLine
 10
1081.033524011846
 20
644.5050419202762
 30
0.0
 11
1081.033524011846
 21
643.3050419202754
 31
0.0
  0
ARC
  5
91C
330
1F
100
AcDbEntity
  8
0
 62
     0
370
    15
100
AcDbCircle
 10
1078.233526214927
 20
642.5050388386048
 30
0.0
 40
0.6
100
AcDbArc
 50
236.9999999999826
 51
303.0000000000173
  0
LINE
  5
91D
330
1F
100
AcDbEntity
  8
0
 62
     0
370
    15
100
AcDbLine
 10
1078.560309637493
 20
642.0018364988491
 30
0.0
 11
1080.13488424381
 21
643.0243772042476
 31
0.0
  0
ARC
  5
91E
330
1F
100
AcDbEntity
  8
0
 62
     0
370
    15
100
AcDbCircle
 10
1080.407203761318
 20
642.6050419202742
 30
0.0
 40
0.5
100
AcDbArc
 50
90.00000000020843
 51
123.0000000000173
  0
ARC
  5
91F
330
1F
100
AcDbEntity
  8
0
 62
     0
370
    15
100
AcDbCircle
 10
1076.059848668535
 20
642.6050419202742
 30
0.0
 40
0.5
100
AcDbArc
 50
56.99999999998267
 51
89.99999999979156
  0
LINE
  5
920
330
1F
100
AcDbEntity
  8
0
 62
     0
370
    15
100
AcDbLine
 10
1076.059848668537
 20
643.1050419202748
 30
0.0
 11
1075.633528418006
 21
643.1050419202756
 31
0.0
  0
LINE
  5
921
330
1F
100
AcDbEntity
  8
0
 62
     0
370
    15
100
AcDbLine
 10
1077.906742792361
 20
642.0018364988491
 30
0.0
 11
1076.332168186042
 21
643.0243772042476
 31
0.0
  0
LINE
  5
922
330
1F
100
AcDbEntity
  8
0
 62
     0
370
    15
100
AcDbLine
 10
1077.906738603043
 20
645.8082404590459
 30
0.0
 11
1076.33216624754
 21
644.7856962877058
 31
0.0
  0
LINE
  5
923
330
1F
100
AcDbEntity
  8
0
 62
     0
370
    15
100
AcDbLine
 10
1076.059846907595
 20
644.7050309722517
 30
0.0
 11
1075.633526657065
 21
644.7050300338369
 31
0.0
  0
ARC
  5
924
330
1F
100
AcDbEntity
  8
0
 62
     0
370
    15
100
AcDbCircle
 10
1076.059845806993
 20
645.2050309722494
 30
0.0
 40
0.5
100
AcDbArc
 50
270.0001261193138
 51
303.000126119065
  0
ARC
  5
925
330
1F
100
AcDbEntity
  8
0
 62
     0
370
    15
100
AcDbCircle
 10
1078.233523133254
 20
645.305038838604
 30
0.0
 40
0.6
100
AcDbArc
 50
57.00012611909873
 51
123.000126119065
  0
LINE
  5
926
330
1F
100
AcDbEntity
  8
0
 62
     0
370
    15
100
AcDbLine
 10
1078.560305448175
 20
645.8082418976736
 30
0.0
 11
1080.134882305298
 21
644.7857046582202
 31
0.0
  0
ARC
  5
927
330
1F
100
AcDbEntity
  8
0
 62
     0
370
    15
100
AcDbCircle
 10
1080.407200899767
 20
645.2050405416208
 30
0.0
 40
0.5
100
AcDbArc
 50
237.0001261190988
 51
270.0001261188969
  0
LINE
  5
928
330
1F
100
AcDbEntity
  8
0
 62
     0
370
    15
100
AcDbLine
 10
1080.407202000361
 20
644.705040541623
 30
0.0
 11
1080.833522250891
 21
644.7050414800351
 31
0.0
  0
ARC
  5
929
330
1F
100
AcDbEntity
  8
0
 62
     0
370
    15
100
AcDbCircle
 10
1135.633524016378
 20
643.3050419153455
 30
0.0
 40
0.2
100
AcDbArc
 50
180.0000001086498
 51
270.0000001085976
  0
LINE
  5
92A
330
1F
100
AcDbEntity
  8
0
 62
     0
370
    15
100
AcDbLine
 10
1135.433524014482
 20
644.5050419149675
 30
0.0
 11
1135.433524016755
 21
643.3050295988987
 31
0.0
  0
ARC
  5
92B
330
1F
100
AcDbEntity
  8
0
 62
     0
370
    15
100
AcDbCircle
 10
1135.633524014481
 20
644.5050419153463
 30
0.0
 40
0.2
100
AcDbArc
 50
90.00000010859768
 51
180.0000001086498
  0
ARC
  5
92C
330
1F
100
AcDbEntity
  8
0
 62
     0
370
    15
100
AcDbCircle
 10
1140.833524011846
 20
644.5050419202758
 30
0.0
 40
0.2
100
AcDbArc
 50
0.0
 51
90.0
  0
ARC
  5
92D
330
1F
100
AcDbEntity
  8
0
 62
     0
370
    15
100
AcDbCircle
 10
1140.833524011846
 20
643.305041920275
 30
0.0
 40
0.2
100
AcDbArc
 50
270.0
 51
0.0
  0
LINE
  5
92E
330
1F
100
AcDbEntity
  8
0
 62
     0
370
    15
100
AcDbLine
 10
1140.407203761316
 20
643.1050419202748
 30
0.0
 11
1140.833524011846
 21
643.1050419202756
 31
0.0
  0
LINE
  5
92F
330
1F
100
AcDbEntity
  8
0
 62
     0
370
    15
100
AcDbLine
 10
1141.033524011846
 20
644.5050419202762
 30
0.0
 11
1141.033524011846
 21
643.3050419202754
 31
0.0
  0
ARC
  5
930
330
1F
100
AcDbEntity
  8
0
 62
     0
370
    15
100
AcDbCircle
 10
1138.233526214927
 20
642.5050388386048
 30
0.0
 40
0.6
100
AcDbArc
 50
236.9999999999826
 51
303.0000000000173
  0
LINE
  5
931
330
1F
100
AcDbEntity
  8
0
 62
     0
370
    15
100
AcDbLine
 10
1138.560309637493
 20
642.0018364988491
 30
0.0
 11
1140.13488424381
 21
643.0243772042476
 31
0.0
  0
ARC
  5
932
330
1F
100
AcDbEntity
  8
0
 62
     0
370
    15
100
AcDbCircle
 10
1140.407203761317
 20
642.6050419202742
 30
0.0
 40
0.5
100
AcDbArc
 50
90.00000000020843
 51
123.0000000000173
  0
ARC
  5
933
330
1F
100
AcDbEntity
  8
0
 62
     0
370
    15
100
AcDbCircle
 10
1136.059848668535
 20
642.6050419202742
 30
0.0
 40
0.5
100
AcDbArc
 50
56.99999999998267
 51
89.99999999979156
  0
LINE
  5
934
330
1F
100
AcDbEntity
  8
0
 62
     0
370
    15
100
AcDbLine
 10
1136.059848668536
 20
643.1050419202748
 30
0.0
 11
1135.633528418007
 21
643.1050419202756
 31
0.0
  0
LINE
  5
935
330
1F
100
AcDbEntity
  8
0
 62
     0
370
    15
100
AcDbLine
 10
1137.906742792361
 20
642.0018364988491
 30
0.0
 11
1136.332168186042
 21
643.0243772042476
 31
0.0
  0
LINE
  5
936
330
1F
100
AcDbEntity
  8
0
 62
     0
370
    15
100
AcDbLine
 10
1137.906738603043
 20
645.8082404590459
 30
0.0
 11
1136.33216624754
 21
644.7856962877058
 31
0.0
  0
LINE
  5
937
330
1F
100
AcDbEntity
  8
0
 62
     0
370
    15
100
AcDbLine
 10
1136.059846907595
 20
644.7050309722517
 30
0.0
 11
1135.633526657065
 21
644.7050300338369
 31
0.0
  0
ARC
  5
938
330
1F
100
AcDbEntity
  8
0
 62
     0
370
    15
100
AcDbCircle
 10
1136.059845806993
 20
645.2050309722494
 30
0.0
 40
0.5
100
AcDbArc
 50
270.0001261193138
 51
303.000126119065
  0
ARC
  5
939
330
1F
100
AcDbEntity
  8
0
 62
     0
370
    15
100
AcDbCircle
 10
1138.233523133253
 20
645.305038838604
 30
0.0
 40
0.6
100
AcDbArc
 50
57.00012611909873
 51
123.000126119065
  0
LINE
  5
93A
330
1F
100
AcDbEntity
  8
0
 62
     0
370
    15
100
AcDbLine
 10
1138.560305448175
 20
645.8082418976736
 30
0.0
 11
1140.134882305298
 21
644.7857046582202
 31
0.0
  0
ARC
  5
93B
330
1F
100
AcDbEntity
  8
0
 62
     0
370
    15
100
AcDbCircle
 10
1140.407200899767
 20
645.2050405416208
 30
0.0
 40
0.5
100
AcDbArc
 50
237.0001261190988
 51
270.0001261188969
  0
LINE
  5
93C
330
1F
100
AcDbEntity
  8
0
 62
     0
370
    15
100
AcDbLine
 10
1140.407202000361
 20
644.705040541623
 30
0.0
 11
1140.833522250891
 21
644.7050414800351
 31
0.0
  0
ARC
  5
93D
330
1F
100
AcDbEntity
  8
0
 62
     0
370
    15
100
AcDbCircle
 10
1180.633524016378
 20
643.3050419153455
 30
0.0
 40
0.2
100
AcDbArc
 50
180.0000001086498
 51
270.0000001085976
  0
LINE
  5
93E
330
1F
100
AcDbEntity
  8
0
 62
     0
370
    15
100
AcDbLine
 10
1180.433524014482
 20
644.5050419149675
 30
0.0
 11
1180.433524016756
 21
643.3050295988987
 31
0.0
  0
ARC
  5
93F
330
1F
100
AcDbEntity
  8
0
 62
     0
370
    15
100
AcDbCircle
 10
1180.63352401448
 20
644.5050419153463
 30
0.0
 40
0.2
100
AcDbArc
 50
90.00000010859768
 51
180.0000001086498
  0
ARC
  5
940
330
1F
100
AcDbEntity
  8
0
 62
     0
370
    15
100
AcDbCircle
 10
1185.833524011846
 20
644.5050419202758
 30
0.0
 40
0.2
100
AcDbArc
 50
0.0
 51
90.0
  0
ARC
  5
941
330
1F
100
AcDbEntity
  8
0
 62
     0
370
    15
100
AcDbCircle
 10
1185.833524011846
 20
643.305041920275
 30
0.0
 40
0.2
100
AcDbArc
 50
270.0
 51
0.0
  0
LINE
  5
942
330
1F
100
AcDbEntity
  8
0
 62
     0
370
    15
100
AcDbLine
 10
1185.407203761316
 20
643.1050419202748
 30
0.0
 11
1185.833524011846
 21
643.1050419202756
 31
0.0
  0
LINE
  5
943
330
1F
100
AcDbEntity
  8
0
 62
     0
370
    15
100
AcDbLine
 10
1186.033524011846
 20
644.5050419202762
 30
0.0
 11
1186.033524011846
 21
643.3050419202754
 31
0.0
  0
ARC
  5
944
330
1F
100
AcDbEntity
  8
0
 62
     0
370
    15
100
AcDbCircle
 10
1183.233526214927
 20
642.5050388386048
 30
0.0
 40
0.6
100
AcDbArc
 50
236.9999999999826
 51
303.0000000000173
  0
LINE
  5
945
330
1F
100
AcDbEntity
  8
0
 62
     0
370
    15
100
AcDbLine
 10
1183.560309637493
 20
642.0018364988491
 30
0.0
 11
1185.13488424381
 21
643.0243772042476
 31
0.0
  0
ARC
  5
946
330
1F
100
AcDbEntity
  8
0
 62
     0
370
    15
100
AcDbCircle
 10
1185.407203761317
 20
642.6050419202742
 30
0.0
 40
0.5
100
AcDbArc
 50
90.00000000020843
 51
123.0000000000173
  0
ARC
  5
947
330
1F
100
AcDbEntity
  8
0
 62
     0
370
    15
100
AcDbCircle
 10
1181.059848668535
 20
642.6050419202742
 30
0.0
 40
0.5
100
AcDbArc
 50
56.99999999998267
 51
89.99999999979156
  0
LINE
  5
948
330
1F
100
AcDbEntity
  8
0
 62
     0
370
    15
100
AcDbLine
 10
1181.059848668536
 20
643.1050419202748
 30
0.0
 11
1180.633528418007
 21
643.1050419202756
 31
0.0
  0
LINE
  5
949
330
1F
100
AcDbEntity
  8
0
 62
     0
370
    15
100
AcDbLine
 10
1182.906742792361
 20
642.0018364988491
 30
0.0
 11
1181.332168186042
 21
643.0243772042476
 31
0.0
  0
LINE
  5
94A
330
1F
100
AcDbEntity
  8
0
 62
     0
370
    15
100
AcDbLine
 10
1182.906738603043
 20
645.8082404590459
 30
0.0
 11
1181.33216624754
 21
644.7856962877058
 31
0.0
  0
LINE
  5
94B
330
1F
100
AcDbEntity
  8
0
 62
     0
370
    15
100
AcDbLine
 10
1181.059846907595
 20
644.7050309722517
 30
0.0
 11
1180.633526657065
 21
644.7050300338369
 31
0.0
  0
ARC
  5
94C
330
1F
100
AcDbEntity
  8
0
 62
     0
370
    15
100
AcDbCircle
 10
1181.059845806993
 20
645.2050309722494
 30
0.0
 40
0.5
100
AcDbArc
 50
270.0001261193138
 51
303.000126119065
  0
ARC
  5
94D
330
1F
100
AcDbEntity
  8
0
 62
     0
370
    15
100
AcDbCircle
 10
1183.233523133253
 20
645.305038838604
 30
0.0
 40
0.6
100
AcDbArc
 50
57.00012611909873
 51
123.000126119065
  0
LINE
  5
94E
330
1F
100
AcDbEntity
  8
0
 62
     0
370
    15
100
AcDbLine
 10
1183.560305448175
 20
645.8082418976736
 30
0.0
 11
1185.134882305298
 21
644.7857046582202
 31
0.0
  0
ARC
  5
94F
330
1F
100
AcDbEntity
  8
0
 62
     0
370
    15
100
AcDbCircle
 10
1185.407200899767
 20
645.2050405416208
 30
0.0
 40
0.5
100
AcDbArc
 50
237.0001261190988
 51
270.0001261188969
  0
LINE
  5
950
330
1F
100
AcDbEntity
  8
0
 62
     0
370
    15
100
AcDbLine
 10
1185.407202000361
 20
644.705040541623
 30
0.0
 11
1185.833522250891
 21
644.7050414800351
 31
0.0
  0
ARC
  5
951
330
1F
100
AcDbEntity
  8
0
 62
     0
370
    15
100
AcDbCircle
 10
1165.633524016378
 20
643.3050419153455
 30
0.0
 40
0.2
100
AcDbArc
 50
180.0000001086498
 51
270.0000001085976
  0
LINE
  5
952
330
1F
100
AcDbEntity
  8
0
 62
     0
370
    15
100
AcDbLine
 10
1165.433524014482
 20
644.5050419149675
 30
0.0
 11
1165.433524016755
 21
643.3050295988987
 31
0.0
  0
ARC
  5
953
330
1F
100
AcDbEntity
  8
0
 62
     0
370
    15
100
AcDbCircle
 10
1165.633524014481
 20
644.5050419153463
 30
0.0
 40
0.2
100
AcDbArc
 50
90.00000010859768
 51
180.0000001086498
  0
ARC
  5
954
330
1F
100
AcDbEntity
  8
0
 62
     0
370
    15
100
AcDbCircle
 10
1170.833524011846
 20
644.5050419202758
 30
0.0
 40
0.2
100
AcDbArc
 50
0.0
 51
90.0
  0
ARC
  5
955
330
1F
100
AcDbEntity
  8
0
 62
     0
370
    15
100
AcDbCircle
 10
1170.833524011846
 20
643.305041920275
 30
0.0
 40
0.2
100
AcDbArc
 50
270.0
 51
0.0
  0
LINE
  5
956
330
1F
100
AcDbEntity
  8
0
 62
     0
370
    15
100
AcDbLine
 10
1170.407203761316
 20
643.1050419202748
 30
0.0
 11
1170.833524011846
 21
643.1050419202756
 31
0.0
  0
LINE
  5
957
330
1F
100
AcDbEntity
  8
0
 62
     0
370
    15
100
AcDbLine
 10
1171.033524011846
 20
644.5050419202762
 30
0.0
 11
1171.033524011846
 21
643.3050419202754
 31
0.0
  0
ARC
  5
958
330
1F
100
AcDbEntity
  8
0
 62
     0
370
    15
100
AcDbCircle
 10
1168.233526214927
 20
642.5050388386048
 30
0.0
 40
0.6
100
AcDbArc
 50
236.9999999999826
 51
303.0000000000173
  0
LINE
  5
959
330
1F
100
AcDbEntity
  8
0
 62
     0
370
    15
100
AcDbLine
 10
1168.560309637493
 20
642.0018364988491
 30
0.0
 11
1170.13488424381
 21
643.0243772042476
 31
0.0
  0
ARC
  5
95A
330
1F
100
AcDbEntity
  8
0
 62
     0
370
    15
100
AcDbCircle
 10
1170.407203761318
 20
642.6050419202742
 30
0.0
 40
0.5
100
AcDbArc
 50
90.00000000020843
 51
123.0000000000173
  0
ARC
  5
95B
330
1F
100
AcDbEntity
  8
0
 62
     0
370
    15
100
AcDbCircle
 10
1166.059848668535
 20
642.6050419202742
 30
0.0
 40
0.5
100
AcDbArc
 50
56.99999999998267
 51
89.99999999979156
  0
LINE
  5
95C
330
1F
100
AcDbEntity
  8
0
 62
     0
370
    15
100
AcDbLine
 10
1166.059848668536
 20
643.1050419202748
 30
0.0
 11
1165.633528418007
 21
643.1050419202756
 31
0.0
  0
LINE
  5
95D
330
1F
100
AcDbEntity
  8
0
 62
     0
370
    15
100
AcDbLine
 10
1167.906742792361
 20
642.0018364988491
 30
0.0
 11
1166.332168186042
 21
643.0243772042476
 31
0.0
  0
LINE
  5
95E
330
1F
100
AcDbEntity
  8
0
 62
     0
370
    15
100
AcDbLine
 10
1167.906738603043
 20
645.8082404590459
 30
0.0
 11
1166.33216624754
 21
644.7856962877058
 31
0.0
  0
LINE
  5
95F
330
1F
100
AcDbEntity
  8
0
 62
     0
370
    15
100
AcDbLine
 10
1166.059846907595
 20
644.7050309722517
 30
0.0
 11
1165.633526657065
 21
644.7050300338369
 31
0.0
  0
ARC
  5
960
330
1F
100
AcDbEntity
  8
0
 62
     0
370
    15
100
AcDbCircle
 10
1166.059845806993
 20
645.2050309722494
 30
0.0
 40
0.5
100
AcDbArc
 50
270.0001261193138
 51
303.000126119065
  0
ARC
  5
961
330
1F
100
AcDbEntity
  8
0
 62
     0
370
    15
100
AcDbCircle
 10
1168.233523133253
 20
645.305038838604
 30
0.0
 40
0.6
100
AcDbArc
 50
57.00012611909873
 51
123.000126119065
  0
LINE
  5
962
330
1F
100
AcDbEntity
  8
0
 62
     0
370
    15
100
AcDbLine
 10
1168.560305448175
 20
645.8082418976736
 30
0.0
 11
1170.134882305298
 21
644.7857046582202
 31
0.0
  0
ARC
  5
963
330
1F
100
AcDbEntity
  8
0
 62
     0
370
    15
100
AcDbCircle
 10
1170.407200899767
 20
645.2050405416208
 30
0.0
 40
0.5
100
AcDbArc
 50
237.0001261190988
 51
270.0001261188969
  0
LINE
  5
964
330
1F
100
AcDbEntity
  8
0
 62
     0
370
    15
100
AcDbLine
 10
1170.407202000361
 20
644.705040541623
 30
0.0
 11
1170.833522250891
 21
644.7050414800351
 31
0.0
  0
ARC
  5
965
330
1F
100
AcDbEntity
  8
0
 62
     0
370
    15
100
AcDbCircle
 10
1150.633524016378
 20
643.3050419153455
 30
0.0
 40
0.2
100
AcDbArc
 50
180.0000001086498
 51
270.0000001085976
  0
LINE
  5
966
330
1F
100
AcDbEntity
  8
0
 62
     0
370
    15
100
AcDbLine
 10
1150.433524014482
 20
644.5050419149675
 30
0.0
 11
1150.433524016755
 21
643.3050295988987
 31
0.0
  0
ARC
  5
967
330
1F
100
AcDbEntity
  8
0
 62
     0
370
    15
100
AcDbCircle
 10
1150.633524014481
 20
644.5050419153463
 30
0.0
 40
0.2
100
AcDbArc
 50
90.00000010859768
 51
180.0000001086498
  0
ARC
  5
968
330
1F
100
AcDbEntity
  8
0
 62
     0
370
    15
100
AcDbCircle
 10
1155.833524011846
 20
644.5050419202758
 30
0.0
 40
0.2
100
AcDbArc
 50
0.0
 51
90.0
  0
ARC
  5
969
330
1F
100
AcDbEntity
  8
0
 62
     0
370
    15
100
AcDbCircle
 10
1155.833524011846
 20
643.305041920275
 30
0.0
 40
0.2
100
AcDbArc
 50
270.0
 51
0.0
  0
LINE
  5
96A
330
1F
100
AcDbEntity
  8
0
 62
     0
370
    15
100
AcDbLine
 10
1155.407203761316
 20
643.1050419202748
 30
0.0
 11
1155.833524011846
 21
643.1050419202756
 31
0.0
  0
LINE
  5
96B
330
1F
100
AcDbEntity
  8
0
 62
     0
370
    15
100
AcDbLine
 10
1156.033524011846
 20
644.5050419202762
 30
0.0
 11
1156.033524011846
 21
643.3050419202754
 31
0.0
  0
ARC
  5
96C
330
1F
100
AcDbEntity
  8
0
 62
     0
370
    15
100
AcDbCircle
 10
1153.233526214927
 20
642.5050388386048
 30
0.0
 40
0.6
100
AcDbArc
 50
236.9999999999826
 51
303.0000000000173
  0
LINE
  5
96D
330
1F
100
AcDbEntity
  8
0
 62
     0
370
    15
100
AcDbLine
 10
1153.560309637493
 20
642.0018364988491
 30
0.0
 11
1155.13488424381
 21
643.0243772042476
 31
0.0
  0
ARC
  5
96E
330
1F
100
AcDbEntity
  8
0
 62
     0
370
    15
100
AcDbCircle
 10
1155.407203761318
 20
642.6050419202742
 30
0.0
 40
0.5
100
AcDbArc
 50
90.00000000020843
 51
123.0000000000173
  0
ARC
  5
96F
330
1F
100
AcDbEntity
  8
0
 62
     0
370
    15
100
AcDbCircle
 10
1151.059848668535
 20
642.6050419202742
 30
0.0
 40
0.5
100
AcDbArc
 50
56.99999999998267
 51
89.99999999979156
  0
LINE
  5
970
330
1F
100
AcDbEntity
  8
0
 62
     0
370
    15
100
AcDbLine
 10
1151.059848668537
 20
643.1050419202748
 30
0.0
 11
1150.633528418007
 21
643.1050419202756
 31
0.0
  0
LINE
  5
971
330
1F
100
AcDbEntity
  8
0
 62
     0
370
    15
100
AcDbLine
 10
1152.906742792361
 20
642.0018364988491
 30
0.0
 11
1151.332168186042
 21
643.0243772042476
 31
0.0
  0
LINE
  5
972
330
1F
100
AcDbEntity
  8
0
 62
     0
370
    15
100
AcDbLine
 10
1152.906738603043
 20
645.8082404590459
 30
0.0
 11
1151.33216624754
 21
644.7856962877058
 31
0.0
  0
LINE
  5
973
330
1F
100
AcDbEntity
  8
0
 62
     0
370
    15
100
AcDbLine
 10
1151.059846907595
 20
644.7050309722517
 30
0.0
 11
1150.633526657065
 21
644.7050300338369
 31
0.0
  0
ARC
  5
974
330
1F
100
AcDbEntity
  8
0
 62
     0
370
    15
100
AcDbCircle
 10
1151.059845806993
 20
645.2050309722494
 30
0.0
 40
0.5
100
AcDbArc
 50
270.0001261193138
 51
303.000126119065
  0
ARC
  5
975
330
1F
100
AcDbEntity
  8
0
 62
     0
370
    15
100
AcDbCircle
 10
1153.233523133254
 20
645.305038838604
 30
0.0
 40
0.6
100
AcDbArc
 50
57.00012611909873
 51
123.000126119065
  0
LINE
  5
976
330
1F
100
AcDbEntity
  8
0
 62
     0
370
    15
100
AcDbLine
 10
1153.560305448175
 20
645.8082418976736
 30
0.0
 11
1155.134882305298
 21
644.7857046582202
 31
0.0
  0
ARC
  5
977
330
1F
100
AcDbEntity
  8
0
 62
     0
370
    15
100
AcDbCircle
 10
1155.407200899767
 20
645.2050405416208
 30
0.0
 40
0.5
100
AcDbArc
 50
237.0001261190988
 51
270.0001261188969
  0
LINE
  5
978
330
1F
100
AcDbEntity
  8
0
 62
     0
370
    15
100
AcDbLine
 10
1155.407202000361
 20
644.705040541623
 30
0.0
 11
1155.833522250891
 21
644.7050414800351
 31
0.0
  0
ARC
  5
979
330
1F
100
AcDbEntity
  8
0
 62
     0
370
    15
100
AcDbCircle
 10
835.633524016378
 20
643.3050419153455
 30
0.0
 40
0.2
100
AcDbArc
 50
180.0000001086498
 51
270.0000001085976
  0
LINE
  5
97A
330
1F
100
AcDbEntity
  8
0
 62
     0
370
    15
100
AcDbLine
 10
835.4335240144818
 20
644.5050419149675
 30
0.0
 11
835.4335240167555
 21
643.3050295988987
 31
0.0
  0
ARC
  5
97B
330
1F
100
AcDbEntity
  8
0
 62
     0
370
    15
100
AcDbCircle
 10
835.6335240144808
 20
644.5050419153463
 30
0.0
 40
0.2
100
AcDbArc
 50
90.00000010859768
 51
180.0000001086498
  0
ARC
  5
97C
330
1F
100
AcDbEntity
  8
0
 62
     0
370
    15
100
AcDbCircle
 10
840.8335240118457
 20
644.5050419202758
 30
0.0
 40
0.2
100
AcDbArc
 50
0.0
 51
90.0
  0
ARC
  5
97D
330
1F
100
AcDbEntity
  8
0
 62
     0
370
    15
100
AcDbCircle
 10
840.8335240118457
 20
643.305041920275
 30
0.0
 40
0.2
100
AcDbArc
 50
270.0
 51
0.0
  0
LINE
  5
97E
330
1F
100
AcDbEntity
  8
0
 62
     0
370
    15
100
AcDbLine
 10
840.4072037613159
 20
643.1050419202748
 30
0.0
 11
840.8335240118457
 21
643.1050419202756
 31
0.0
  0
LINE
  5
97F
330
1F
100
AcDbEntity
  8
0
 62
     0
370
    15
100
AcDbLine
 10
841.0335240118465
 20
644.5050419202762
 30
0.0
 11
841.0335240118465
 21
643.3050419202754
 31
0.0
  0
ARC
  5
980
330
1F
100
AcDbEntity
  8
0
 62
     0
370
    15
100
AcDbCircle
 10
838.2335262149272
 20
642.5050388386048
 30
0.0
 40
0.6
100
AcDbArc
 50
236.9999999999826
 51
303.0000000000173
  0
LINE
  5
981
330
1F
100
AcDbEntity
  8
0
 62
     0
370
    15
100
AcDbLine
 10
838.5603096374934
 20
642.0018364988491
 30
0.0
 11
840.1348842438101
 21
643.0243772042476
 31
0.0
  0
ARC
  5
982
330
1F
100
AcDbEntity
  8
0
 62
     0
370
    15
100
AcDbCircle
 10
840.4072037613177
 20
642.6050419202742
 30
0.0
 40
0.5
100
AcDbArc
 50
90.00000000020843
 51
123.0000000000173
  0
ARC
  5
983
330
1F
100
AcDbEntity
  8
0
 62
     0
370
    15
100
AcDbCircle
 10
836.0598486685349
 20
642.6050419202742
 30
0.0
 40
0.5
100
AcDbArc
 50
56.99999999998267
 51
89.99999999979156
  0
LINE
  5
984
330
1F
100
AcDbEntity
  8
0
 62
     0
370
    15
100
AcDbLine
 10
836.0598486685367
 20
643.1050419202748
 30
0.0
 11
835.6335284180067
 21
643.1050419202756
 31
0.0
  0
LINE
  5
985
330
1F
100
AcDbEntity
  8
0
 62
     0
370
    15
100
AcDbLine
 10
837.906742792361
 20
642.0018364988491
 30
0.0
 11
836.3321681860425
 21
643.0243772042476
 31
0.0
  0
LINE
  5
986
330
1F
100
AcDbEntity
  8
0
 62
     0
370
    15
100
AcDbLine
 10
837.9067386030428
 20
645.8082404590459
 30
0.0
 11
836.3321662475399
 21
644.7856962877058
 31
0.0
  0
LINE
  5
987
330
1F
100
AcDbEntity
  8
0
 62
     0
370
    15
100
AcDbLine
 10
836.0598469075949
 20
644.7050309722517
 30
0.0
 11
835.6335266570649
 21
644.7050300338369
 31
0.0
  0
ARC
  5
988
330
1F
100
AcDbEntity
  8
0
 62
     0
370
    15
100
AcDbCircle
 10
836.0598458069935
 20
645.2050309722494
 30
0.0
 40
0.5
100
AcDbArc
 50
270.0001261193138
 51
303.000126119065
  0
ARC
  5
989
330
1F
100
AcDbEntity
  8
0
 62
     0
370
    15
100
AcDbCircle
 10
838.2335231332536
 20
645.305038838604
 30
0.0
 40
0.6
100
AcDbArc
 50
57.00012611909873
 51
123.000126119065
  0
LINE
  5
98A
330
1F
100
AcDbEntity
  8
0
 62
     0
370
    15
100
AcDbLine
 10
838.5603054481753
 20
645.8082418976736
 30
0.0
 11
840.1348823052986
 21
644.7857046582202
 31
0.0
  0
ARC
  5
98B
330
1F
100
AcDbEntity
  8
0
 62
     0
370
    15
100
AcDbCircle
 10
840.4072008997673
 20
645.2050405416208
 30
0.0
 40
0.5
100
AcDbArc
 50
237.0001261190988
 51
270.0001261188969
  0
LINE
  5
98C
330
1F
100
AcDbEntity
  8
0
 62
     0
370
    15
100
AcDbLine
 10
840.4072020003614
 20
644.705040541623
 30
0.0
 11
840.8335222508913
 21
644.7050414800351
 31
0.0
  0
ARC
  5
98D
330
1F
100
AcDbEntity
  8
0
 62
     0
370
    15
100
AcDbCircle
 10
850.633524016378
 20
643.3050419153455
 30
0.0
 40
0.2
100
AcDbArc
 50
180.0000001086498
 51
270.0000001085976
  0
LINE
  5
98E
330
1F
100
AcDbEntity
  8
0
 62
     0
370
    15
100
AcDbLine
 10
850.4335240144818
 20
644.5050419149675
 30
0.0
 11
850.4335240167556
 21
643.3050295988987
 31
0.0
  0
ARC
  5
98F
330
1F
100
AcDbEntity
  8
0
 62
     0
370
    15
100
AcDbCircle
 10
850.6335240144808
 20
644.5050419153463
 30
0.0
 40
0.2
100
AcDbArc
 50
90.00000010859768
 51
180.0000001086498
  0
ARC
  5
990
330
1F
100
AcDbEntity
  8
0
 62
     0
370
    15
100
AcDbCircle
 10
855.8335240118458
 20
644.5050419202758
 30
0.0
 40
0.2
100
AcDbArc
 50
0.0
 51
90.0
  0
ARC
  5
991
330
1F
100
AcDbEntity
  8
0
 62
     0
370
    15
100
AcDbCircle
 10
855.8335240118458
 20
643.305041920275
 30
0.0
 40
0.2
100
AcDbArc
 50
270.0
 51
0.0
  0
LINE
  5
992
330
1F
100
AcDbEntity
  8
0
 62
     0
370
    15
100
AcDbLine
 10
855.407203761316
 20
643.1050419202748
 30
0.0
 11
855.8335240118458
 21
643.1050419202756
 31
0.0
  0
LINE
  5
993
330
1F
100
AcDbEntity
  8
0
 62
     0
370
    15
100
AcDbLine
 10
856.0335240118465
 20
644.5050419202762
 30
0.0
 11
856.0335240118465
 21
643.3050419202754
 31
0.0
  0
ARC
  5
994
330
1F
100
AcDbEntity
  8
0
 62
     0
370
    15
100
AcDbCircle
 10
853.2335262149272
 20
642.5050388386048
 30
0.0
 40
0.6
100
AcDbArc
 50
236.9999999999826
 51
303.0000000000173
  0
LINE
  5
995
330
1F
100
AcDbEntity
  8
0
 62
     0
370
    15
100
AcDbLine
 10
853.5603096374934
 20
642.0018364988491
 30
0.0
 11
855.13488424381
 21
643.0243772042476
 31
0.0
  0
ARC
  5
996
330
1F
100
AcDbEntity
  8
0
 62
     0
370
    15
100
AcDbCircle
 10
855.4072037613178
 20
642.6050419202742
 30
0.0
 40
0.5
100
AcDbArc
 50
90.00000000020843
 51
123.0000000000173
  0
ARC
  5
997
330
1F
100
AcDbEntity
  8
0
 62
     0
370
    15
100
AcDbCircle
 10
851.0598486685349
 20
642.6050419202742
 30
0.0
 40
0.5
100
AcDbArc
 50
56.99999999998267
 51
89.99999999979156
  0
LINE
  5
998
330
1F
100
AcDbEntity
  8
0
 62
     0
370
    15
100
AcDbLine
 10
851.0598486685367
 20
643.1050419202748
 30
0.0
 11
850.6335284180067
 21
643.1050419202756
 31
0.0
  0
LINE
  5
999
330
1F
100
AcDbEntity
  8
0
 62
     0
370
    15
100
AcDbLine
 10
852.906742792361
 20
642.0018364988491
 30
0.0
 11
851.3321681860425
 21
643.0243772042476
 31
0.0
  0
LINE
  5
99A
330
1F
100
AcDbEntity
  8
0
 62
     0
370
    15
100
AcDbLine
 10
852.9067386030428
 20
645.8082404590459
 30
0.0
 11
851.33216624754
 21
644.7856962877058
 31
0.0
  0
LINE
  5
99B
330
1F
100
AcDbEntity
  8
0
 62
     0
370
    15
100
AcDbLine
 10
851.0598469075949
 20
644.7050309722517
 30
0.0
 11
850.6335266570649
 21
644.7050300338369
 31
0.0
  0
ARC
  5
99C
330
1F
100
AcDbEntity
  8
0
 62
     0
370
    15
100
AcDbCircle
 10
851.0598458069935
 20
645.2050309722494
 30
0.0
 40
0.5
100
AcDbArc
 50
270.0001261193138
 51
303.000126119065
  0
ARC
  5
99D
330
1F
100
AcDbEntity
  8
0
 62
     0
370
    15
100
AcDbCircle
 10
853.2335231332535
 20
645.305038838604
 30
0.0
 40
0.6
100
AcDbArc
 50
57.00012611909873
 51
123.000126119065
  0
LINE
  5
99E
330
1F
100
AcDbEntity
  8
0
 62
     0
370
    15
100
AcDbLine
 10
853.5603054481752
 20
645.8082418976736
 30
0.0
 11
855.1348823052986
 21
644.7857046582202
 31
0.0
  0
ARC
  5
99F
330
1F
100
AcDbEntity
  8
0
 62
     0
370
    15
100
AcDbCircle
 10
855.4072008997673
 20
645.2050405416208
 30
0.0
 40
0.5
100
AcDbArc
 50
237.0001261190988
 51
270.0001261188969
  0
LINE
  5
9A0
330
1F
100
AcDbEntity
  8
0
 62
     0
370
    15
100
AcDbLine
 10
855.4072020003614
 20
644.705040541623
 30
0.0
 11
855.8335222508913
 21
644.7050414800351
 31
0.0
  0
ARC
  5
9A1
330
1F
100
AcDbEntity
  8
0
 62
     0
370
    15
100
AcDbCircle
 10
880.6335240163781
 20
643.3050419153455
 30
0.0
 40
0.2
100
AcDbArc
 50
180.0000001086498
 51
270.0000001085976
  0
LINE
  5
9A2
330
1F
100
AcDbEntity
  8
0
 62
     0
370
    15
100
AcDbLine
 10
880.4335240144819
 20
644.5050419149675
 30
0.0
 11
880.4335240167556
 21
643.3050295988987
 31
0.0
  0
ARC
  5
9A3
330
1F
100
AcDbEntity
  8
0
 62
     0
370
    15
100
AcDbCircle
 10
880.6335240144807
 20
644.5050419153463
 30
0.0
 40
0.2
100
AcDbArc
 50
90.00000010859768
 51
180.0000001086498
  0
ARC
  5
9A4
330
1F
100
AcDbEntity
  8
0
 62
     0
370
    15
100
AcDbCircle
 10
885.8335240118458
 20
644.5050419202758
 30
0.0
 40
0.2
100
AcDbArc
 50
0.0
 51
90.0
  0
ARC
  5
9A5
330
1F
100
AcDbEntity
  8
0
 62
     0
370
    15
100
AcDbCircle
 10
885.8335240118458
 20
643.305041920275
 30
0.0
 40
0.2
100
AcDbArc
 50
270.0
 51
0.0
  0
LINE
  5
9A6
330
1F
100
AcDbEntity
  8
0
 62
     0
370
    15
100
AcDbLine
 10
885.4072037613159
 20
643.1050419202748
 30
0.0
 11
885.8335240118458
 21
643.1050419202756
 31
0.0
  0
LINE
  5
9A7
330
1F
100
AcDbEntity
  8
0
 62
     0
370
    15
100
AcDbLine
 10
886.0335240118466
 20
644.5050419202762
 30
0.0
 11
886.0335240118466
 21
643.3050419202754
 31
0.0
  0
ARC
  5
9A8
330
1F
100
AcDbEntity
  8
0
 62
     0
370
    15
100
AcDbCircle
 10
883.2335262149271
 20
642.5050388386048
 30
0.0
 40
0.6
100
AcDbArc
 50
236.9999999999826
 51
303.0000000000173
  0
LINE
  5
9A9
330
1F
100
AcDbEntity
  8
0
 62
     0
370
    15
100
AcDbLine
 10
883.5603096374935
 20
642.0018364988491
 30
0.0
 11
885.1348842438101
 21
643.0243772042476
 31
0.0
  0
ARC
  5
9AA
330
1F
100
AcDbEntity
  8
0
 62
     0
370
    15
100
AcDbCircle
 10
885.4072037613176
 20
642.6050419202742
 30
0.0
 40
0.5
100
AcDbArc
 50
90.00000000020843
 51
123.0000000000173
  0
ARC
  5
9AB
330
1F
100
AcDbEntity
  8
0
 62
     0
370
    15
100
AcDbCircle
 10
881.0598486685348
 20
642.6050419202742
 30
0.0
 40
0.5
100
AcDbArc
 50
56.99999999998267
 51
89.99999999979156
  0
LINE
  5
9AC
330
1F
100
AcDbEntity
  8
0
 62
     0
370
    15
100
AcDbLine
 10
881.0598486685366
 20
643.1050419202748
 30
0.0
 11
880.6335284180068
 21
643.1050419202756
 31
0.0
  0
LINE
  5
9AD
330
1F
100
AcDbEntity
  8
0
 62
     0
370
    15
100
AcDbLine
 10
882.9067427923609
 20
642.0018364988491
 30
0.0
 11
881.3321681860426
 21
643.0243772042476
 31
0.0
  0
LINE
  5
9AE
330
1F
100
AcDbEntity
  8
0
 62
     0
370
    15
100
AcDbLine
 10
882.9067386030429
 20
645.8082404590459
 30
0.0
 11
881.33216624754
 21
644.7856962877058
 31
0.0
  0
LINE
  5
9AF
330
1F
100
AcDbEntity
  8
0
 62
     0
370
    15
100
AcDbLine
 10
881.0598469075948
 20
644.7050309722517
 30
0.0
 11
880.633526657065
 21
644.7050300338369
 31
0.0
  0
ARC
  5
9B0
330
1F
100
AcDbEntity
  8
0
 62
     0
370
    15
100
AcDbCircle
 10
881.0598458069934
 20
645.2050309722494
 30
0.0
 40
0.5
100
AcDbArc
 50
270.0001261193138
 51
303.000126119065
  0
ARC
  5
9B1
330
1F
100
AcDbEntity
  8
0
 62
     0
370
    15
100
AcDbCircle
 10
883.2335231332535
 20
645.305038838604
 30
0.0
 40
0.6
100
AcDbArc
 50
57.00012611909873
 51
123.000126119065
  0
LINE
  5
9B2
330
1F
100
AcDbEntity
  8
0
 62
     0
370
    15
100
AcDbLine
 10
883.5603054481753
 20
645.8082418976736
 30
0.0
 11
885.1348823052985
 21
644.7857046582202
 31
0.0
  0
ARC
  5
9B3
330
1F
100
AcDbEntity
  8
0
 62
     0
370
    15
100
AcDbCircle
 10
885.4072008997674
 20
645.2050405416208
 30
0.0
 40
0.5
100
AcDbArc
 50
237.0001261190988
 51
270.0001261188969
  0
LINE
  5
9B4
330
1F
100
AcDbEntity
  8
0
 62
     0
370
    15
100
AcDbLine
 10
885.4072020003613
 20
644.705040541623
 30
0.0
 11
885.8335222508912
 21
644.7050414800351
 31
0.0
  0
ARC
  5
9B5
330
1F
100
AcDbEntity
  8
0
 62
     0
370
    15
100
AcDbCircle
 10
865.633524016378
 20
643.3050419153455
 30
0.0
 40
0.2
100
AcDbArc
 50
180.0000001086498
 51
270.0000001085976
  0
LINE
  5
9B6
330
1F
100
AcDbEntity
  8
0
 62
     0
370
    15
100
AcDbLine
 10
865.4335240144819
 20
644.5050419149675
 30
0.0
 11
865.4335240167556
 21
643.3050295988987
 31
0.0
  0
ARC
  5
9B7
330
1F
100
AcDbEntity
  8
0
 62
     0
370
    15
100
AcDbCircle
 10
865.6335240144809
 20
644.5050419153463
 30
0.0
 40
0.2
100
AcDbArc
 50
90.00000010859768
 51
180.0000001086498
  0
ARC
  5
9B8
330
1F
100
AcDbEntity
  8
0
 62
     0
370
    15
100
AcDbCircle
 10
870.8335240118458
 20
644.5050419202758
 30
0.0
 40
0.2
100
AcDbArc
 50
0.0
 51
90.0
  0
ARC
  5
9B9
330
1F
100
AcDbEntity
  8
0
 62
     0
370
    15
100
AcDbCircle
 10
870.8335240118458
 20
643.305041920275
 30
0.0
 40
0.2
100
AcDbArc
 50
270.0
 51
0.0
  0
LINE
  5
9BA
330
1F
100
AcDbEntity
  8
0
 62
     0
370
    15
100
AcDbLine
 10
870.4072037613158
 20
643.1050419202748
 30
0.0
 11
870.8335240118458
 21
643.1050419202756
 31
0.0
  0
LINE
  5
9BB
330
1F
100
AcDbEntity
  8
0
 62
     0
370
    15
100
AcDbLine
 10
871.0335240118466
 20
644.5050419202762
 30
0.0
 11
871.0335240118466
 21
643.3050419202754
 31
0.0
  0
ARC
  5
9BC
330
1F
100
AcDbEntity
  8
0
 62
     0
370
    15
100
AcDbCircle
 10
868.2335262149273
 20
642.5050388386048
 30
0.0
 40
0.6
100
AcDbArc
 50
236.9999999999826
 51
303.0000000000173
  0
LINE
  5
9BD
330
1F
100
AcDbEntity
  8
0
 62
     0
370
    15
100
AcDbLine
 10
868.5603096374935
 20
642.0018364988491
 30
0.0
 11
870.13488424381
 21
643.0243772042476
 31
0.0
  0
ARC
  5
9BE
330
1F
100
AcDbEntity
  8
0
 62
     0
370
    15
100
AcDbCircle
 10
870.4072037613178
 20
642.6050419202742
 30
0.0
 40
0.5
100
AcDbArc
 50
90.00000000020843
 51
123.0000000000173
  0
ARC
  5
9BF
330
1F
100
AcDbEntity
  8
0
 62
     0
370
    15
100
AcDbCircle
 10
866.0598486685348
 20
642.6050419202742
 30
0.0
 40
0.5
100
AcDbArc
 50
56.99999999998267
 51
89.99999999979156
  0
LINE
  5
9C0
330
1F
100
AcDbEntity
  8
0
 62
     0
370
    15
100
AcDbLine
 10
866.0598486685367
 20
643.1050419202748
 30
0.0
 11
865.6335284180068
 21
643.1050419202756
 31
0.0
  0
LINE
  5
9C1
330
1F
100
AcDbEntity
  8
0
 62
     0
370
    15
100
AcDbLine
 10
867.9067427923611
 20
642.0018364988491
 30
0.0
 11
866.3321681860425
 21
643.0243772042476
 31
0.0
  0
LINE
  5
9C2
330
1F
100
AcDbEntity
  8
0
 62
     0
370
    15
100
AcDbLine
 10
867.9067386030428
 20
645.8082404590459
 30
0.0
 11
866.33216624754
 21
644.7856962877058
 31
0.0
  0
LINE
  5
9C3
330
1F
100
AcDbEntity
  8
0
 62
     0
370
    15
100
AcDbLine
 10
866.0598469075948
 20
644.7050309722517
 30
0.0
 11
865.633526657065
 21
644.7050300338369
 31
0.0
  0
ARC
  5
9C4
330
1F
100
AcDbEntity
  8
0
 62
     0
370
    15
100
AcDbCircle
 10
866.0598458069936
 20
645.2050309722494
 30
0.0
 40
0.5
100
AcDbArc
 50
270.0001261193138
 51
303.000126119065
  0
ARC
  5
9C5
330
1F
100
AcDbEntity
  8
0
 62
     0
370
    15
100
AcDbCircle
 10
868.2335231332535
 20
645.305038838604
 30
0.0
 40
0.6
100
AcDbArc
 50
57.00012611909873
 51
123.000126119065
  0
LINE
  5
9C6
330
1F
100
AcDbEntity
  8
0
 62
     0
370
    15
100
AcDbLine
 10
868.5603054481752
 20
645.8082418976736
 30
0.0
 11
870.1348823052985
 21
644.7857046582202
 31
0.0
  0
ARC
  5
9C7
330
1F
100
AcDbEntity
  8
0
 62
     0
370
    15
100
AcDbCircle
 10
870.4072008997673
 20
645.2050405416208
 30
0.0
 40
0.5
100
AcDbArc
 50
237.0001261190988
 51
270.0001261188969
  0
LINE
  5
9C8
330
1F
100
AcDbEntity
  8
0
 62
     0
370
    15
100
AcDbLine
 10
870.4072020003614
 20
644.705040541623
 30
0.0
 11
870.8335222508912
 21
644.7050414800351
 31
0.0
  0
ARC
  5
9C9
330
1F
100
AcDbEntity
  8
0
 62
     0
370
    15
100
AcDbCircle
 10
895.6335240163779
 20
643.3050419153455
 30
0.0
 40
0.2
100
AcDbArc
 50
180.0000001086498
 51
270.0000001085976
  0
LINE
  5
9CA
330
1F
100
AcDbEntity
  8
0
 62
     0
370
    15
100
AcDbLine
 10
895.4335240144819
 20
644.5050419149675
 30
0.0
 11
895.4335240167557
 21
643.3050295988987
 31
0.0
  0
ARC
  5
9CB
330
1F
100
AcDbEntity
  8
0
 62
     0
370
    15
100
AcDbCircle
 10
895.6335240144808
 20
644.5050419153463
 30
0.0
 40
0.2
100
AcDbArc
 50
90.00000010859768
 51
180.0000001086498
  0
ARC
  5
9CC
330
1F
100
AcDbEntity
  8
0
 62
     0
370
    15
100
AcDbCircle
 10
900.8335240118459
 20
644.5050419202758
 30
0.0
 40
0.2
100
AcDbArc
 50
0.0
 51
90.0
  0
ARC
  5
9CD
330
1F
100
AcDbEntity
  8
0
 62
     0
370
    15
100
AcDbCircle
 10
900.8335240118459
 20
643.305041920275
 30
0.0
 40
0.2
100
AcDbArc
 50
270.0
 51
0.0
  0
LINE
  5
9CE
330
1F
100
AcDbEntity
  8
0
 62
     0
370
    15
100
AcDbLine
 10
900.4072037613159
 20
643.1050419202748
 30
0.0
 11
900.8335240118459
 21
643.1050419202756
 31
0.0
  0
LINE
  5
9CF
330
1F
100
AcDbEntity
  8
0
 62
     0
370
    15
100
AcDbLine
 10
901.0335240118465
 20
644.5050419202762
 30
0.0
 11
901.0335240118465
 21
643.3050419202754
 31
0.0
  0
ARC
  5
9D0
330
1F
100
AcDbEntity
  8
0
 62
     0
370
    15
100
AcDbCircle
 10
898.2335262149272
 20
642.5050388386048
 30
0.0
 40
0.6
100
AcDbArc
 50
236.9999999999826
 51
303.0000000000173
  0
LINE
  5
9D1
330
1F
100
AcDbEntity
  8
0
 62
     0
370
    15
100
AcDbLine
 10
898.5603096374934
 20
642.0018364988491
 30
0.0
 11
900.1348842438101
 21
643.0243772042476
 31
0.0
  0
ARC
  5
9D2
330
1F
100
AcDbEntity
  8
0
 62
     0
370
    15
100
AcDbCircle
 10
900.4072037613177
 20
642.6050419202742
 30
0.0
 40
0.5
100
AcDbArc
 50
90.00000000020843
 51
123.0000000000173
  0
ARC
  5
9D3
330
1F
100
AcDbEntity
  8
0
 62
     0
370
    15
100
AcDbCircle
 10
896.0598486685348
 20
642.6050419202742
 30
0.0
 40
0.5
100
AcDbArc
 50
56.99999999998267
 51
89.99999999979156
  0
LINE
  5
9D4
330
1F
100
AcDbEntity
  8
0
 62
     0
370
    15
100
AcDbLine
 10
896.0598486685366
 20
643.1050419202748
 30
0.0
 11
895.6335284180068
 21
643.1050419202756
 31
0.0
  0
LINE
  5
9D5
330
1F
100
AcDbEntity
  8
0
 62
     0
370
    15
100
AcDbLine
 10
897.906742792361
 20
642.0018364988491
 30
0.0
 11
896.3321681860424
 21
643.0243772042476
 31
0.0
  0
LINE
  5
9D6
330
1F
100
AcDbEntity
  8
0
 62
     0
370
    15
100
AcDbLine
 10
897.9067386030429
 20
645.8082404590459
 30
0.0
 11
896.3321662475401
 21
644.7856962877058
 31
0.0
  0
LINE
  5
9D7
330
1F
100
AcDbEntity
  8
0
 62
     0
370
    15
100
AcDbLine
 10
896.0598469075948
 20
644.7050309722517
 30
0.0
 11
895.6335266570649
 21
644.7050300338369
 31
0.0
  0
ARC
  5
9D8
330
1F
100
AcDbEntity
  8
0
 62
     0
370
    15
100
AcDbCircle
 10
896.0598458069934
 20
645.2050309722494
 30
0.0
 40
0.5
100
AcDbArc
 50
270.0001261193138
 51
303.000126119065
  0
ARC
  5
9D9
330
1F
100
AcDbEntity
  8
0
 62
     0
370
    15
100
AcDbCircle
 10
898.2335231332536
 20
645.305038838604
 30
0.0
 40
0.6
100
AcDbArc
 50
57.00012611909873
 51
123.000126119065
  0
LINE
  5
9DA
330
1F
100
AcDbEntity
  8
0
 62
     0
370
    15
100
AcDbLine
 10
898.5603054481753
 20
645.8082418976736
 30
0.0
 11
900.1348823052985
 21
644.7857046582202
 31
0.0
  0
ARC
  5
9DB
330
1F
100
AcDbEntity
  8
0
 62
     0
370
    15
100
AcDbCircle
 10
900.4072008997672
 20
645.2050405416208
 30
0.0
 40
0.5
100
AcDbArc
 50
237.0001261190988
 51
270.0001261188969
  0
LINE
  5
9DC
330
1F
100
AcDbEntity
  8
0
 62
     0
370
    15
100
AcDbLine
 10
900.4072020003613
 20
644.705040541623
 30
0.0
 11
900.8335222508913
 21
644.7050414800351
 31
0.0
  0
ARC
  5
9DD
330
1F
100
AcDbEntity
  8
0
 62
     0
370
    15
100
AcDbCircle
 10
910.633524016378
 20
643.3050419153455
 30
0.0
 40
0.2
100
AcDbArc
 50
180.0000001086498
 51
270.0000001085976
  0
LINE
  5
9DE
330
1F
100
AcDbEntity
  8
0
 62
     0
370
    15
100
AcDbLine
 10
910.4335240144818
 20
644.5050419149675
 30
0.0
 11
910.4335240167555
 21
643.3050295988987
 31
0.0
  0
ARC
  5
9DF
330
1F
100
AcDbEntity
  8
0
 62
     0
370
    15
100
AcDbCircle
 10
910.6335240144808
 20
644.5050419153463
 30
0.0
 40
0.2
100
AcDbArc
 50
90.00000010859768
 51
180.0000001086498
  0
ARC
  5
9E0
330
1F
100
AcDbEntity
  8
0
 62
     0
370
    15
100
AcDbCircle
 10
915.8335240118459
 20
644.5050419202758
 30
0.0
 40
0.2
100
AcDbArc
 50
0.0
 51
90.0
  0
ARC
  5
9E1
330
1F
100
AcDbEntity
  8
0
 62
     0
370
    15
100
AcDbCircle
 10
915.8335240118459
 20
643.305041920275
 30
0.0
 40
0.2
100
AcDbArc
 50
270.0
 51
0.0
  0
LINE
  5
9E2
330
1F
100
AcDbEntity
  8
0
 62
     0
370
    15
100
AcDbLine
 10
915.4072037613159
 20
643.1050419202748
 30
0.0
 11
915.8335240118459
 21
643.1050419202756
 31
0.0
  0
LINE
  5
9E3
330
1F
100
AcDbEntity
  8
0
 62
     0
370
    15
100
AcDbLine
 10
916.0335240118465
 20
644.5050419202762
 30
0.0
 11
916.0335240118465
 21
643.3050419202754
 31
0.0
  0
ARC
  5
9E4
330
1F
100
AcDbEntity
  8
0
 62
     0
370
    15
100
AcDbCircle
 10
913.2335262149272
 20
642.5050388386048
 30
0.0
 40
0.6
100
AcDbArc
 50
236.9999999999826
 51
303.0000000000173
  0
LINE
  5
9E5
330
1F
100
AcDbEntity
  8
0
 62
     0
370
    15
100
AcDbLine
 10
913.5603096374934
 20
642.0018364988491
 30
0.0
 11
915.1348842438101
 21
643.0243772042476
 31
0.0
  0
ARC
  5
9E6
330
1F
100
AcDbEntity
  8
0
 62
     0
370
    15
100
AcDbCircle
 10
915.4072037613177
 20
642.6050419202742
 30
0.0
 40
0.5
100
AcDbArc
 50
90.00000000020843
 51
123.0000000000173
  0
ARC
  5
9E7
330
1F
100
AcDbEntity
  8
0
 62
     0
370
    15
100
AcDbCircle
 10
911.0598486685349
 20
642.6050419202742
 30
0.0
 40
0.5
100
AcDbArc
 50
56.99999999998267
 51
89.99999999979156
  0
LINE
  5
9E8
330
1F
100
AcDbEntity
  8
0
 62
     0
370
    15
100
AcDbLine
 10
911.0598486685367
 20
643.1050419202748
 30
0.0
 11
910.6335284180067
 21
643.1050419202756
 31
0.0
  0
LINE
  5
9E9
330
1F
100
AcDbEntity
  8
0
 62
     0
370
    15
100
AcDbLine
 10
912.906742792361
 20
642.0018364988491
 30
0.0
 11
911.3321681860425
 21
643.0243772042476
 31
0.0
  0
LINE
  5
9EA
330
1F
100
AcDbEntity
  8
0
 62
     0
370
    15
100
AcDbLine
 10
912.9067386030428
 20
645.8082404590459
 30
0.0
 11
911.3321662475399
 21
644.7856962877058
 31
0.0
  0
LINE
  5
9EB
330
1F
100
AcDbEntity
  8
0
 62
     0
370
    15
100
AcDbLine
 10
911.0598469075949
 20
644.7050309722517
 30
0.0
 11
910.6335266570649
 21
644.7050300338369
 31
0.0
  0
ARC
  5
9EC
330
1F
100
AcDbEntity
  8
0
 62
     0
370
    15
100
AcDbCircle
 10
911.0598458069935
 20
645.2050309722494
 30
0.0
 40
0.5
100
AcDbArc
 50
270.0001261193138
 51
303.000126119065
  0
ARC
  5
9ED
330
1F
100
AcDbEntity
  8
0
 62
     0
370
    15
100
AcDbCircle
 10
913.2335231332536
 20
645.305038838604
 30
0.0
 40
0.6
100
AcDbArc
 50
57.00012611909873
 51
123.000126119065
  0
LINE
  5
9EE
330
1F
100
AcDbEntity
  8
0
 62
     0
370
    15
100
AcDbLine
 10
913.5603054481753
 20
645.8082418976736
 30
0.0
 11
915.1348823052986
 21
644.7857046582202
 31
0.0
  0
ARC
  5
9EF
330
1F
100
AcDbEntity
  8
0
 62
     0
370
    15
100
AcDbCircle
 10
915.4072008997673
 20
645.2050405416208
 30
0.0
 40
0.5
100
AcDbArc
 50
237.0001261190988
 51
270.0001261188969
  0
LINE
  5
9F0
330
1F
100
AcDbEntity
  8
0
 62
     0
370
    15
100
AcDbLine
 10
915.4072020003614
 20
644.705040541623
 30
0.0
 11
915.8335222508913
 21
644.7050414800351
 31
0.0
  0
ARC
  5
9F1
330
1F
100
AcDbEntity
  8
0
 62
     0
370
    15
100
AcDbCircle
 10
925.633524016378
 20
643.3050419153455
 30
0.0
 40
0.2
100
AcDbArc
 50
180.0000001086498
 51
270.0000001085976
  0
LINE
  5
9F2
330
1F
100
AcDbEntity
  8
0
 62
     0
370
    15
100
AcDbLine
 10
925.4335240144818
 20
644.5050419149675
 30
0.0
 11
925.4335240167556
 21
643.3050295988987
 31
0.0
  0
ARC
  5
9F3
330
1F
100
AcDbEntity
  8
0
 62
     0
370
    15
100
AcDbCircle
 10
925.6335240144808
 20
644.5050419153463
 30
0.0
 40
0.2
100
AcDbArc
 50
90.00000010859768
 51
180.0000001086498
  0
ARC
  5
9F4
330
1F
100
AcDbEntity
  8
0
 62
     0
370
    15
100
AcDbCircle
 10
930.8335240118458
 20
644.5050419202758
 30
0.0
 40
0.2
100
AcDbArc
 50
0.0
 51
90.0
  0
ARC
  5
9F5
330
1F
100
AcDbEntity
  8
0
 62
     0
370
    15
100
AcDbCircle
 10
930.8335240118458
 20
643.305041920275
 30
0.0
 40
0.2
100
AcDbArc
 50
270.0
 51
0.0
  0
LINE
  5
9F6
330
1F
100
AcDbEntity
  8
0
 62
     0
370
    15
100
AcDbLine
 10
930.407203761316
 20
643.1050419202748
 30
0.0
 11
930.8335240118458
 21
643.1050419202756
 31
0.0
  0
LINE
  5
9F7
330
1F
100
AcDbEntity
  8
0
 62
     0
370
    15
100
AcDbLine
 10
931.0335240118465
 20
644.5050419202762
 30
0.0
 11
931.0335240118465
 21
643.3050419202754
 31
0.0
  0
ARC
  5
9F8
330
1F
100
AcDbEntity
  8
0
 62
     0
370
    15
100
AcDbCircle
 10
928.2335262149272
 20
642.5050388386048
 30
0.0
 40
0.6
100
AcDbArc
 50
236.9999999999826
 51
303.0000000000173
  0
LINE
  5
9F9
330
1F
100
AcDbEntity
  8
0
 62
     0
370
    15
100
AcDbLine
 10
928.5603096374934
 20
642.0018364988491
 30
0.0
 11
930.13488424381
 21
643.0243772042476
 31
0.0
  0
ARC
  5
9FA
330
1F
100
AcDbEntity
  8
0
 62
     0
370
    15
100
AcDbCircle
 10
930.4072037613178
 20
642.6050419202742
 30
0.0
 40
0.5
100
AcDbArc
 50
90.00000000020843
 51
123.0000000000173
  0
ARC
  5
9FB
330
1F
100
AcDbEntity
  8
0
 62
     0
370
    15
100
AcDbCircle
 10
926.0598486685349
 20
642.6050419202742
 30
0.0
 40
0.5
100
AcDbArc
 50
56.99999999998267
 51
89.99999999979156
  0
LINE
  5
9FC
330
1F
100
AcDbEntity
  8
0
 62
     0
370
    15
100
AcDbLine
 10
926.0598486685367
 20
643.1050419202748
 30
0.0
 11
925.6335284180067
 21
643.1050419202756
 31
0.0
  0
LINE
  5
9FD
330
1F
100
AcDbEntity
  8
0
 62
     0
370
    15
100
AcDbLine
 10
927.906742792361
 20
642.0018364988491
 30
0.0
 11
926.3321681860425
 21
643.0243772042476
 31
0.0
  0
LINE
  5
9FE
330
1F
100
AcDbEntity
  8
0
 62
     0
370
    15
100
AcDbLine
 10
927.9067386030428
 20
645.8082404590459
 30
0.0
 11
926.33216624754
 21
644.7856962877058
 31
0.0
  0
LINE
  5
9FF
330
1F
100
AcDbEntity
  8
0
 62
     0
370
    15
100
AcDbLine
 10
926.0598469075949
 20
644.7050309722517
 30
0.0
 11
925.6335266570649
 21
644.7050300338369
 31
0.0
  0
ARC
  5
A00
330
1F
100
AcDbEntity
  8
0
 62
     0
370
    15
100
AcDbCircle
 10
926.0598458069935
 20
645.2050309722494
 30
0.0
 40
0.5
100
AcDbArc
 50
270.0001261193138
 51
303.000126119065
  0
ARC
  5
A01
330
1F
100
AcDbEntity
  8
0
 62
     0
370
    15
100
AcDbCircle
 10
928.2335231332536
 20
645.305038838604
 30
0.0
 40
0.6
100
AcDbArc
 50
57.00012611909873
 51
123.000126119065
  0
LINE
  5
A02
330
1F
100
AcDbEntity
  8
0
 62
     0
370
    15
100
AcDbLine
 10
928.5603054481752
 20
645.8082418976736
 30
0.0
 11
930.1348823052986
 21
644.7857046582202
 31
0.0
  0
ARC
  5
A03
330
1F
100
AcDbEntity
  8
0
 62
     0
370
    15
100
AcDbCircle
 10
930.4072008997673
 20
645.2050405416208
 30
0.0
 40
0.5
100
AcDbArc
 50
237.0001261190988
 51
270.0001261188969
  0
LINE
  5
A04
330
1F
100
AcDbEntity
  8
0
 62
     0
370
    15
100
AcDbLine
 10
930.4072020003614
 20
644.705040541623
 30
0.0
 11
930.8335222508913
 21
644.7050414800351
 31
0.0
  0
ARC
  5
A05
330
1F
100
AcDbEntity
  8
0
 62
     0
370
    15
100
AcDbCircle
 10
940.633524016378
 20
643.3050419153455
 30
0.0
 40
0.2
100
AcDbArc
 50
180.0000001086498
 51
270.0000001085976
  0
LINE
  5
A06
330
1F
100
AcDbEntity
  8
0
 62
     0
370
    15
100
AcDbLine
 10
940.4335240144819
 20
644.5050419149675
 30
0.0
 11
940.4335240167556
 21
643.3050295988987
 31
0.0
  0
ARC
  5
A07
330
1F
100
AcDbEntity
  8
0
 62
     0
370
    15
100
AcDbCircle
 10
940.6335240144809
 20
644.5050419153463
 30
0.0
 40
0.2
100
AcDbArc
 50
90.00000010859768
 51
180.0000001086498
  0
ARC
  5
A08
330
1F
100
AcDbEntity
  8
0
 62
     0
370
    15
100
AcDbCircle
 10
945.8335240118458
 20
644.5050419202758
 30
0.0
 40
0.2
100
AcDbArc
 50
0.0
 51
90.0
  0
ARC
  5
A09
330
1F
100
AcDbEntity
  8
0
 62
     0
370
    15
100
AcDbCircle
 10
945.8335240118458
 20
643.305041920275
 30
0.0
 40
0.2
100
AcDbArc
 50
270.0
 51
0.0
  0
LINE
  5
A0A
330
1F
100
AcDbEntity
  8
0
 62
     0
370
    15
100
AcDbLine
 10
945.4072037613158
 20
643.1050419202748
 30
0.0
 11
945.8335240118458
 21
643.1050419202756
 31
0.0
  0
LINE
  5
A0B
330
1F
100
AcDbEntity
  8
0
 62
     0
370
    15
100
AcDbLine
 10
946.0335240118466
 20
644.5050419202762
 30
0.0
 11
946.0335240118466
 21
643.3050419202754
 31
0.0
  0
ARC
  5
A0C
330
1F
100
AcDbEntity
  8
0
 62
     0
370
    15
100
AcDbCircle
 10
943.2335262149273
 20
642.5050388386048
 30
0.0
 40
0.6
100
AcDbArc
 50
236.9999999999826
 51
303.0000000000173
  0
LINE
  5
A0D
330
1F
100
AcDbEntity
  8
0
 62
     0
370
    15
100
AcDbLine
 10
943.5603096374935
 20
642.0018364988491
 30
0.0
 11
945.13488424381
 21
643.0243772042476
 31
0.0
  0
ARC
  5
A0E
330
1F
100
AcDbEntity
  8
0
 62
     0
370
    15
100
AcDbCircle
 10
945.4072037613178
 20
642.6050419202742
 30
0.0
 40
0.5
100
AcDbArc
 50
90.00000000020843
 51
123.0000000000173
  0
ARC
  5
A0F
330
1F
100
AcDbEntity
  8
0
 62
     0
370
    15
100
AcDbCircle
 10
941.0598486685348
 20
642.6050419202742
 30
0.0
 40
0.5
100
AcDbArc
 50
56.99999999998267
 51
89.99999999979156
  0
LINE
  5
A10
330
1F
100
AcDbEntity
  8
0
 62
     0
370
    15
100
AcDbLine
 10
941.0598486685367
 20
643.1050419202748
 30
0.0
 11
940.6335284180068
 21
643.1050419202756
 31
0.0
  0
LINE
  5
A11
330
1F
100
AcDbEntity
  8
0
 62
     0
370
    15
100
AcDbLine
 10
942.9067427923611
 20
642.0018364988491
 30
0.0
 11
941.3321681860425
 21
643.0243772042476
 31
0.0
  0
LINE
  5
A12
330
1F
100
AcDbEntity
  8
0
 62
     0
370
    15
100
AcDbLine
 10
942.9067386030428
 20
645.8082404590459
 30
0.0
 11
941.33216624754
 21
644.7856962877058
 31
0.0
  0
LINE
  5
A13
330
1F
100
AcDbEntity
  8
0
 62
     0
370
    15
100
AcDbLine
 10
941.0598469075948
 20
644.7050309722517
 30
0.0
 11
940.633526657065
 21
644.7050300338369
 31
0.0
  0
ARC
  5
A14
330
1F
100
AcDbEntity
  8
0
 62
     0
370
    15
100
AcDbCircle
 10
941.0598458069936
 20
645.2050309722494
 30
0.0
 40
0.5
100
AcDbArc
 50
270.0001261193138
 51
303.000126119065
  0
ARC
  5
A15
330
1F
100
AcDbEntity
  8
0
 62
     0
370
    15
100
AcDbCircle
 10
943.2335231332535
 20
645.305038838604
 30
0.0
 40
0.6
100
AcDbArc
 50
57.00012611909873
 51
123.000126119065
  0
LINE
  5
A16
330
1F
100
AcDbEntity
  8
0
 62
     0
370
    15
100
AcDbLine
 10
943.5603054481752
 20
645.8082418976736
 30
0.0
 11
945.1348823052985
 21
644.7857046582202
 31
0.0
  0
ARC
  5
A17
330
1F
100
AcDbEntity
  8
0
 62
     0
370
    15
100
AcDbCircle
 10
945.4072008997673
 20
645.2050405416208
 30
0.0
 40
0.5
100
AcDbArc
 50
237.0001261190988
 51
270.0001261188969
  0
LINE
  5
A18
330
1F
100
AcDbEntity
  8
0
 62
     0
370
    15
100
AcDbLine
 10
945.4072020003614
 20
644.705040541623
 30
0.0
 11
945.8335222508912
 21
644.7050414800351
 31
0.0
  0
ARC
  5
A19
330
1F
100
AcDbEntity
  8
0
 62
     0
370
    15
100
AcDbCircle
 10
775.633524016378
 20
643.3050419153455
 30
0.0
 40
0.2
100
AcDbArc
 50
180.0000001086498
 51
270.0000001085976
  0
LINE
  5
A1A
330
1F
100
AcDbEntity
  8
0
 62
     0
370
    15
100
AcDbLine
 10
775.4335240144819
 20
644.5050419149675
 30
0.0
 11
775.4335240167557
 21
643.3050295988987
 31
0.0
  0
ARC
  5
A1B
330
1F
100
AcDbEntity
  8
0
 62
     0
370
    15
100
AcDbCircle
 10
775.6335240144808
 20
644.5050419153463
 30
0.0
 40
0.2
100
AcDbArc
 50
90.00000010859768
 51
180.0000001086498
  0
ARC
  5
A1C
330
1F
100
AcDbEntity
  8
0
 62
     0
370
    15
100
AcDbCircle
 10
780.8335240118458
 20
644.5050419202758
 30
0.0
 40
0.2
100
AcDbArc
 50
0.0
 51
90.0
  0
ARC
  5
A1D
330
1F
100
AcDbEntity
  8
0
 62
     0
370
    15
100
AcDbCircle
 10
780.8335240118458
 20
643.305041920275
 30
0.0
 40
0.2
100
AcDbArc
 50
270.0
 51
0.0
  0
LINE
  5
A1E
330
1F
100
AcDbEntity
  8
0
 62
     0
370
    15
100
AcDbLine
 10
780.4072037613159
 20
643.1050419202748
 30
0.0
 11
780.8335240118458
 21
643.1050419202756
 31
0.0
  0
LINE
  5
A1F
330
1F
100
AcDbEntity
  8
0
 62
     0
370
    15
100
AcDbLine
 10
781.0335240118465
 20
644.5050419202762
 30
0.0
 11
781.0335240118465
 21
643.3050419202754
 31
0.0
  0
ARC
  5
A20
330
1F
100
AcDbEntity
  8
0
 62
     0
370
    15
100
AcDbCircle
 10
778.2335262149272
 20
642.5050388386048
 30
0.0
 40
0.6
100
AcDbArc
 50
236.9999999999826
 51
303.0000000000173
  0
LINE
  5
A21
330
1F
100
AcDbEntity
  8
0
 62
     0
370
    15
100
AcDbLine
 10
778.5603096374934
 20
642.0018364988491
 30
0.0
 11
780.1348842438101
 21
643.0243772042476
 31
0.0
  0
ARC
  5
A22
330
1F
100
AcDbEntity
  8
0
 62
     0
370
    15
100
AcDbCircle
 10
780.4072037613178
 20
642.6050419202742
 30
0.0
 40
0.5
100
AcDbArc
 50
90.00000000020843
 51
123.0000000000173
  0
ARC
  5
A23
330
1F
100
AcDbEntity
  8
0
 62
     0
370
    15
100
AcDbCircle
 10
776.0598486685348
 20
642.6050419202742
 30
0.0
 40
0.5
100
AcDbArc
 50
56.99999999998267
 51
89.99999999979156
  0
LINE
  5
A24
330
1F
100
AcDbEntity
  8
0
 62
     0
370
    15
100
AcDbLine
 10
776.0598486685367
 20
643.1050419202748
 30
0.0
 11
775.6335284180067
 21
643.1050419202756
 31
0.0
  0
LINE
  5
A25
330
1F
100
AcDbEntity
  8
0
 62
     0
370
    15
100
AcDbLine
 10
777.9067427923609
 20
642.0018364988491
 30
0.0
 11
776.3321681860425
 21
643.0243772042476
 31
0.0
  0
LINE
  5
A26
330
1F
100
AcDbEntity
  8
0
 62
     0
370
    15
100
AcDbLine
 10
777.9067386030428
 20
645.8082404590459
 30
0.0
 11
776.33216624754
 21
644.7856962877058
 31
0.0
  0
LINE
  5
A27
330
1F
100
AcDbEntity
  8
0
 62
     0
370
    15
100
AcDbLine
 10
776.0598469075948
 20
644.7050309722517
 30
0.0
 11
775.6335266570649
 21
644.7050300338369
 31
0.0
  0
ARC
  5
A28
330
1F
100
AcDbEntity
  8
0
 62
     0
370
    15
100
AcDbCircle
 10
776.0598458069935
 20
645.2050309722494
 30
0.0
 40
0.5
100
AcDbArc
 50
270.0001261193138
 51
303.000126119065
  0
ARC
  5
A29
330
1F
100
AcDbEntity
  8
0
 62
     0
370
    15
100
AcDbCircle
 10
778.2335231332536
 20
645.305038838604
 30
0.0
 40
0.6
100
AcDbArc
 50
57.00012611909873
 51
123.000126119065
  0
LINE
  5
A2A
330
1F
100
AcDbEntity
  8
0
 62
     0
370
    15
100
AcDbLine
 10
778.5603054481753
 20
645.8082418976736
 30
0.0
 11
780.1348823052985
 21
644.7857046582202
 31
0.0
  0
ARC
  5
A2B
330
1F
100
AcDbEntity
  8
0
 62
     0
370
    15
100
AcDbCircle
 10
780.4072008997673
 20
645.2050405416208
 30
0.0
 40
0.5
100
AcDbArc
 50
237.0001261190988
 51
270.0001261188969
  0
LINE
  5
A2C
330
1F
100
AcDbEntity
  8
0
 62
     0
370
    15
100
AcDbLine
 10
780.4072020003614
 20
644.705040541623
 30
0.0
 11
780.8335222508913
 21
644.7050414800351
 31
0.0
  0
ARC
  5
A2D
330
1F
100
AcDbEntity
  8
0
 62
     0
370
    15
100
AcDbCircle
 10
790.633524016378
 20
643.3050419153455
 30
0.0
 40
0.2
100
AcDbArc
 50
180.0000001086498
 51
270.0000001085976
  0
LINE
  5
A2E
330
1F
100
AcDbEntity
  8
0
 62
     0
370
    15
100
AcDbLine
 10
790.4335240144819
 20
644.5050419149675
 30
0.0
 11
790.4335240167556
 21
643.3050295988987
 31
0.0
  0
ARC
  5
A2F
330
1F
100
AcDbEntity
  8
0
 62
     0
370
    15
100
AcDbCircle
 10
790.6335240144808
 20
644.5050419153463
 30
0.0
 40
0.2
100
AcDbArc
 50
90.00000010859768
 51
180.0000001086498
  0
ARC
  5
A30
330
1F
100
AcDbEntity
  8
0
 62
     0
370
    15
100
AcDbCircle
 10
795.8335240118458
 20
644.5050419202758
 30
0.0
 40
0.2
100
AcDbArc
 50
0.0
 51
90.0
  0
ARC
  5
A31
330
1F
100
AcDbEntity
  8
0
 62
     0
370
    15
100
AcDbCircle
 10
795.8335240118458
 20
643.305041920275
 30
0.0
 40
0.2
100
AcDbArc
 50
270.0
 51
0.0
  0
LINE
  5
A32
330
1F
100
AcDbEntity
  8
0
 62
     0
370
    15
100
AcDbLine
 10
795.4072037613159
 20
643.1050419202748
 30
0.0
 11
795.8335240118458
 21
643.1050419202756
 31
0.0
  0
LINE
  5
A33
330
1F
100
AcDbEntity
  8
0
 62
     0
370
    15
100
AcDbLine
 10
796.0335240118466
 20
644.5050419202762
 30
0.0
 11
796.0335240118466
 21
643.3050419202754
 31
0.0
  0
ARC
  5
A34
330
1F
100
AcDbEntity
  8
0
 62
     0
370
    15
100
AcDbCircle
 10
793.2335262149272
 20
642.5050388386048
 30
0.0
 40
0.6
100
AcDbArc
 50
236.9999999999826
 51
303.0000000000173
  0
LINE
  5
A35
330
1F
100
AcDbEntity
  8
0
 62
     0
370
    15
100
AcDbLine
 10
793.5603096374934
 20
642.0018364988491
 30
0.0
 11
795.1348842438101
 21
643.0243772042476
 31
0.0
  0
ARC
  5
A36
330
1F
100
AcDbEntity
  8
0
 62
     0
370
    15
100
AcDbCircle
 10
795.4072037613177
 20
642.6050419202742
 30
0.0
 40
0.5
100
AcDbArc
 50
90.00000000020843
 51
123.0000000000173
  0
ARC
  5
A37
330
1F
100
AcDbEntity
  8
0
 62
     0
370
    15
100
AcDbCircle
 10
791.0598486685349
 20
642.6050419202742
 30
0.0
 40
0.5
100
AcDbArc
 50
56.99999999998267
 51
89.99999999979156
  0
LINE
  5
A38
330
1F
100
AcDbEntity
  8
0
 62
     0
370
    15
100
AcDbLine
 10
791.0598486685366
 20
643.1050419202748
 30
0.0
 11
790.6335284180068
 21
643.1050419202756
 31
0.0
  0
LINE
  5
A39
330
1F
100
AcDbEntity
  8
0
 62
     0
370
    15
100
AcDbLine
 10
792.906742792361
 20
642.0018364988491
 30
0.0
 11
791.3321681860424
 21
643.0243772042476
 31
0.0
  0
LINE
  5
A3A
330
1F
100
AcDbEntity
  8
0
 62
     0
370
    15
100
AcDbLine
 10
792.9067386030428
 20
645.8082404590459
 30
0.0
 11
791.33216624754
 21
644.7856962877058
 31
0.0
  0
LINE
  5
A3B
330
1F
100
AcDbEntity
  8
0
 62
     0
370
    15
100
AcDbLine
 10
791.0598469075948
 20
644.7050309722517
 30
0.0
 11
790.633526657065
 21
644.7050300338369
 31
0.0
  0
ARC
  5
A3C
330
1F
100
AcDbEntity
  8
0
 62
     0
370
    15
100
AcDbCircle
 10
791.0598458069935
 20
645.2050309722494
 30
0.0
 40
0.5
100
AcDbArc
 50
270.0001261193138
 51
303.000126119065
  0
ARC
  5
A3D
330
1F
100
AcDbEntity
  8
0
 62
     0
370
    15
100
AcDbCircle
 10
793.2335231332536
 20
645.305038838604
 30
0.0
 40
0.6
100
AcDbArc
 50
57.00012611909873
 51
123.000126119065
  0
LINE
  5
A3E
330
1F
100
AcDbEntity
  8
0
 62
     0
370
    15
100
AcDbLine
 10
793.5603054481753
 20
645.8082418976736
 30
0.0
 11
795.1348823052986
 21
644.7857046582202
 31
0.0
  0
ARC
  5
A3F
330
1F
100
AcDbEntity
  8
0
 62
     0
370
    15
100
AcDbCircle
 10
795.4072008997672
 20
645.2050405416208
 30
0.0
 40
0.5
100
AcDbArc
 50
237.0001261190988
 51
270.0001261188969
  0
LINE
  5
A40
330
1F
100
AcDbEntity
  8
0
 62
     0
370
    15
100
AcDbLine
 10
795.4072020003613
 20
644.705040541623
 30
0.0
 11
795.8335222508913
 21
644.7050414800351
 31
0.0
  0
ARC
  5
A41
330
1F
100
AcDbEntity
  8
0
 62
     0
370
    15
100
AcDbCircle
 10
820.6335240163779
 20
643.3050419153455
 30
0.0
 40
0.2
100
AcDbArc
 50
180.0000001086498
 51
270.0000001085976
  0
LINE
  5
A42
330
1F
100
AcDbEntity
  8
0
 62
     0
370
    15
100
AcDbLine
 10
820.4335240144819
 20
644.5050419149675
 30
0.0
 11
820.4335240167557
 21
643.3050295988987
 31
0.0
  0
ARC
  5
A43
330
1F
100
AcDbEntity
  8
0
 62
     0
370
    15
100
AcDbCircle
 10
820.6335240144808
 20
644.5050419153463
 30
0.0
 40
0.2
100
AcDbArc
 50
90.00000010859768
 51
180.0000001086498
  0
ARC
  5
A44
330
1F
100
AcDbEntity
  8
0
 62
     0
370
    15
100
AcDbCircle
 10
825.8335240118459
 20
644.5050419202758
 30
0.0
 40
0.2
100
AcDbArc
 50
0.0
 51
90.0
  0
ARC
  5
A45
330
1F
100
AcDbEntity
  8
0
 62
     0
370
    15
100
AcDbCircle
 10
825.8335240118459
 20
643.305041920275
 30
0.0
 40
0.2
100
AcDbArc
 50
270.0
 51
0.0
  0
LINE
  5
A46
330
1F
100
AcDbEntity
  8
0
 62
     0
370
    15
100
AcDbLine
 10
825.4072037613159
 20
643.1050419202748
 30
0.0
 11
825.8335240118459
 21
643.1050419202756
 31
0.0
  0
LINE
  5
A47
330
1F
100
AcDbEntity
  8
0
 62
     0
370
    15
100
AcDbLine
 10
826.0335240118465
 20
644.5050419202762
 30
0.0
 11
826.0335240118465
 21
643.3050419202754
 31
0.0
  0
ARC
  5
A48
330
1F
100
AcDbEntity
  8
0
 62
     0
370
    15
100
AcDbCircle
 10
823.2335262149272
 20
642.5050388386048
 30
0.0
 40
0.6
100
AcDbArc
 50
236.9999999999826
 51
303.0000000000173
  0
LINE
  5
A49
330
1F
100
AcDbEntity
  8
0
 62
     0
370
    15
100
AcDbLine
 10
823.5603096374934
 20
642.0018364988491
 30
0.0
 11
825.1348842438101
 21
643.0243772042476
 31
0.0
  0
ARC
  5
A4A
330
1F
100
AcDbEntity
  8
0
 62
     0
370
    15
100
AcDbCircle
 10
825.4072037613177
 20
642.6050419202742
 30
0.0
 40
0.5
100
AcDbArc
 50
90.00000000020843
 51
123.0000000000173
  0
ARC
  5
A4B
330
1F
100
AcDbEntity
  8
0
 62
     0
370
    15
100
AcDbCircle
 10
821.0598486685348
 20
642.6050419202742
 30
0.0
 40
0.5
100
AcDbArc
 50
56.99999999998267
 51
89.99999999979156
  0
LINE
  5
A4C
330
1F
100
AcDbEntity
  8
0
 62
     0
370
    15
100
AcDbLine
 10
821.0598486685366
 20
643.1050419202748
 30
0.0
 11
820.6335284180067
 21
643.1050419202756
 31
0.0
  0
LINE
  5
A4D
330
1F
100
AcDbEntity
  8
0
 62
     0
370
    15
100
AcDbLine
 10
822.906742792361
 20
642.0018364988491
 30
0.0
 11
821.3321681860424
 21
643.0243772042476
 31
0.0
  0
LINE
  5
A4E
330
1F
100
AcDbEntity
  8
0
 62
     0
370
    15
100
AcDbLine
 10
822.9067386030429
 20
645.8082404590459
 30
0.0
 11
821.3321662475401
 21
644.7856962877058
 31
0.0
  0
LINE
  5
A4F
330
1F
100
AcDbEntity
  8
0
 62
     0
370
    15
100
AcDbLine
 10
821.0598469075948
 20
644.7050309722517
 30
0.0
 11
820.6335266570649
 21
644.7050300338369
 31
0.0
  0
ARC
  5
A50
330
1F
100
AcDbEntity
  8
0
 62
     0
370
    15
100
AcDbCircle
 10
821.0598458069934
 20
645.2050309722494
 30
0.0
 40
0.5
100
AcDbArc
 50
270.0001261193138
 51
303.000126119065
  0
ARC
  5
A51
330
1F
100
AcDbEntity
  8
0
 62
     0
370
    15
100
AcDbCircle
 10
823.2335231332536
 20
645.305038838604
 30
0.0
 40
0.6
100
AcDbArc
 50
57.00012611909873
 51
123.000126119065
  0
LINE
  5
A52
330
1F
100
AcDbEntity
  8
0
 62
     0
370
    15
100
AcDbLine
 10
823.5603054481753
 20
645.8082418976736
 30
0.0
 11
825.1348823052985
 21
644.7857046582202
 31
0.0
  0
ARC
  5
A53
330
1F
100
AcDbEntity
  8
0
 62
     0
370
    15
100
AcDbCircle
 10
825.4072008997672
 20
645.2050405416208
 30
0.0
 40
0.5
100
AcDbArc
 50
237.0001261190988
 51
270.0001261188969
  0
LINE
  5
A54
330
1F
100
AcDbEntity
  8
0
 62
     0
370
    15
100
AcDbLine
 10
825.4072020003613
 20
644.705040541623
 30
0.0
 11
825.8335222508913
 21
644.7050414800351
 31
0.0
  0
ARC
  5
A55
330
1F
100
AcDbEntity
  8
0
 62
     0
370
    15
100
AcDbCircle
 10
805.6335240163781
 20
643.3050419153455
 30
0.0
 40
0.2
100
AcDbArc
 50
180.0000001086498
 51
270.0000001085976
  0
LINE
  5
A56
330
1F
100
AcDbEntity
  8
0
 62
     0
370
    15
100
AcDbLine
 10
805.4335240144819
 20
644.5050419149675
 30
0.0
 11
805.4335240167556
 21
643.3050295988987
 31
0.0
  0
ARC
  5
A57
330
1F
100
AcDbEntity
  8
0
 62
     0
370
    15
100
AcDbCircle
 10
805.6335240144807
 20
644.5050419153463
 30
0.0
 40
0.2
100
AcDbArc
 50
90.00000010859768
 51
180.0000001086498
  0
ARC
  5
A58
330
1F
100
AcDbEntity
  8
0
 62
     0
370
    15
100
AcDbCircle
 10
810.8335240118458
 20
644.5050419202758
 30
0.0
 40
0.2
100
AcDbArc
 50
0.0
 51
90.0
  0
ARC
  5
A59
330
1F
100
AcDbEntity
  8
0
 62
     0
370
    15
100
AcDbCircle
 10
810.8335240118458
 20
643.305041920275
 30
0.0
 40
0.2
100
AcDbArc
 50
270.0
 51
0.0
  0
LINE
  5
A5A
330
1F
100
AcDbEntity
  8
0
 62
     0
370
    15
100
AcDbLine
 10
810.4072037613159
 20
643.1050419202748
 30
0.0
 11
810.8335240118458
 21
643.1050419202756
 31
0.0
  0
LINE
  5
A5B
330
1F
100
AcDbEntity
  8
0
 62
     0
370
    15
100
AcDbLine
 10
811.0335240118466
 20
644.5050419202762
 30
0.0
 11
811.0335240118466
 21
643.3050419202754
 31
0.0
  0
ARC
  5
A5C
330
1F
100
AcDbEntity
  8
0
 62
     0
370
    15
100
AcDbCircle
 10
808.2335262149271
 20
642.5050388386048
 30
0.0
 40
0.6
100
AcDbArc
 50
236.9999999999826
 51
303.0000000000173
  0
LINE
  5
A5D
330
1F
100
AcDbEntity
  8
0
 62
     0
370
    15
100
AcDbLine
 10
808.5603096374935
 20
642.0018364988491
 30
0.0
 11
810.1348842438101
 21
643.0243772042476
 31
0.0
  0
ARC
  5
A5E
330
1F
100
AcDbEntity
  8
0
 62
     0
370
    15
100
AcDbCircle
 10
810.4072037613176
 20
642.6050419202742
 30
0.0
 40
0.5
100
AcDbArc
 50
90.00000000020843
 51
123.0000000000173
  0
ARC
  5
A5F
330
1F
100
AcDbEntity
  8
0
 62
     0
370
    15
100
AcDbCircle
 10
806.0598486685348
 20
642.6050419202742
 30
0.0
 40
0.5
100
AcDbArc
 50
56.99999999998267
 51
89.99999999979156
  0
LINE
  5
A60
330
1F
100
AcDbEntity
  8
0
 62
     0
370
    15
100
AcDbLine
 10
806.0598486685366
 20
643.1050419202748
 30
0.0
 11
805.6335284180068
 21
643.1050419202756
 31
0.0
  0
LINE
  5
A61
330
1F
100
AcDbEntity
  8
0
 62
     0
370
    15
100
AcDbLine
 10
807.9067427923609
 20
642.0018364988491
 30
0.0
 11
806.3321681860426
 21
643.0243772042476
 31
0.0
  0
LINE
  5
A62
330
1F
100
AcDbEntity
  8
0
 62
     0
370
    15
100
AcDbLine
 10
807.9067386030429
 20
645.8082404590459
 30
0.0
 11
806.33216624754
 21
644.7856962877058
 31
0.0
  0
LINE
  5
A63
330
1F
100
AcDbEntity
  8
0
 62
     0
370
    15
100
AcDbLine
 10
806.0598469075948
 20
644.7050309722517
 30
0.0
 11
805.633526657065
 21
644.7050300338369
 31
0.0
  0
ARC
  5
A64
330
1F
100
AcDbEntity
  8
0
 62
     0
370
    15
100
AcDbCircle
 10
806.0598458069934
 20
645.2050309722494
 30
0.0
 40
0.5
100
AcDbArc
 50
270.0001261193138
 51
303.000126119065
  0
ARC
  5
A65
330
1F
100
AcDbEntity
  8
0
 62
     0
370
    15
100
AcDbCircle
 10
808.2335231332535
 20
645.305038838604
 30
0.0
 40
0.6
100
AcDbArc
 50
57.00012611909873
 51
123.000126119065
  0
LINE
  5
A66
330
1F
100
AcDbEntity
  8
0
 62
     0
370
    15
100
AcDbLine
 10
808.5603054481753
 20
645.8082418976736
 30
0.0
 11
810.1348823052985
 21
644.7857046582202
 31
0.0
  0
ARC
  5
A67
330
1F
100
AcDbEntity
  8
0
 62
     0
370
    15
100
AcDbCircle
 10
810.4072008997672
 20
645.2050405416208
 30
0.0
 40
0.5
100
AcDbArc
 50
237.0001261190988
 51
270.0001261188969
  0
LINE
  5
A68
330
1F
100
AcDbEntity
  8
0
 62
     0
370
    15
100
AcDbLine
 10
810.4072020003613
 20
644.705040541623
 30
0.0
 11
810.8335222508912
 21
644.7050414800351
 31
0.0
  0
ARC
  5
A69
330
1F
100
AcDbEntity
  8
0
 62
     0
370
    15
100
AcDbCircle
 10
745.633524016378
 20
643.3050419153455
 30
0.0
 40
0.2
100
AcDbArc
 50
180.0000001086498
 51
270.0000001085976
  0
LINE
  5
A6A
330
1F
100
AcDbEntity
  8
0
 62
     0
370
    15
100
AcDbLine
 10
745.4335240144819
 20
644.5050419149675
 30
0.0
 11
745.4335240167556
 21
643.3050295988987
 31
0.0
  0
ARC
  5
A6B
330
1F
100
AcDbEntity
  8
0
 62
     0
370
    15
100
AcDbCircle
 10
745.6335240144808
 20
644.5050419153463
 30
0.0
 40
0.2
100
AcDbArc
 50
90.00000010859768
 51
180.0000001086498
  0
ARC
  5
A6C
330
1F
100
AcDbEntity
  8
0
 62
     0
370
    15
100
AcDbCircle
 10
750.8335240118458
 20
644.5050419202758
 30
0.0
 40
0.2
100
AcDbArc
 50
0.0
 51
90.0
  0
ARC
  5
A6D
330
1F
100
AcDbEntity
  8
0
 62
     0
370
    15
100
AcDbCircle
 10
750.8335240118458
 20
643.305041920275
 30
0.0
 40
0.2
100
AcDbArc
 50
270.0
 51
0.0
  0
LINE
  5
A6E
330
1F
100
AcDbEntity
  8
0
 62
     0
370
    15
100
AcDbLine
 10
750.4072037613159
 20
643.1050419202748
 30
0.0
 11
750.8335240118458
 21
643.1050419202756
 31
0.0
  0
LINE
  5
A6F
330
1F
100
AcDbEntity
  8
0
 62
     0
370
    15
100
AcDbLine
 10
751.0335240118465
 20
644.5050419202762
 30
0.0
 11
751.0335240118465
 21
643.3050419202754
 31
0.0
  0
ARC
  5
A70
330
1F
100
AcDbEntity
  8
0
 62
     0
370
    15
100
AcDbCircle
 10
748.2335262149272
 20
642.5050388386048
 30
0.0
 40
0.6
100
AcDbArc
 50
236.9999999999826
 51
303.0000000000173
  0
LINE
  5
A71
330
1F
100
AcDbEntity
  8
0
 62
     0
370
    15
100
AcDbLine
 10
748.5603096374934
 20
642.0018364988491
 30
0.0
 11
750.1348842438101
 21
643.0243772042476
 31
0.0
  0
ARC
  5
A72
330
1F
100
AcDbEntity
  8
0
 62
     0
370
    15
100
AcDbCircle
 10
750.4072037613177
 20
642.6050419202742
 30
0.0
 40
0.5
100
AcDbArc
 50
90.00000000020843
 51
123.0000000000173
  0
ARC
  5
A73
330
1F
100
AcDbEntity
  8
0
 62
     0
370
    15
100
AcDbCircle
 10
746.0598486685348
 20
642.6050419202742
 30
0.0
 40
0.5
100
AcDbArc
 50
56.99999999998267
 51
89.99999999979156
  0
LINE
  5
A74
330
1F
100
AcDbEntity
  8
0
 62
     0
370
    15
100
AcDbLine
 10
746.0598486685366
 20
643.1050419202748
 30
0.0
 11
745.6335284180068
 21
643.1050419202756
 31
0.0
  0
LINE
  5
A75
330
1F
100
AcDbEntity
  8
0
 62
     0
370
    15
100
AcDbLine
 10
747.906742792361
 20
642.0018364988491
 30
0.0
 11
746.3321681860425
 21
643.0243772042476
 31
0.0
  0
LINE
  5
A76
330
1F
100
AcDbEntity
  8
0
 62
     0
370
    15
100
AcDbLine
 10
747.9067386030428
 20
645.8082404590459
 30
0.0
 11
746.33216624754
 21
644.7856962877058
 31
0.0
  0
LINE
  5
A77
330
1F
100
AcDbEntity
  8
0
 62
     0
370
    15
100
AcDbLine
 10
746.0598469075948
 20
644.7050309722517
 30
0.0
 11
745.633526657065
 21
644.7050300338369
 31
0.0
  0
ARC
  5
A78
330
1F
100
AcDbEntity
  8
0
 62
     0
370
    15
100
AcDbCircle
 10
746.0598458069934
 20
645.2050309722494
 30
0.0
 40
0.5
100
AcDbArc
 50
270.0001261193138
 51
303.000126119065
  0
ARC
  5
A79
330
1F
100
AcDbEntity
  8
0
 62
     0
370
    15
100
AcDbCircle
 10
748.2335231332536
 20
645.305038838604
 30
0.0
 40
0.6
100
AcDbArc
 50
57.00012611909873
 51
123.000126119065
  0
LINE
  5
A7A
330
1F
100
AcDbEntity
  8
0
 62
     0
370
    15
100
AcDbLine
 10
748.5603054481753
 20
645.8082418976736
 30
0.0
 11
750.1348823052985
 21
644.7857046582202
 31
0.0
  0
ARC
  5
A7B
330
1F
100
AcDbEntity
  8
0
 62
     0
370
    15
100
AcDbCircle
 10
750.4072008997673
 20
645.2050405416208
 30
0.0
 40
0.5
100
AcDbArc
 50
237.0001261190988
 51
270.0001261188969
  0
LINE
  5
A7C
330
1F
100
AcDbEntity
  8
0
 62
     0
370
    15
100
AcDbLine
 10
750.4072020003613
 20
644.705040541623
 30
0.0
 11
750.8335222508913
 21
644.7050414800351
 31
0.0
  0
ARC
  5
A7D
330
1F
100
AcDbEntity
  8
0
 62
     0
370
    15
100
AcDbCircle
 10
760.633524016378
 20
643.3050419153455
 30
0.0
 40
0.2
100
AcDbArc
 50
180.0000001086498
 51
270.0000001085976
  0
LINE
  5
A7E
330
1F
100
AcDbEntity
  8
0
 62
     0
370
    15
100
AcDbLine
 10
760.4335240144819
 20
644.5050419149675
 30
0.0
 11
760.4335240167556
 21
643.3050295988987
 31
0.0
  0
ARC
  5
A7F
330
1F
100
AcDbEntity
  8
0
 62
     0
370
    15
100
AcDbCircle
 10
760.6335240144808
 20
644.5050419153463
 30
0.0
 40
0.2
100
AcDbArc
 50
90.00000010859768
 51
180.0000001086498
  0
ARC
  5
A80
330
1F
100
AcDbEntity
  8
0
 62
     0
370
    15
100
AcDbCircle
 10
765.8335240118458
 20
644.5050419202758
 30
0.0
 40
0.2
100
AcDbArc
 50
0.0
 51
90.0
  0
ARC
  5
A81
330
1F
100
AcDbEntity
  8
0
 62
     0
370
    15
100
AcDbCircle
 10
765.8335240118458
 20
643.305041920275
 30
0.0
 40
0.2
100
AcDbArc
 50
270.0
 51
0.0
  0
LINE
  5
A82
330
1F
100
AcDbEntity
  8
0
 62
     0
370
    15
100
AcDbLine
 10
765.4072037613159
 20
643.1050419202748
 30
0.0
 11
765.8335240118458
 21
643.1050419202756
 31
0.0
  0
LINE
  5
A83
330
1F
100
AcDbEntity
  8
0
 62
     0
370
    15
100
AcDbLine
 10
766.0335240118465
 20
644.5050419202762
 30
0.0
 11
766.0335240118465
 21
643.3050419202754
 31
0.0
  0
ARC
  5
A84
330
1F
100
AcDbEntity
  8
0
 62
     0
370
    15
100
AcDbCircle
 10
763.2335262149272
 20
642.5050388386048
 30
0.0
 40
0.6
100
AcDbArc
 50
236.9999999999826
 51
303.0000000000173
  0
LINE
  5
A85
330
1F
100
AcDbEntity
  8
0
 62
     0
370
    15
100
AcDbLine
 10
763.5603096374934
 20
642.0018364988491
 30
0.0
 11
765.1348842438101
 21
643.0243772042476
 31
0.0
  0
ARC
  5
A86
330
1F
100
AcDbEntity
  8
0
 62
     0
370
    15
100
AcDbCircle
 10
765.4072037613177
 20
642.6050419202742
 30
0.0
 40
0.5
100
AcDbArc
 50
90.00000000020843
 51
123.0000000000173
  0
ARC
  5
A87
330
1F
100
AcDbEntity
  8
0
 62
     0
370
    15
100
AcDbCircle
 10
761.0598486685348
 20
642.6050419202742
 30
0.0
 40
0.5
100
AcDbArc
 50
56.99999999998267
 51
89.99999999979156
  0
LINE
  5
A88
330
1F
100
AcDbEntity
  8
0
 62
     0
370
    15
100
AcDbLine
 10
761.0598486685367
 20
643.1050419202748
 30
0.0
 11
760.6335284180068
 21
643.1050419202756
 31
0.0
  0
LINE
  5
A89
330
1F
100
AcDbEntity
  8
0
 62
     0
370
    15
100
AcDbLine
 10
762.906742792361
 20
642.0018364988491
 30
0.0
 11
761.3321681860425
 21
643.0243772042476
 31
0.0
  0
LINE
  5
A8A
330
1F
100
AcDbEntity
  8
0
 62
     0
370
    15
100
AcDbLine
 10
762.9067386030428
 20
645.8082404590459
 30
0.0
 11
761.33216624754
 21
644.7856962877058
 31
0.0
  0
LINE
  5
A8B
330
1F
100
AcDbEntity
  8
0
 62
     0
370
    15
100
AcDbLine
 10
761.0598469075949
 20
644.7050309722517
 30
0.0
 11
760.6335266570649
 21
644.7050300338369
 31
0.0
  0
ARC
  5
A8C
330
1F
100
AcDbEntity
  8
0
 62
     0
370
    15
100
AcDbCircle
 10
761.0598458069935
 20
645.2050309722494
 30
0.0
 40
0.5
100
AcDbArc
 50
270.0001261193138
 51
303.000126119065
  0
ARC
  5
A8D
330
1F
100
AcDbEntity
  8
0
 62
     0
370
    15
100
AcDbCircle
 10
763.2335231332535
 20
645.305038838604
 30
0.0
 40
0.6
100
AcDbArc
 50
57.00012611909873
 51
123.000126119065
  0
LINE
  5
A8E
330
1F
100
AcDbEntity
  8
0
 62
     0
370
    15
100
AcDbLine
 10
763.5603054481753
 20
645.8082418976736
 30
0.0
 11
765.1348823052985
 21
644.7857046582202
 31
0.0
  0
ARC
  5
A8F
330
1F
100
AcDbEntity
  8
0
 62
     0
370
    15
100
AcDbCircle
 10
765.4072008997673
 20
645.2050405416208
 30
0.0
 40
0.5
100
AcDbArc
 50
237.0001261190988
 51
270.0001261188969
  0
LINE
  5
A90
330
1F
100
AcDbEntity
  8
0
 62
     0
370
    15
100
AcDbLine
 10
765.4072020003614
 20
644.705040541623
 30
0.0
 11
765.8335222508912
 21
644.7050414800351
 31
0.0
  0
ARC
  5
A91
330
1F
100
AcDbEntity
  8
0
 62
     0
370
    15
100
AcDbCircle
 10
730.633524016378
 20
643.3050419153455
 30
0.0
 40
0.2
100
AcDbArc
 50
180.0000001086498
 51
270.0000001085976
  0
LINE
  5
A92
330
1F
100
AcDbEntity
  8
0
 62
     0
370
    15
100
AcDbLine
 10
730.4335240144819
 20
644.5050419149675
 30
0.0
 11
730.4335240167556
 21
643.3050295988987
 31
0.0
  0
ARC
  5
A93
330
1F
100
AcDbEntity
  8
0
 62
     0
370
    15
100
AcDbCircle
 10
730.6335240144808
 20
644.5050419153463
 30
0.0
 40
0.2
100
AcDbArc
 50
90.00000010859768
 51
180.0000001086498
  0
ARC
  5
A94
330
1F
100
AcDbEntity
  8
0
 62
     0
370
    15
100
AcDbCircle
 10
735.8335240118458
 20
644.5050419202758
 30
0.0
 40
0.2
100
AcDbArc
 50
0.0
 51
90.0
  0
ARC
  5
A95
330
1F
100
AcDbEntity
  8
0
 62
     0
370
    15
100
AcDbCircle
 10
735.8335240118458
 20
643.305041920275
 30
0.0
 40
0.2
100
AcDbArc
 50
270.0
 51
0.0
  0
LINE
  5
A96
330
1F
100
AcDbEntity
  8
0
 62
     0
370
    15
100
AcDbLine
 10
735.4072037613159
 20
643.1050419202748
 30
0.0
 11
735.8335240118458
 21
643.1050419202756
 31
0.0
  0
LINE
  5
A97
330
1F
100
AcDbEntity
  8
0
 62
     0
370
    15
100
AcDbLine
 10
736.0335240118465
 20
644.5050419202762
 30
0.0
 11
736.0335240118465
 21
643.3050419202754
 31
0.0
  0
ARC
  5
A98
330
1F
100
AcDbEntity
  8
0
 62
     0
370
    15
100
AcDbCircle
 10
733.2335262149272
 20
642.5050388386048
 30
0.0
 40
0.6
100
AcDbArc
 50
236.9999999999826
 51
303.0000000000173
  0
LINE
  5
A99
330
1F
100
AcDbEntity
  8
0
 62
     0
370
    15
100
AcDbLine
 10
733.5603096374934
 20
642.0018364988491
 30
0.0
 11
735.1348842438101
 21
643.0243772042476
 31
0.0
  0
ARC
  5
A9A
330
1F
100
AcDbEntity
  8
0
 62
     0
370
    15
100
AcDbCircle
 10
735.4072037613177
 20
642.6050419202742
 30
0.0
 40
0.5
100
AcDbArc
 50
90.00000000020843
 51
123.0000000000173
  0
ARC
  5
A9B
330
1F
100
AcDbEntity
  8
0
 62
     0
370
    15
100
AcDbCircle
 10
731.0598486685348
 20
642.6050419202742
 30
0.0
 40
0.5
100
AcDbArc
 50
56.99999999998267
 51
89.99999999979156
  0
LINE
  5
A9C
330
1F
100
AcDbEntity
  8
0
 62
     0
370
    15
100
AcDbLine
 10
731.0598486685367
 20
643.1050419202748
 30
0.0
 11
730.6335284180067
 21
643.1050419202756
 31
0.0
  0
LINE
  5
A9D
330
1F
100
AcDbEntity
  8
0
 62
     0
370
    15
100
AcDbLine
 10
732.906742792361
 20
642.0018364988491
 30
0.0
 11
731.3321681860425
 21
643.0243772042476
 31
0.0
  0
LINE
  5
A9E
330
1F
100
AcDbEntity
  8
0
 62
     0
370
    15
100
AcDbLine
 10
732.9067386030429
 20
645.8082404590459
 30
0.0
 11
731.33216624754
 21
644.7856962877058
 31
0.0
  0
LINE
  5
A9F
330
1F
100
AcDbEntity
  8
0
 62
     0
370
    15
100
AcDbLine
 10
731.0598469075948
 20
644.7050309722517
 30
0.0
 11
730.6335266570649
 21
644.7050300338369
 31
0.0
  0
ARC
  5
AA0
330
1F
100
AcDbEntity
  8
0
 62
     0
370
    15
100
AcDbCircle
 10
731.0598458069935
 20
645.2050309722494
 30
0.0
 40
0.5
100
AcDbArc
 50
270.0001261193138
 51
303.000126119065
  0
ARC
  5
AA1
330
1F
100
AcDbEntity
  8
0
 62
     0
370
    15
100
AcDbCircle
 10
733.2335231332535
 20
645.305038838604
 30
0.0
 40
0.6
100
AcDbArc
 50
57.00012611909873
 51
123.000126119065
  0
LINE
  5
AA2
330
1F
100
AcDbEntity
  8
0
 62
     0
370
    15
100
AcDbLine
 10
733.5603054481753
 20
645.8082418976736
 30
0.0
 11
735.1348823052985
 21
644.7857046582202
 31
0.0
  0
ARC
  5
AA3
330
1F
100
AcDbEntity
  8
0
 62
     0
370
    15
100
AcDbCircle
 10
735.4072008997673
 20
645.2050405416208
 30
0.0
 40
0.5
100
AcDbArc
 50
237.0001261190988
 51
270.0001261188969
  0
LINE
  5
AA4
330
1F
100
AcDbEntity
  8
0
 62
     0
370
    15
100
AcDbLine
 10
735.4072020003614
 20
644.705040541623
 30
0.0
 11
735.8335222508912
 21
644.7050414800351
 31
0.0
  0
ARC
  5
AA5
330
1F
100
AcDbEntity
  8
0
 62
     0
370
    15
100
AcDbCircle
 10
715.633524016378
 20
643.3050419153455
 30
0.0
 40
0.2
100
AcDbArc
 50
180.0000001086498
 51
270.0000001085976
  0
LINE
  5
AA6
330
1F
100
AcDbEntity
  8
0
 62
     0
370
    15
100
AcDbLine
 10
715.4335240144819
 20
644.5050419149675
 30
0.0
 11
715.4335240167556
 21
643.3050295988987
 31
0.0
  0
ARC
  5
AA7
330
1F
100
AcDbEntity
  8
0
 62
     0
370
    15
100
AcDbCircle
 10
715.6335240144808
 20
644.5050419153463
 30
0.0
 40
0.2
100
AcDbArc
 50
90.00000010859768
 51
180.0000001086498
  0
ARC
  5
AA8
330
1F
100
AcDbEntity
  8
0
 62
     0
370
    15
100
AcDbCircle
 10
720.8335240118458
 20
644.5050419202758
 30
0.0
 40
0.2
100
AcDbArc
 50
0.0
 51
90.0
  0
ARC
  5
AA9
330
1F
100
AcDbEntity
  8
0
 62
     0
370
    15
100
AcDbCircle
 10
720.8335240118458
 20
643.305041920275
 30
0.0
 40
0.2
100
AcDbArc
 50
270.0
 51
0.0
  0
LINE
  5
AAA
330
1F
100
AcDbEntity
  8
0
 62
     0
370
    15
100
AcDbLine
 10
720.4072037613159
 20
643.1050419202748
 30
0.0
 11
720.8335240118458
 21
643.1050419202756
 31
0.0
  0
LINE
  5
AAB
330
1F
100
AcDbEntity
  8
0
 62
     0
370
    15
100
AcDbLine
 10
721.0335240118466
 20
644.5050419202762
 30
0.0
 11
721.0335240118466
 21
643.3050419202754
 31
0.0
  0
ARC
  5
AAC
330
1F
100
AcDbEntity
  8
0
 62
     0
370
    15
100
AcDbCircle
 10
718.2335262149272
 20
642.5050388386048
 30
0.0
 40
0.6
100
AcDbArc
 50
236.9999999999826
 51
303.0000000000173
  0
LINE
  5
AAD
330
1F
100
AcDbEntity
  8
0
 62
     0
370
    15
100
AcDbLine
 10
718.5603096374934
 20
642.0018364988491
 30
0.0
 11
720.13488424381
 21
643.0243772042476
 31
0.0
  0
ARC
  5
AAE
330
1F
100
AcDbEntity
  8
0
 62
     0
370
    15
100
AcDbCircle
 10
720.4072037613177
 20
642.6050419202742
 30
0.0
 40
0.5
100
AcDbArc
 50
90.00000000020843
 51
123.0000000000173
  0
ARC
  5
AAF
330
1F
100
AcDbEntity
  8
0
 62
     0
370
    15
100
AcDbCircle
 10
716.0598486685349
 20
642.6050419202742
 30
0.0
 40
0.5
100
AcDbArc
 50
56.99999999998267
 51
89.99999999979156
  0
LINE
  5
AB0
330
1F
100
AcDbEntity
  8
0
 62
     0
370
    15
100
AcDbLine
 10
716.0598486685366
 20
643.1050419202748
 30
0.0
 11
715.6335284180068
 21
643.1050419202756
 31
0.0
  0
LINE
  5
AB1
330
1F
100
AcDbEntity
  8
0
 62
     0
370
    15
100
AcDbLine
 10
717.906742792361
 20
642.0018364988491
 30
0.0
 11
716.3321681860424
 21
643.0243772042476
 31
0.0
  0
LINE
  5
AB2
330
1F
100
AcDbEntity
  8
0
 62
     0
370
    15
100
AcDbLine
 10
717.9067386030428
 20
645.8082404590459
 30
0.0
 11
716.33216624754
 21
644.7856962877058
 31
0.0
  0
LINE
  5
AB3
330
1F
100
AcDbEntity
  8
0
 62
     0
370
    15
100
AcDbLine
 10
716.0598469075948
 20
644.7050309722517
 30
0.0
 11
715.633526657065
 21
644.7050300338369
 31
0.0
  0
ARC
  5
AB4
330
1F
100
AcDbEntity
  8
0
 62
     0
370
    15
100
AcDbCircle
 10
716.0598458069935
 20
645.2050309722494
 30
0.0
 40
0.5
100
AcDbArc
 50
270.0001261193138
 51
303.000126119065
  0
ARC
  5
AB5
330
1F
100
AcDbEntity
  8
0
 62
     0
370
    15
100
AcDbCircle
 10
718.2335231332536
 20
645.305038838604
 30
0.0
 40
0.6
100
AcDbArc
 50
57.00012611909873
 51
123.000126119065
  0
LINE
  5
AB6
330
1F
100
AcDbEntity
  8
0
 62
     0
370
    15
100
AcDbLine
 10
718.5603054481752
 20
645.8082418976736
 30
0.0
 11
720.1348823052986
 21
644.7857046582202
 31
0.0
  0
ARC
  5
AB7
330
1F
100
AcDbEntity
  8
0
 62
     0
370
    15
100
AcDbCircle
 10
720.4072008997672
 20
645.2050405416208
 30
0.0
 40
0.5
100
AcDbArc
 50
237.0001261190988
 51
270.0001261188969
  0
LINE
  5
AB8
330
1F
100
AcDbEntity
  8
0
 62
     0
370
    15
100
AcDbLine
 10
720.4072020003613
 20
644.705040541623
 30
0.0
 11
720.8335222508913
 21
644.7050414800351
 31
0.0
  0
CIRCLE
  5
AB9
330
1F
100
AcDbEntity
  8
0
 62
     0
 48
6.0
370
    15
100
AcDbCircle
 10
710.7335240137335
 20
643.9050357569326
 30
0.0
 40
2.0
  0
CIRCLE
  5
ABA
330
1F
100
AcDbEntity
  8
0
 62
     0
 48
6.0
370
    15
100
AcDbCircle
 10
905.7335240137335
 20
643.9050357569326
 30
0.0
 40
2.0
  0
CIRCLE
  5
ABB
330
1F
100
AcDbEntity
  8
0
 62
     0
 48
6.0
370
    15
100
AcDbCircle
 10
1100.733524013733
 20
643.9050357569326
 30
0.0
 40
2.0
  0
CIRCLE
  5
ABC
330
1F
100
AcDbEntity
  8
0
 62
     0
 48
6.0
100
AcDbCircle
 10
1295.733524013733
 20
643.9050357569326
 30
0.0
 40
2.0
  0
ARC
  5
ABD
330
1F
100
AcDbEntity
  8
0
 62
     0
100
AcDbCircle
 10
1386.701732147742
 20
647.819249319305
 30
0.0000000000000351
 40
0.2
100
AcDbArc
 50
180.0
 51
224.9999999999896
  0
ARC
  5
ABE
330
1F
100
AcDbEntity
  8
0
 62
     0
 48
6.0
100
AcDbCircle
 10
1386.701732147742
 20
639.9908221945584
 30
0.0000000000000351
 40
0.2
100
AcDbArc
 50
135.0000000000103
 51
180.0
  0
LINE
  5
ABF
330
1F
100
AcDbEntity
  8
0
 62
     0
100
AcDbLine
 10
1387.767417572691
 20
641.3393503319821
 30
0.0000000000000351
 11
1387.767417572691
 21
646.4707211818822
 31
0.0000000000000351
  0
LINE
  5
AC0
330
1F
100
AcDbEntity
  8
0
 62
     0
100
AcDbLine
 10
1386.560310791504
 20
647.6778279630679
 30
0.0000000000000351
 11
1387.767417572691
 21
646.4707211818822
 31
0.0000000000000351
  0
LINE
  5
AC1
330
1F
100
AcDbEntity
  8
0
 62
     0
100
AcDbLine
 10
1386.560310791504
 20
640.1322435507954
 30
0.0000000000000351
 11
1387.767417572691
 21
641.3393503319821
 31
0.0000000000000351
  0
LINE
  5
AC2
330
1F
100
AcDbEntity
  8
0
 62
     0
100
AcDbLine
 10
1386.501732147741
 20
647.9050357569317
 30
-0.0000000000001296
 11
1386.501732147741
 21
639.9050357569322
 31
-0.0000000000001296
210
0.0
220
1.0
230
0.0
  0
LINE
  5
AC3
330
1F
100
AcDbEntity
  8
0
 62
     0
100
AcDbLine
 10
1386.901732147741
 20
648.9050357569331
 30
-0.0000000000001296
 11
1388.701732147742
 21
648.9050357569331
 31
-0.0000000000001296
210
0.0
220
1.0
230
0.0
  0
LINE
  5
AC4
330
1F
100
AcDbEntity
  8
0
 62
     0
100
AcDbLine
 10
1388.701732147742
 20
648.9050357569331
 30
-0.0000000000001296
 11
1388.701732147742
 21
648.1050357569338
 31
-0.0000000000001296
210
0.0
220
1.0
230
0.0
  0
LINE
  5
AC5
330
1F
100
AcDbEntity
  8
0
 62
     0
100
AcDbLine
 10
1388.701732147742
 20
648.1050357569338
 30
-0.0000000000001296
 11
1386.70173214774
 21
648.105035756932
 31
-0.0000000000001296
210
0.0
220
1.0
230
0.0
  0
LINE
  5
AC6
330
1F
100
AcDbEntity
  8
0
 62
     0
100
AcDbLine
 10
1386.70173214774
 20
639.7050357569323
 30
-0.0000000000001296
 11
1388.701732147742
 21
639.7050357569323
 31
-0.0000000000001296
210
0.0
220
1.0
230
0.0
  0
LINE
  5
AC7
330
1F
100
AcDbEntity
  8
0
 62
     0
100
AcDbLine
 10
1388.701732147742
 20
639.7050357569323
 30
-0.0000000000001296
 11
1388.701732147742
 21
638.9050357569331
 31
-0.0000000000001296
210
0.0
220
1.0
230
0.0
  0
LINE
  5
AC8
330
1F
100
AcDbEntity
  8
0
 62
     0
100
AcDbLine
 10
1388.701732147742
 20
638.9050357569331
 30
-0.0000000000001296
 11
1386.901732147743
 21
638.9050357569331
 31
-0.0000000000001296
210
0.0
220
1.0
230
0.0
  0
LINE
  5
AC9
330
1F
100
AcDbEntity
  8
0
 62
     0
100
AcDbLine
 10
1385.701732147742
 20
640.1050357569329
 30
0.0000000000000644
 11
1385.701732147742
 21
647.7050357569328
 31
0.0000000000000059
  0
LINE
  5
ACA
330
1F
100
AcDbEntity
  8
0
 62
     0
370
    15
100
AcDbLine
 10
678.2335240137317
 20
638.9050357569331
 30
0.0
 11
678.2335240137317
 21
648.9050357569331
 31
0.0
  0
LINE
  5
ACB
330
1F
100
AcDbEntity
  8
0
 62
     0
370
    15
100
AcDbLine
 10
678.2335240137317
 20
648.9050357569331
 30
0.0
 11
1144.739072150408
 21
648.9050357569322
 31
0.0
  0
LINE
  5
ACC
330
1F
100
AcDbEntity
  8
0
 62
     0
370
    15
100
AcDbLine
 10
678.2335240137317
 20
638.9050357569331
 30
0.0
 11
1144.739072150408
 21
638.9050357569321
 31
0.0
  0
LINE
  5
ACD
330
1F
100
AcDbEntity
  8
0
 62
     0
370
    15
100
AcDbLine
 10
1146.739072150404
 20
657.9057190806724
 30
0.0
 11
1146.739072150404
 21
627.9057190806724
 31
0.0
  0
LINE
  5
ACE
330
1F
100
AcDbEntity
  8
0
 62
     0
370
    15
100
AcDbLine
 10
1144.739072150408
 20
657.9057190806724
 30
0.0
 11
1144.739072150408
 21
627.9057190806724
 31
0.0
  0
LINE
  5
ACF
330
1F
100
AcDbEntity
  8
0
 62
     0
370
    15
100
AcDbLine
 10
1146.739072150406
 20
638.9050357569321
 30
0.0
 11
1328.233524013732
 21
638.9050357569321
 31
0.0
  0
LINE
  5
AD0
330
1F
100
AcDbEntity
  8
0
 62
     0
370
    15
100
AcDbLine
 10
1146.739072150406
 20
648.9050357569322
 30
0.0
 11
1328.233524013732
 21
648.9050357569322
 31
0.0
  0
LINE
  5
AD1
330
1F
100
AcDbEntity
  8
0
 62
     0
100
AcDbLine
 10
1328.233524013732
 20
638.9050357569331
 30
0.0
 11
1328.233524013732
 21
648.9050357569331
 31
0.0
  0
ARC
  5
AD2
330
1F
100
AcDbEntity
  8
0
 62
     0
100
AcDbCircle
 10
1386.901732147741
 20
647.7050357569328
 30
-0.0000000000022706
 40
1.199999999999999
100
AcDbArc
 50
90.0
 51
180.0
  0
ARC
  5
AD3
330
1F
100
AcDbEntity
  8
0
 62
     0
100
AcDbCircle
 10
1386.901732147743
 20
640.1050357569329
 30
0.0000000000261854
 40
1.199999999999999
100
AcDbArc
 50
180.0
 51
270.0
  0
ARC
  5
AD4
330
1F
100
AcDbEntity
  8
0
 62
     0
100
AcDbCircle
 10
1386.70173214774
 20
647.9050357569317
 30
-0.0000000000001296
 40
0.2
100
AcDbArc
 50
90.00000000010421
 51
180.0
  0
ARC
  5
AD5
330
1F
100
AcDbEntity
  8
0
 62
     0
100
AcDbCircle
 10
1386.70173214774
 20
639.9050357569322
 30
-0.0000000000001296
 40
0.2
100
AcDbArc
 50
180.0
 51
270.0
  0
LINE
  5
AD6
330
1F
100
AcDbEntity
  8
0
 62
     0
 48
6.0
370
     5
100
AcDbLine
 10
712.9558033516559
 20
641.201061913819
 30
0.0
 11
774.6011796192733
 21
567.7349632800769
 31
0.0
  0
SOLID
  5
AD7
330
1F
100
AcDbEntity
  8
0
 62
     0
 48
6.0
370
     5
100
AcDbTrace
 10
716.0376500858137
 20
638.5654092144664
 30
0.0
 11
715.0162574949891
 21
637.70835906822
 31
0.0
 12
712.9558033516541
 22
641.2010619138186
 32
0.0
 13
712.9558033516541
 23
641.2010619138186
 33
0.0
  0
LINE
  5
AD8
330
1F
100
AcDbEntity
  8
0
 62
     0
370
     5
100
AcDbLine
 10
1144.739072150408
 20
657.9057190806724
 30
0.0
 11
1144.739072150408
 21
627.9057190806724
 31
0.0
  0
LINE
  5
AD9
330
1F
100
AcDbEntity
  8
0
 62
     0
370
     5
100
AcDbLine
 10
1146.739072150404
 20
657.9057190806724
 30
0.0
 11
1146.739072150404
 21
627.9057190806724
 31
0.0
  0
LINE
  5
ADA
330
1F
100
AcDbEntity
  8
0
 62
     0
370
     0
100
AcDbLine
 10
848.9127868528402
 20
567.7349632800765
 30
0.0
 11
774.6011796192715
 21
567.7349632800769
 31
0.0
  0
TEXT
  5
ADB
330
1F
100
AcDbEntity
  8
0
 62
     0
100
AcDbText
 10
776.4284055107264
 20
571.1094104972167
 30
0.0
 40
6.666499999999999
  1
φ4穴φ7皿押し
  7
ゴシック
100
AcDbText
  0
CIRCLE
  5
ADC
330
1F
100
AcDbEntity
  8
0
 62
     0
 48
6.0
370
    15
100
AcDbCircle
 10
743.2335240137354
 20
503.3799046392869
 30
0.0
 40
4.0
  0
CIRCLE
  5
ADD
330
1F
100
AcDbEntity
  8
0
 62
     0
 48
6.0
370
     5
100
AcDbCircle
 10
743.2335240137354
 20
503.3799046392869
 30
0.0
 40
7.0
  0
CIRCLE
  5
ADE
330
1F
100
AcDbEntity
  8
0
 62
     0
 48
6.0
370
     5
100
AcDbCircle
 10
924.2335240137354
 20
505.111955446855
 30
0.0
 40
1.0
  0
CIRCLE
  5
ADF
330
1F
100
AcDbEntity
  8
0
 62
     0
 48
6.0
370
     5
100
AcDbCircle
 10
924.2335240137354
 20
501.6478538317187
 30
0.0
 40
1.0
  0
CIRCLE
  5
AE0
330
1F
100
AcDbEntity
  8
0
 62
     0
 48
6.0
370
     5
100
AcDbCircle
 10
921.2335240137354
 20
503.3799046392869
 30
0.0
 40
1.0
  0
CIRCLE
  5
AE1
330
1F
100
AcDbEntity
  8
0
 62
     0
 48
6.0
370
     5
100
AcDbCircle
 10
952.2335240137353
 20
501.6478538317187
 30
0.0
 40
1.0
  0
CIRCLE
  5
AE2
330
1F
100
AcDbEntity
  8
0
 62
     0
 48
6.0
370
     5
100
AcDbCircle
 10
952.2335240137353
 20
505.111955446855
 30
0.0
 40
1.0
  0
CIRCLE
  5
AE3
330
1F
100
AcDbEntity
  8
0
 62
     0
 48
6.0
370
     5
100
AcDbCircle
 10
955.2335240137354
 20
503.3799046392869
 30
0.0
 40
1.0
  0
ARC
  5
AE4
330
1F
100
AcDbEntity
  8
0
 62
     0
370
    15
100
AcDbCircle
 10
753.0335240190225
 20
502.1799169561127
 30
0.0
 40
0.4
100
AcDbArc
 50
180.0000001086498
 51
270.0000001085976
  0
LINE
  5
AE5
330
1F
100
AcDbEntity
  8
0
 62
     0
370
    15
100
AcDbLine
 10
752.6335240152302
 20
504.5799169553565
 30
0.0
 11
752.6335240197814
 21
502.179892323219
 31
0.0
  0
ARC
  5
AE6
330
1F
100
AcDbEntity
  8
0
 62
     0
370
    15
100
AcDbCircle
 10
753.0335240152298
 20
504.5799169561141
 30
0.0
 40
0.4
100
AcDbArc
 50
90.00000010859768
 51
180.0000001086498
  0
ARC
  5
AE7
330
1F
100
AcDbEntity
  8
0
 62
     0
370
    15
100
AcDbCircle
 10
763.4335240099598
 20
504.5799169659731
 30
0.0
 40
0.4
100
AcDbArc
 50
0.0
 51
90.0
  0
ARC
  5
AE8
330
1F
100
AcDbEntity
  8
0
 62
     0
370
    15
100
AcDbCircle
 10
763.4335240099598
 20
502.1799169659716
 30
0.0
 40
0.4
100
AcDbArc
 50
270.0
 51
0.0
  0
LINE
  5
AE9
330
1F
100
AcDbEntity
  8
0
 62
     0
370
    15
100
AcDbLine
 10
762.5808835089001
 20
501.7799169659711
 30
0.0
 11
763.4335240099617
 21
501.7799169659729
 31
0.0
  0
LINE
  5
AEA
330
1F
100
AcDbEntity
  8
0
 62
     0
370
    15
100
AcDbLine
 10
763.8335240099613
 20
504.579916965974
 30
0.0
 11
763.8335240099613
 21
502.1799169659725
 31
0.0
  0
ARC
  5
AEB
330
1F
100
AcDbEntity
  8
0
 62
     0
370
    15
100
AcDbCircle
 10
758.2335284161208
 20
500.5799108026312
 30
0.0
 40
1.199999999999999
100
AcDbArc
 50
237.0000000001073
 51
303.0000000000173
  0
LINE
  5
AEC
330
1F
100
AcDbEntity
  8
0
 62
     0
370
    15
100
AcDbLine
 10
758.8870952612532
 20
499.5735061231198
 30
0.0
 11
762.0362444738884
 21
501.618587533917
 31
0.0
  0
ARC
  5
AED
330
1F
100
AcDbEntity
  8
0
 62
     0
370
    15
100
AcDbCircle
 10
762.5808835089038
 20
500.7799169659701
 30
0.0
 40
1.0
100
AcDbArc
 50
90.00000000020843
 51
122.9999999998927
  0
ARC
  5
AEE
330
1F
100
AcDbEntity
  8
0
 62
     0
370
    15
100
AcDbCircle
 10
753.8861733233379
 20
500.7799169659701
 30
0.0
 40
1.0
100
AcDbArc
 50
57.00000000010732
 51
89.99999999979156
  0
LINE
  5
AEF
330
1F
100
AcDbEntity
  8
0
 62
     0
370
    15
100
AcDbLine
 10
753.8861733233416
 20
501.7799169659711
 30
0.0
 11
753.0335328222818
 21
501.7799169659729
 31
0.0
  0
LINE
  5
AF0
330
1F
100
AcDbEntity
  8
0
 62
     0
370
    15
100
AcDbLine
 10
757.5799615709883
 20
499.5735061231198
 30
0.0
 11
754.4308123583532
 21
501.618587533917
 31
0.0
  0
LINE
  5
AF1
330
1F
100
AcDbEntity
  8
0
 62
     0
370
    15
100
AcDbLine
 10
757.5799531923557
 20
507.1863140435134
 30
0.0
 11
754.4308084813483
 21
505.1412257008332
 31
0.0
  0
LINE
  5
AF2
330
1F
100
AcDbEntity
  8
0
 62
     0
370
    15
100
AcDbLine
 10
753.8861698014561
 20
504.979895069925
 30
0.0
 11
753.0335293003981
 21
504.9798931930954
 31
0.0
  0
ARC
  5
AF3
330
1F
100
AcDbEntity
  8
0
 62
     0
370
    15
100
AcDbCircle
 10
753.8861676002571
 20
505.9798950699205
 30
0.0
 40
1.0
100
AcDbArc
 50
270.0001261193138
 51
303.000126119065
  0
ARC
  5
AF4
330
1F
100
AcDbEntity
  8
0
 62
     0
370
    15
100
AcDbCircle
 10
758.2335222527772
 20
506.1799108026298
 30
0.0
 40
1.199999999999999
100
AcDbArc
 50
57.00012611909873
 51
123.000126119065
  0
LINE
  5
AF5
330
1F
100
AcDbEntity
  8
0
 62
     0
370
    15
100
AcDbLine
 10
758.887086882617
 20
507.186316920769
 30
0.0
 11
762.0362405968653
 21
505.1412424418622
 31
0.0
  0
ARC
  5
AF6
330
1F
100
AcDbEntity
  8
0
 62
     0
370
    15
100
AcDbCircle
 10
762.5808777858028
 20
505.9799142086631
 30
0.0
 40
1.0
100
AcDbArc
 50
237.0001261192234
 51
270.0001261188969
  0
LINE
  5
AF7
330
1F
100
AcDbEntity
  8
0
 62
     0
370
    15
100
AcDbLine
 10
762.5808799869928
 20
504.9799142086676
 30
0.0
 11
763.4335204880508
 21
504.9799160854917
 31
0.0
  0
ARC
  5
AF8
330
1F
100
AcDbEntity
  8
0
 62
     0
370
    15
100
AcDbCircle
 10
783.0335240190224
 20
502.1799169561127
 30
0.0
 40
0.4
100
AcDbArc
 50
180.0000001086498
 51
270.0000001085976
  0
LINE
  5
AF9
330
1F
100
AcDbEntity
  8
0
 62
     0
370
    15
100
AcDbLine
 10
782.6335240152302
 20
504.5799169553565
 30
0.0
 11
782.6335240197813
 21
502.179892323219
 31
0.0
  0
ARC
  5
AFA
330
1F
100
AcDbEntity
  8
0
 62
     0
370
    15
100
AcDbCircle
 10
783.0335240152298
 20
504.5799169561141
 30
0.0
 40
0.4
100
AcDbArc
 50
90.00000010859768
 51
180.0000001086498
  0
ARC
  5
AFB
330
1F
100
AcDbEntity
  8
0
 62
     0
370
    15
100
AcDbCircle
 10
793.4335240099599
 20
504.5799169659731
 30
0.0
 40
0.4
100
AcDbArc
 50
0.0
 51
90.0
  0
ARC
  5
AFC
330
1F
100
AcDbEntity
  8
0
 62
     0
370
    15
100
AcDbCircle
 10
793.4335240099599
 20
502.1799169659716
 30
0.0
 40
0.4
100
AcDbArc
 50
270.0
 51
0.0
  0
LINE
  5
AFD
330
1F
100
AcDbEntity
  8
0
 62
     0
370
    15
100
AcDbLine
 10
792.5808835089001
 20
501.7799169659711
 30
0.0
 11
793.4335240099617
 21
501.7799169659729
 31
0.0
  0
LINE
  5
AFE
330
1F
100
AcDbEntity
  8
0
 62
     0
370
    15
100
AcDbLine
 10
793.8335240099613
 20
504.579916965974
 30
0.0
 11
793.8335240099613
 21
502.1799169659725
 31
0.0
  0
ARC
  5
AFF
330
1F
100
AcDbEntity
  8
0
 62
     0
370
    15
100
AcDbCircle
 10
788.2335284161208
 20
500.5799108026312
 30
0.0
 40
1.199999999999999
100
AcDbArc
 50
237.0000000001073
 51
303.0000000000173
  0
LINE
  5
B00
330
1F
100
AcDbEntity
  8
0
 62
     0
370
    15
100
AcDbLine
 10
788.8870952612533
 20
499.5735061231198
 30
0.0
 11
792.0362444738884
 21
501.618587533917
 31
0.0
  0
ARC
  5
B01
330
1F
100
AcDbEntity
  8
0
 62
     0
370
    15
100
AcDbCircle
 10
792.5808835089037
 20
500.7799169659701
 30
0.0
 40
1.0
100
AcDbArc
 50
90.00000000020843
 51
122.9999999998927
  0
ARC
  5
B02
330
1F
100
AcDbEntity
  8
0
 62
     0
370
    15
100
AcDbCircle
 10
783.886173323338
 20
500.7799169659701
 30
0.0
 40
1.0
100
AcDbArc
 50
57.00000000010732
 51
89.99999999979156
  0
LINE
  5
B03
330
1F
100
AcDbEntity
  8
0
 62
     0
370
    15
100
AcDbLine
 10
783.8861733233415
 20
501.7799169659711
 30
0.0
 11
783.0335328222818
 21
501.7799169659729
 31
0.0
  0
LINE
  5
B04
330
1F
100
AcDbEntity
  8
0
 62
     0
370
    15
100
AcDbLine
 10
787.5799615709884
 20
499.5735061231198
 30
0.0
 11
784.4308123583532
 21
501.618587533917
 31
0.0
  0
LINE
  5
B05
330
1F
100
AcDbEntity
  8
0
 62
     0
370
    15
100
AcDbLine
 10
787.5799531923558
 20
507.1863140435134
 30
0.0
 11
784.4308084813483
 21
505.1412257008332
 31
0.0
  0
LINE
  5
B06
330
1F
100
AcDbEntity
  8
0
 62
     0
370
    15
100
AcDbLine
 10
783.8861698014562
 20
504.979895069925
 30
0.0
 11
783.0335293003981
 21
504.9798931930954
 31
0.0
  0
ARC
  5
B07
330
1F
100
AcDbEntity
  8
0
 62
     0
370
    15
100
AcDbCircle
 10
783.886167600257
 20
505.9798950699205
 30
0.0
 40
1.0
100
AcDbArc
 50
270.0001261193138
 51
303.000126119065
  0
ARC
  5
B08
330
1F
100
AcDbEntity
  8
0
 62
     0
370
    15
100
AcDbCircle
 10
788.2335222527772
 20
506.1799108026298
 30
0.0
 40
1.199999999999999
100
AcDbArc
 50
57.00012611909873
 51
123.000126119065
  0
LINE
  5
B09
330
1F
100
AcDbEntity
  8
0
 62
     0
370
    15
100
AcDbLine
 10
788.887086882617
 20
507.186316920769
 30
0.0
 11
792.0362405968654
 21
505.1412424418622
 31
0.0
  0
ARC
  5
B0A
330
1F
100
AcDbEntity
  8
0
 62
     0
370
    15
100
AcDbCircle
 10
792.5808777858028
 20
505.9799142086631
 30
0.0
 40
1.0
100
AcDbArc
 50
237.0001261192234
 51
270.0001261188969
  0
LINE
  5
B0B
330
1F
100
AcDbEntity
  8
0
 62
     0
370
    15
100
AcDbLine
 10
792.5808799869928
 20
504.9799142086676
 30
0.0
 11
793.4335204880508
 21
504.9799160854917
 31
0.0
  0
ARC
  5
B0C
330
1F
100
AcDbEntity
  8
0
 62
     0
370
    15
100
AcDbCircle
 10
843.0335240190224
 20
502.1799169561127
 30
0.0
 40
0.4
100
AcDbArc
 50
180.0000001086498
 51
270.0000001085976
  0
LINE
  5
B0D
330
1F
100
AcDbEntity
  8
0
 62
     0
370
    15
100
AcDbLine
 10
842.6335240152303
 20
504.5799169553565
 30
0.0
 11
842.6335240197813
 21
502.179892323219
 31
0.0
  0
ARC
  5
B0E
330
1F
100
AcDbEntity
  8
0
 62
     0
370
    15
100
AcDbCircle
 10
843.0335240152299
 20
504.5799169561141
 30
0.0
 40
0.4
100
AcDbArc
 50
90.00000010859768
 51
180.0000001086498
  0
ARC
  5
B0F
330
1F
100
AcDbEntity
  8
0
 62
     0
370
    15
100
AcDbCircle
 10
853.4335240099599
 20
504.5799169659731
 30
0.0
 40
0.4
100
AcDbArc
 50
0.0
 51
90.0
  0
ARC
  5
B10
330
1F
100
AcDbEntity
  8
0
 62
     0
370
    15
100
AcDbCircle
 10
853.4335240099599
 20
502.1799169659716
 30
0.0
 40
0.4
100
AcDbArc
 50
270.0
 51
0.0
  0
LINE
  5
B11
330
1F
100
AcDbEntity
  8
0
 62
     0
370
    15
100
AcDbLine
 10
852.5808835089002
 20
501.7799169659711
 30
0.0
 11
853.4335240099617
 21
501.7799169659729
 31
0.0
  0
LINE
  5
B12
330
1F
100
AcDbEntity
  8
0
 62
     0
370
    15
100
AcDbLine
 10
853.8335240099613
 20
504.579916965974
 30
0.0
 11
853.8335240099613
 21
502.1799169659725
 31
0.0
  0
ARC
  5
B13
330
1F
100
AcDbEntity
  8
0
 62
     0
370
    15
100
AcDbCircle
 10
848.2335284161209
 20
500.5799108026312
 30
0.0
 40
1.199999999999999
100
AcDbArc
 50
237.0000000001073
 51
303.0000000000173
  0
LINE
  5
B14
330
1F
100
AcDbEntity
  8
0
 62
     0
370
    15
100
AcDbLine
 10
848.8870952612533
 20
499.5735061231198
 30
0.0
 11
852.0362444738884
 21
501.618587533917
 31
0.0
  0
ARC
  5
B15
330
1F
100
AcDbEntity
  8
0
 62
     0
370
    15
100
AcDbCircle
 10
852.5808835089037
 20
500.7799169659701
 30
0.0
 40
1.0
100
AcDbArc
 50
90.00000000020843
 51
122.9999999998927
  0
ARC
  5
B16
330
1F
100
AcDbEntity
  8
0
 62
     0
370
    15
100
AcDbCircle
 10
843.8861733233379
 20
500.7799169659701
 30
0.0
 40
1.0
100
AcDbArc
 50
57.00000000010732
 51
89.99999999979156
  0
LINE
  5
B17
330
1F
100
AcDbEntity
  8
0
 62
     0
370
    15
100
AcDbLine
 10
843.8861733233416
 20
501.7799169659711
 30
0.0
 11
843.0335328222819
 21
501.7799169659729
 31
0.0
  0
LINE
  5
B18
330
1F
100
AcDbEntity
  8
0
 62
     0
370
    15
100
AcDbLine
 10
847.5799615709885
 20
499.5735061231198
 30
0.0
 11
844.4308123583532
 21
501.618587533917
 31
0.0
  0
LINE
  5
B19
330
1F
100
AcDbEntity
  8
0
 62
     0
370
    15
100
AcDbLine
 10
847.5799531923557
 20
507.1863140435134
 30
0.0
 11
844.4308084813483
 21
505.1412257008332
 31
0.0
  0
LINE
  5
B1A
330
1F
100
AcDbEntity
  8
0
 62
     0
370
    15
100
AcDbLine
 10
843.886169801456
 20
504.979895069925
 30
0.0
 11
843.0335293003981
 21
504.9798931930954
 31
0.0
  0
ARC
  5
B1B
330
1F
100
AcDbEntity
  8
0
 62
     0
370
    15
100
AcDbCircle
 10
843.886167600257
 20
505.9798950699205
 30
0.0
 40
1.0
100
AcDbArc
 50
270.0001261193138
 51
303.000126119065
  0
ARC
  5
B1C
330
1F
100
AcDbEntity
  8
0
 62
     0
370
    15
100
AcDbCircle
 10
848.2335222527773
 20
506.1799108026298
 30
0.0
 40
1.199999999999999
100
AcDbArc
 50
57.00012611909873
 51
123.000126119065
  0
LINE
  5
B1D
330
1F
100
AcDbEntity
  8
0
 62
     0
370
    15
100
AcDbLine
 10
848.887086882617
 20
507.186316920769
 30
0.0
 11
852.0362405968652
 21
505.1412424418622
 31
0.0
  0
ARC
  5
B1E
330
1F
100
AcDbEntity
  8
0
 62
     0
370
    15
100
AcDbCircle
 10
852.5808777858028
 20
505.9799142086631
 30
0.0
 40
1.0
100
AcDbArc
 50
237.0001261192234
 51
270.0001261188969
  0
LINE
  5
B1F
330
1F
100
AcDbEntity
  8
0
 62
     0
370
    15
100
AcDbLine
 10
852.5808799869928
 20
504.9799142086676
 30
0.0
 11
853.4335204880507
 21
504.9799160854917
 31
0.0
  0
ARC
  5
B20
330
1F
100
AcDbEntity
  8
0
 62
     0
370
    15
100
AcDbCircle
 10
813.0335240190225
 20
502.1799169561127
 30
0.0
 40
0.4
100
AcDbArc
 50
180.0000001086498
 51
270.0000001085976
  0
LINE
  5
B21
330
1F
100
AcDbEntity
  8
0
 62
     0
370
    15
100
AcDbLine
 10
812.6335240152302
 20
504.5799169553565
 30
0.0
 11
812.6335240197814
 21
502.179892323219
 31
0.0
  0
ARC
  5
B22
330
1F
100
AcDbEntity
  8
0
 62
     0
370
    15
100
AcDbCircle
 10
813.0335240152298
 20
504.5799169561141
 30
0.0
 40
0.4
100
AcDbArc
 50
90.00000010859768
 51
180.0000001086498
  0
ARC
  5
B23
330
1F
100
AcDbEntity
  8
0
 62
     0
370
    15
100
AcDbCircle
 10
823.4335240099598
 20
504.5799169659731
 30
0.0
 40
0.4
100
AcDbArc
 50
0.0
 51
90.0
  0
ARC
  5
B24
330
1F
100
AcDbEntity
  8
0
 62
     0
370
    15
100
AcDbCircle
 10
823.4335240099598
 20
502.1799169659716
 30
0.0
 40
0.4
100
AcDbArc
 50
270.0
 51
0.0
  0
LINE
  5
B25
330
1F
100
AcDbEntity
  8
0
 62
     0
370
    15
100
AcDbLine
 10
822.5808835089001
 20
501.7799169659711
 30
0.0
 11
823.4335240099618
 21
501.7799169659729
 31
0.0
  0
LINE
  5
B26
330
1F
100
AcDbEntity
  8
0
 62
     0
370
    15
100
AcDbLine
 10
823.8335240099614
 20
504.579916965974
 30
0.0
 11
823.8335240099614
 21
502.1799169659725
 31
0.0
  0
ARC
  5
B27
330
1F
100
AcDbEntity
  8
0
 62
     0
370
    15
100
AcDbCircle
 10
818.2335284161208
 20
500.5799108026312
 30
0.0
 40
1.199999999999999
100
AcDbArc
 50
237.0000000001073
 51
303.0000000000173
  0
LINE
  5
B28
330
1F
100
AcDbEntity
  8
0
 62
     0
370
    15
100
AcDbLine
 10
818.8870952612532
 20
499.5735061231198
 30
0.0
 11
822.0362444738885
 21
501.618587533917
 31
0.0
  0
ARC
  5
B29
330
1F
100
AcDbEntity
  8
0
 62
     0
370
    15
100
AcDbCircle
 10
822.5808835089036
 20
500.7799169659701
 30
0.0
 40
1.0
100
AcDbArc
 50
90.00000000020843
 51
122.9999999998927
  0
ARC
  5
B2A
330
1F
100
AcDbEntity
  8
0
 62
     0
370
    15
100
AcDbCircle
 10
813.886173323338
 20
500.7799169659701
 30
0.0
 40
1.0
100
AcDbArc
 50
57.00000000010732
 51
89.99999999979156
  0
LINE
  5
B2B
330
1F
100
AcDbEntity
  8
0
 62
     0
370
    15
100
AcDbLine
 10
813.8861733233415
 20
501.7799169659711
 30
0.0
 11
813.0335328222818
 21
501.7799169659729
 31
0.0
  0
LINE
  5
B2C
330
1F
100
AcDbEntity
  8
0
 62
     0
370
    15
100
AcDbLine
 10
817.5799615709884
 20
499.5735061231198
 30
0.0
 11
814.4308123583533
 21
501.618587533917
 31
0.0
  0
LINE
  5
B2D
330
1F
100
AcDbEntity
  8
0
 62
     0
370
    15
100
AcDbLine
 10
817.5799531923557
 20
507.1863140435134
 30
0.0
 11
814.4308084813483
 21
505.1412257008332
 31
0.0
  0
LINE
  5
B2E
330
1F
100
AcDbEntity
  8
0
 62
     0
370
    15
100
AcDbLine
 10
813.8861698014562
 20
504.979895069925
 30
0.0
 11
813.0335293003982
 21
504.9798931930954
 31
0.0
  0
ARC
  5
B2F
330
1F
100
AcDbEntity
  8
0
 62
     0
370
    15
100
AcDbCircle
 10
813.8861676002571
 20
505.9798950699205
 30
0.0
 40
1.0
100
AcDbArc
 50
270.0001261193138
 51
303.000126119065
  0
ARC
  5
B30
330
1F
100
AcDbEntity
  8
0
 62
     0
370
    15
100
AcDbCircle
 10
818.2335222527772
 20
506.1799108026298
 30
0.0
 40
1.199999999999999
100
AcDbArc
 50
57.00012611909873
 51
123.000126119065
  0
LINE
  5
B31
330
1F
100
AcDbEntity
  8
0
 62
     0
370
    15
100
AcDbLine
 10
818.8870868826169
 20
507.186316920769
 30
0.0
 11
822.0362405968653
 21
505.1412424418622
 31
0.0
  0
ARC
  5
B32
330
1F
100
AcDbEntity
  8
0
 62
     0
370
    15
100
AcDbCircle
 10
822.5808777858029
 20
505.9799142086631
 30
0.0
 40
1.0
100
AcDbArc
 50
237.0001261192234
 51
270.0001261188969
  0
LINE
  5
B33
330
1F
100
AcDbEntity
  8
0
 62
     0
370
    15
100
AcDbLine
 10
822.5808799869929
 20
504.9799142086676
 30
0.0
 11
823.4335204880508
 21
504.9799160854917
 31
0.0
  0
ARC
  5
B34
330
1F
100
AcDbEntity
  8
0
 62
     0
370
    15
100
AcDbCircle
 10
933.0335240190224
 20
502.1799169561127
 30
0.0
 40
0.4
100
AcDbArc
 50
180.0000001086498
 51
270.0000001085976
  0
LINE
  5
B35
330
1F
100
AcDbEntity
  8
0
 62
     0
370
    15
100
AcDbLine
 10
932.6335240152301
 20
504.5799169553565
 30
0.0
 11
932.6335240197813
 21
502.179892323219
 31
0.0
  0
ARC
  5
B36
330
1F
100
AcDbEntity
  8
0
 62
     0
370
    15
100
AcDbCircle
 10
933.0335240152299
 20
504.5799169561141
 30
0.0
 40
0.4
100
AcDbArc
 50
90.00000010859768
 51
180.0000001086498
  0
ARC
  5
B37
330
1F
100
AcDbEntity
  8
0
 62
     0
370
    15
100
AcDbCircle
 10
943.4335240099599
 20
504.5799169659731
 30
0.0
 40
0.4
100
AcDbArc
 50
0.0
 51
90.0
  0
ARC
  5
B38
330
1F
100
AcDbEntity
  8
0
 62
     0
370
    15
100
AcDbCircle
 10
943.4335240099599
 20
502.1799169659716
 30
0.0
 40
0.4
100
AcDbArc
 50
270.0
 51
0.0
  0
LINE
  5
B39
330
1F
100
AcDbEntity
  8
0
 62
     0
370
    15
100
AcDbLine
 10
942.5808835089
 20
501.7799169659711
 30
0.0
 11
943.4335240099617
 21
501.7799169659729
 31
0.0
  0
LINE
  5
B3A
330
1F
100
AcDbEntity
  8
0
 62
     0
370
    15
100
AcDbLine
 10
943.8335240099613
 20
504.579916965974
 30
0.0
 11
943.8335240099613
 21
502.1799169659725
 31
0.0
  0
ARC
  5
B3B
330
1F
100
AcDbEntity
  8
0
 62
     0
370
    15
100
AcDbCircle
 10
938.2335284161209
 20
500.5799108026312
 30
0.0
 40
1.199999999999999
100
AcDbArc
 50
237.0000000001073
 51
303.0000000000173
  0
LINE
  5
B3C
330
1F
100
AcDbEntity
  8
0
 62
     0
370
    15
100
AcDbLine
 10
938.8870952612533
 20
499.5735061231198
 30
0.0
 11
942.0362444738884
 21
501.618587533917
 31
0.0
  0
ARC
  5
B3D
330
1F
100
AcDbEntity
  8
0
 62
     0
370
    15
100
AcDbCircle
 10
942.5808835089037
 20
500.7799169659701
 30
0.0
 40
1.0
100
AcDbArc
 50
90.00000000020843
 51
122.9999999998927
  0
ARC
  5
B3E
330
1F
100
AcDbEntity
  8
0
 62
     0
370
    15
100
AcDbCircle
 10
933.8861733233379
 20
500.7799169659701
 30
0.0
 40
1.0
100
AcDbArc
 50
57.00000000010732
 51
89.99999999979156
  0
LINE
  5
B3F
330
1F
100
AcDbEntity
  8
0
 62
     0
370
    15
100
AcDbLine
 10
933.8861733233416
 20
501.7799169659711
 30
0.0
 11
933.0335328222817
 21
501.7799169659729
 31
0.0
  0
LINE
  5
B40
330
1F
100
AcDbEntity
  8
0
 62
     0
370
    15
100
AcDbLine
 10
937.5799615709883
 20
499.5735061231198
 30
0.0
 11
934.4308123583532
 21
501.618587533917
 31
0.0
  0
LINE
  5
B41
330
1F
100
AcDbEntity
  8
0
 62
     0
370
    15
100
AcDbLine
 10
937.5799531923558
 20
507.1863140435134
 30
0.0
 11
934.4308084813484
 21
505.1412257008332
 31
0.0
  0
LINE
  5
B42
330
1F
100
AcDbEntity
  8
0
 62
     0
370
    15
100
AcDbLine
 10
933.8861698014561
 20
504.979895069925
 30
0.0
 11
933.0335293003981
 21
504.9798931930954
 31
0.0
  0
ARC
  5
B43
330
1F
100
AcDbEntity
  8
0
 62
     0
370
    15
100
AcDbCircle
 10
933.886167600257
 20
505.9798950699205
 30
0.0
 40
1.0
100
AcDbArc
 50
270.0001261193138
 51
303.000126119065
  0
ARC
  5
B44
330
1F
100
AcDbEntity
  8
0
 62
     0
370
    15
100
AcDbCircle
 10
938.2335222527771
 20
506.1799108026298
 30
0.0
 40
1.199999999999999
100
AcDbArc
 50
57.00012611909873
 51
123.000126119065
  0
LINE
  5
B45
330
1F
100
AcDbEntity
  8
0
 62
     0
370
    15
100
AcDbLine
 10
938.887086882617
 20
507.186316920769
 30
0.0
 11
942.0362405968653
 21
505.1412424418622
 31
0.0
  0
ARC
  5
B46
330
1F
100
AcDbEntity
  8
0
 62
     0
370
    15
100
AcDbCircle
 10
942.5808777858028
 20
505.9799142086631
 30
0.0
 40
1.0
100
AcDbArc
 50
237.0001261192234
 51
270.0001261188969
  0
LINE
  5
B47
330
1F
100
AcDbEntity
  8
0
 62
     0
370
    15
100
AcDbLine
 10
942.5808799869928
 20
504.9799142086676
 30
0.0
 11
943.4335204880508
 21
504.9799160854917
 31
0.0
  0
ARC
  5
B48
330
1F
100
AcDbEntity
  8
0
 62
     0
370
    15
100
AcDbCircle
 10
963.0335240190225
 20
502.1799169561127
 30
0.0
 40
0.4
100
AcDbArc
 50
180.0000001086498
 51
270.0000001085976
  0
LINE
  5
B49
330
1F
100
AcDbEntity
  8
0
 62
     0
370
    15
100
AcDbLine
 10
962.6335240152302
 20
504.5799169553565
 30
0.0
 11
962.6335240197814
 21
502.179892323219
 31
0.0
  0
ARC
  5
B4A
330
1F
100
AcDbEntity
  8
0
 62
     0
370
    15
100
AcDbCircle
 10
963.0335240152298
 20
504.5799169561141
 30
0.0
 40
0.4
100
AcDbArc
 50
90.00000010859768
 51
180.0000001086498
  0
ARC
  5
B4B
330
1F
100
AcDbEntity
  8
0
 62
     0
370
    15
100
AcDbCircle
 10
973.4335240099598
 20
504.5799169659731
 30
0.0
 40
0.4
100
AcDbArc
 50
0.0
 51
90.0
  0
ARC
  5
B4C
330
1F
100
AcDbEntity
  8
0
 62
     0
370
    15
100
AcDbCircle
 10
973.4335240099598
 20
502.1799169659716
 30
0.0
 40
0.4
100
AcDbArc
 50
270.0
 51
0.0
  0
LINE
  5
B4D
330
1F
100
AcDbEntity
  8
0
 62
     0
370
    15
100
AcDbLine
 10
972.5808835089001
 20
501.7799169659711
 30
0.0
 11
973.4335240099618
 21
501.7799169659729
 31
0.0
  0
LINE
  5
B4E
330
1F
100
AcDbEntity
  8
0
 62
     0
370
    15
100
AcDbLine
 10
973.8335240099614
 20
504.579916965974
 30
0.0
 11
973.8335240099614
 21
502.1799169659725
 31
0.0
  0
ARC
  5
B4F
330
1F
100
AcDbEntity
  8
0
 62
     0
370
    15
100
AcDbCircle
 10
968.2335284161208
 20
500.5799108026312
 30
0.0
 40
1.199999999999999
100
AcDbArc
 50
237.0000000001073
 51
303.0000000000173
  0
LINE
  5
B50
330
1F
100
AcDbEntity
  8
0
 62
     0
370
    15
100
AcDbLine
 10
968.8870952612532
 20
499.5735061231198
 30
0.0
 11
972.0362444738885
 21
501.618587533917
 31
0.0
  0
ARC
  5
B51
330
1F
100
AcDbEntity
  8
0
 62
     0
370
    15
100
AcDbCircle
 10
972.5808835089038
 20
500.7799169659701
 30
0.0
 40
1.0
100
AcDbArc
 50
90.00000000020843
 51
122.9999999998927
  0
ARC
  5
B52
330
1F
100
AcDbEntity
  8
0
 62
     0
370
    15
100
AcDbCircle
 10
963.886173323338
 20
500.7799169659701
 30
0.0
 40
1.0
100
AcDbArc
 50
57.00000000010732
 51
89.99999999979156
  0
LINE
  5
B53
330
1F
100
AcDbEntity
  8
0
 62
     0
370
    15
100
AcDbLine
 10
963.8861733233415
 20
501.7799169659711
 30
0.0
 11
963.0335328222818
 21
501.7799169659729
 31
0.0
  0
LINE
  5
B54
330
1F
100
AcDbEntity
  8
0
 62
     0
370
    15
100
AcDbLine
 10
967.5799615709884
 20
499.5735061231198
 30
0.0
 11
964.4308123583533
 21
501.618587533917
 31
0.0
  0
LINE
  5
B55
330
1F
100
AcDbEntity
  8
0
 62
     0
370
    15
100
AcDbLine
 10
967.5799531923557
 20
507.1863140435134
 30
0.0
 11
964.4308084813483
 21
505.1412257008332
 31
0.0
  0
LINE
  5
B56
330
1F
100
AcDbEntity
  8
0
 62
     0
370
    15
100
AcDbLine
 10
963.8861698014562
 20
504.979895069925
 30
0.0
 11
963.0335293003982
 21
504.9798931930954
 31
0.0
  0
ARC
  5
B57
330
1F
100
AcDbEntity
  8
0
 62
     0
370
    15
100
AcDbCircle
 10
963.8861676002571
 20
505.9798950699205
 30
0.0
 40
1.0
100
AcDbArc
 50
270.0001261193138
 51
303.000126119065
  0
ARC
  5
B58
330
1F
100
AcDbEntity
  8
0
 62
     0
370
    15
100
AcDbCircle
 10
968.2335222527772
 20
506.1799108026298
 30
0.0
 40
1.199999999999999
100
AcDbArc
 50
57.00012611909873
 51
123.000126119065
  0
LINE
  5
B59
330
1F
100
AcDbEntity
  8
0
 62
     0
370
    15
100
AcDbLine
 10
968.8870868826169
 20
507.186316920769
 30
0.0
 11
972.0362405968653
 21
505.1412424418622
 31
0.0
  0
ARC
  5
B5A
330
1F
100
AcDbEntity
  8
0
 62
     0
370
    15
100
AcDbCircle
 10
972.5808777858029
 20
505.9799142086631
 30
0.0
 40
1.0
100
AcDbArc
 50
237.0001261192234
 51
270.0001261188969
  0
LINE
  5
B5B
330
1F
100
AcDbEntity
  8
0
 62
     0
370
    15
100
AcDbLine
 10
972.5808799869929
 20
504.9799142086676
 30
0.0
 11
973.4335204880508
 21
504.9799160854917
 31
0.0
  0
ARC
  5
B5C
330
1F
100
AcDbEntity
  8
0
 62
     0
370
    15
100
AcDbCircle
 10
903.0335240190224
 20
502.1799169561127
 30
0.0
 40
0.4
100
AcDbArc
 50
180.0000001086498
 51
270.0000001085976
  0
LINE
  5
B5D
330
1F
100
AcDbEntity
  8
0
 62
     0
370
    15
100
AcDbLine
 10
902.6335240152302
 20
504.5799169553565
 30
0.0
 11
902.6335240197813
 21
502.179892323219
 31
0.0
  0
ARC
  5
B5E
330
1F
100
AcDbEntity
  8
0
 62
     0
370
    15
100
AcDbCircle
 10
903.0335240152298
 20
504.5799169561141
 30
0.0
 40
0.4
100
AcDbArc
 50
90.00000010859768
 51
180.0000001086498
  0
ARC
  5
B5F
330
1F
100
AcDbEntity
  8
0
 62
     0
370
    15
100
AcDbCircle
 10
913.4335240099598
 20
504.5799169659731
 30
0.0
 40
0.4
100
AcDbArc
 50
0.0
 51
90.0
  0
ARC
  5
B60
330
1F
100
AcDbEntity
  8
0
 62
     0
370
    15
100
AcDbCircle
 10
913.4335240099598
 20
502.1799169659716
 30
0.0
 40
0.4
100
AcDbArc
 50
270.0
 51
0.0
  0
LINE
  5
B61
330
1F
100
AcDbEntity
  8
0
 62
     0
370
    15
100
AcDbLine
 10
912.5808835089001
 20
501.7799169659711
 30
0.0
 11
913.4335240099616
 21
501.7799169659729
 31
0.0
  0
LINE
  5
B62
330
1F
100
AcDbEntity
  8
0
 62
     0
370
    15
100
AcDbLine
 10
913.8335240099614
 20
504.579916965974
 30
0.0
 11
913.8335240099614
 21
502.1799169659725
 31
0.0
  0
ARC
  5
B63
330
1F
100
AcDbEntity
  8
0
 62
     0
370
    15
100
AcDbCircle
 10
908.2335284161208
 20
500.5799108026312
 30
0.0
 40
1.199999999999999
100
AcDbArc
 50
237.0000000001073
 51
303.0000000000173
  0
LINE
  5
B64
330
1F
100
AcDbEntity
  8
0
 62
     0
370
    15
100
AcDbLine
 10
908.8870952612532
 20
499.5735061231198
 30
0.0
 11
912.0362444738885
 21
501.618587533917
 31
0.0
  0
ARC
  5
B65
330
1F
100
AcDbEntity
  8
0
 62
     0
370
    15
100
AcDbCircle
 10
912.5808835089037
 20
500.7799169659701
 30
0.0
 40
1.0
100
AcDbArc
 50
90.00000000020843
 51
122.9999999998927
  0
ARC
  5
B66
330
1F
100
AcDbEntity
  8
0
 62
     0
370
    15
100
AcDbCircle
 10
903.886173323338
 20
500.7799169659701
 30
0.0
 40
1.0
100
AcDbArc
 50
57.00000000010732
 51
89.99999999979156
  0
LINE
  5
B67
330
1F
100
AcDbEntity
  8
0
 62
     0
370
    15
100
AcDbLine
 10
903.8861733233416
 20
501.7799169659711
 30
0.0
 11
903.0335328222818
 21
501.7799169659729
 31
0.0
  0
LINE
  5
B68
330
1F
100
AcDbEntity
  8
0
 62
     0
370
    15
100
AcDbLine
 10
907.5799615709884
 20
499.5735061231198
 30
0.0
 11
904.4308123583531
 21
501.618587533917
 31
0.0
  0
LINE
  5
B69
330
1F
100
AcDbEntity
  8
0
 62
     0
370
    15
100
AcDbLine
 10
907.5799531923557
 20
507.1863140435134
 30
0.0
 11
904.4308084813483
 21
505.1412257008332
 31
0.0
  0
LINE
  5
B6A
330
1F
100
AcDbEntity
  8
0
 62
     0
370
    15
100
AcDbLine
 10
903.8861698014562
 20
504.979895069925
 30
0.0
 11
903.0335293003982
 21
504.9798931930954
 31
0.0
  0
ARC
  5
B6B
330
1F
100
AcDbEntity
  8
0
 62
     0
370
    15
100
AcDbCircle
 10
903.886167600257
 20
505.9798950699205
 30
0.0
 40
1.0
100
AcDbArc
 50
270.0001261193138
 51
303.000126119065
  0
ARC
  5
B6C
330
1F
100
AcDbEntity
  8
0
 62
     0
370
    15
100
AcDbCircle
 10
908.2335222527772
 20
506.1799108026298
 30
0.0
 40
1.199999999999999
100
AcDbArc
 50
57.00012611909873
 51
123.000126119065
  0
LINE
  5
B6D
330
1F
100
AcDbEntity
  8
0
 62
     0
370
    15
100
AcDbLine
 10
908.887086882617
 20
507.186316920769
 30
0.0
 11
912.0362405968654
 21
505.1412424418622
 31
0.0
  0
ARC
  5
B6E
330
1F
100
AcDbEntity
  8
0
 62
     0
370
    15
100
AcDbCircle
 10
912.5808777858027
 20
505.9799142086631
 30
0.0
 40
1.0
100
AcDbArc
 50
237.0001261192234
 51
270.0001261188969
  0
LINE
  5
B6F
330
1F
100
AcDbEntity
  8
0
 62
     0
370
    15
100
AcDbLine
 10
912.5808799869927
 20
504.9799142086676
 30
0.0
 11
913.4335204880509
 21
504.9799160854917
 31
0.0
  0
ARC
  5
B70
330
1F
100
AcDbEntity
  8
0
 62
     0
370
    15
100
AcDbCircle
 10
873.0335240190225
 20
502.1799169561127
 30
0.0
 40
0.4
100
AcDbArc
 50
180.0000001086498
 51
270.0000001085976
  0
LINE
  5
B71
330
1F
100
AcDbEntity
  8
0
 62
     0
370
    15
100
AcDbLine
 10
872.6335240152302
 20
504.5799169553565
 30
0.0
 11
872.6335240197814
 21
502.179892323219
 31
0.0
  0
ARC
  5
B72
330
1F
100
AcDbEntity
  8
0
 62
     0
370
    15
100
AcDbCircle
 10
873.0335240152298
 20
504.5799169561141
 30
0.0
 40
0.4
100
AcDbArc
 50
90.00000010859768
 51
180.0000001086498
  0
ARC
  5
B73
330
1F
100
AcDbEntity
  8
0
 62
     0
370
    15
100
AcDbCircle
 10
883.43352400996
 20
504.5799169659731
 30
0.0
 40
0.4
100
AcDbArc
 50
0.0
 51
90.0
  0
ARC
  5
B74
330
1F
100
AcDbEntity
  8
0
 62
     0
370
    15
100
AcDbCircle
 10
883.43352400996
 20
502.1799169659716
 30
0.0
 40
0.4
100
AcDbArc
 50
270.0
 51
0.0
  0
LINE
  5
B75
330
1F
100
AcDbEntity
  8
0
 62
     0
370
    15
100
AcDbLine
 10
882.5808835089
 20
501.7799169659711
 30
0.0
 11
883.4335240099617
 21
501.7799169659729
 31
0.0
  0
LINE
  5
B76
330
1F
100
AcDbEntity
  8
0
 62
     0
370
    15
100
AcDbLine
 10
883.8335240099613
 20
504.579916965974
 30
0.0
 11
883.8335240099613
 21
502.1799169659725
 31
0.0
  0
ARC
  5
B77
330
1F
100
AcDbEntity
  8
0
 62
     0
370
    15
100
AcDbCircle
 10
878.2335284161208
 20
500.5799108026312
 30
0.0
 40
1.199999999999999
100
AcDbArc
 50
237.0000000001073
 51
303.0000000000173
  0
LINE
  5
B78
330
1F
100
AcDbEntity
  8
0
 62
     0
370
    15
100
AcDbLine
 10
878.8870952612533
 20
499.5735061231198
 30
0.0
 11
882.0362444738885
 21
501.618587533917
 31
0.0
  0
ARC
  5
B79
330
1F
100
AcDbEntity
  8
0
 62
     0
370
    15
100
AcDbCircle
 10
882.5808835089038
 20
500.7799169659701
 30
0.0
 40
1.0
100
AcDbArc
 50
90.00000000020843
 51
122.9999999998927
  0
ARC
  5
B7A
330
1F
100
AcDbEntity
  8
0
 62
     0
370
    15
100
AcDbCircle
 10
873.8861733233379
 20
500.7799169659701
 30
0.0
 40
1.0
100
AcDbArc
 50
57.00000000010732
 51
89.99999999979156
  0
LINE
  5
B7B
330
1F
100
AcDbEntity
  8
0
 62
     0
370
    15
100
AcDbLine
 10
873.8861733233417
 20
501.7799169659711
 30
0.0
 11
873.0335328222817
 21
501.7799169659729
 31
0.0
  0
LINE
  5
B7C
330
1F
100
AcDbEntity
  8
0
 62
     0
370
    15
100
AcDbLine
 10
877.5799615709884
 20
499.5735061231198
 30
0.0
 11
874.4308123583532
 21
501.618587533917
 31
0.0
  0
LINE
  5
B7D
330
1F
100
AcDbEntity
  8
0
 62
     0
370
    15
100
AcDbLine
 10
877.5799531923558
 20
507.1863140435134
 30
0.0
 11
874.4308084813482
 21
505.1412257008332
 31
0.0
  0
LINE
  5
B7E
330
1F
100
AcDbEntity
  8
0
 62
     0
370
    15
100
AcDbLine
 10
873.8861698014561
 20
504.979895069925
 30
0.0
 11
873.0335293003982
 21
504.9798931930954
 31
0.0
  0
ARC
  5
B7F
330
1F
100
AcDbEntity
  8
0
 62
     0
370
    15
100
AcDbCircle
 10
873.8861676002571
 20
505.9798950699205
 30
0.0
 40
1.0
100
AcDbArc
 50
270.0001261193138
 51
303.000126119065
  0
ARC
  5
B80
330
1F
100
AcDbEntity
  8
0
 62
     0
370
    15
100
AcDbCircle
 10
878.2335222527771
 20
506.1799108026298
 30
0.0
 40
1.199999999999999
100
AcDbArc
 50
57.00012611909873
 51
123.000126119065
  0
LINE
  5
B81
330
1F
100
AcDbEntity
  8
0
 62
     0
370
    15
100
AcDbLine
 10
878.8870868826171
 20
507.186316920769
 30
0.0
 11
882.0362405968653
 21
505.1412424418622
 31
0.0
  0
ARC
  5
B82
330
1F
100
AcDbEntity
  8
0
 62
     0
370
    15
100
AcDbCircle
 10
882.5808777858028
 20
505.9799142086631
 30
0.0
 40
1.0
100
AcDbArc
 50
237.0001261192234
 51
270.0001261188969
  0
LINE
  5
B83
330
1F
100
AcDbEntity
  8
0
 62
     0
370
    15
100
AcDbLine
 10
882.5808799869928
 20
504.9799142086676
 30
0.0
 11
883.4335204880508
 21
504.9799160854917
 31
0.0
  0
LINE
  5
B84
330
1F
100
AcDbEntity
  8
0
 62
     0
370
    15
100
AcDbLine
 10
678.2335240137317
 20
493.3799046392878
 30
0.0
 11
983.2335284161226
 21
493.3799046392878
 31
0.0
  0
LINE
  5
B85
330
1F
100
AcDbEntity
  8
0
 62
     0
370
    15
100
AcDbLine
 10
678.2335240137317
 20
513.3799046392878
 30
0.0
 11
983.2335284161226
 21
513.3799046392878
 31
0.0
  0
LINE
  5
B86
330
1F
100
AcDbEntity
  8
0
 62
     0
370
    15
100
AcDbLine
 10
678.2335240137317
 20
493.3799046392878
 30
0.0
 11
678.2335240137317
 21
513.3799046392878
 31
0.0
  0
LINE
  5
B87
330
1F
100
AcDbEntity
  8
0
 62
     0
 48
6.0
370
     5
100
AcDbLine
 10
678.2335240137317
 20
509.3799046392878
 30
0.0
 11
983.2335284161226
 21
509.3799046392887
 31
0.0
  0
LINE
  5
B88
330
1F
100
AcDbEntity
  8
0
 62
     0
 48
6.0
370
     5
100
AcDbLine
 10
678.2335240137317
 20
508.3799046392877
 30
0.0
 11
983.2335284161226
 21
508.3799046392877
 31
0.0
  0
LINE
  5
B89
330
1F
100
AcDbEntity
  8
0
 62
     0
 48
6.0
370
     5
100
AcDbLine
 10
678.2335240137317
 20
497.3799046392878
 30
0.0
 11
983.2335284161226
 21
497.3799046392878
 31
0.0
  0
LINE
  5
B8A
330
1F
100
AcDbEntity
  8
0
 62
     0
 48
6.0
370
     5
100
AcDbLine
 10
678.2335240137317
 20
498.3799046392878
 30
0.0
 11
983.2335284161226
 21
498.3799046392882
 31
0.0
  0
ARC
  5
B8B
330
1F
100
AcDbEntity
  8
0
 62
     0
370
    15
100
AcDbCircle
 10
1086.944830266246
 20
495.3799169659719
 30
-0.0000000000003295
 40
0.4
100
AcDbArc
 50
180.0
 51
270.0
  0
ARC
  5
B8C
330
1F
100
AcDbEntity
  8
0
 62
     0
370
    15
100
AcDbCircle
 10
1086.944830266246
 20
511.379916965971
 30
-0.0000000000003295
 40
0.4
100
AcDbArc
 50
90.00000000010421
 51
180.0
  0
ARC
  5
B8D
330
1F
100
AcDbEntity
  8
0
 62
     0
370
    15
100
AcDbCircle
 10
1087.344830266252
 20
495.7799169659733
 30
0.0000000000523004
 40
2.399999999999999
100
AcDbArc
 50
180.0
 51
270.0
  0
ARC
  5
B8E
330
1F
100
AcDbEntity
  8
0
 62
     0
370
    15
100
AcDbCircle
 10
1087.344830266248
 20
510.9799169659732
 30
-0.0000000000046115
 40
2.399999999999999
100
AcDbArc
 50
90.0
 51
180.0
  0
LINE
  5
B8F
330
1F
100
AcDbEntity
  8
0
 62
     0
370
    15
100
AcDbLine
 10
1084.94483026625
 20
495.7799169659733
 30
0.0000000000000585
 11
1084.94483026625
 21
510.9799169659732
 31
-0.0000000000000585
  0
LINE
  5
B90
330
1F
100
AcDbEntity
  8
0
 62
     0
370
    15
100
AcDbLine
 10
1090.94483026625
 20
493.3799169659737
 30
-0.0000000000003295
 11
1087.344830266252
 21
493.3799169659737
 31
-0.0000000000003295
210
0.0
220
1.0
230
0.0
  0
LINE
  5
B91
330
1F
100
AcDbEntity
  8
0
 62
     0
370
    15
100
AcDbLine
 10
1090.94483026625
 20
494.9799169659723
 30
-0.0000000000003295
 11
1090.94483026625
 21
493.3799169659737
 31
-0.0000000000003295
210
0.0
220
1.0
230
0.0
  0
LINE
  5
B92
330
1F
100
AcDbEntity
  8
0
 62
     0
370
    15
100
AcDbLine
 10
1086.944830266246
 20
494.9799169659723
 30
-0.0000000000003295
 11
1090.94483026625
 21
494.9799169659723
 31
-0.0000000000003295
210
0.0
220
1.0
230
0.0
  0
LINE
  5
B93
330
1F
100
AcDbEntity
  8
0
 62
     0
370
    15
100
AcDbLine
 10
1090.94483026625
 20
511.7799169659751
 30
-0.0000000000003295
 11
1086.944830266246
 21
511.7799169659715
 31
-0.0000000000003295
210
0.0
220
1.0
230
0.0
  0
LINE
  5
B94
330
1F
100
AcDbEntity
  8
0
 62
     0
370
    15
100
AcDbLine
 10
1090.94483026625
 20
513.3799169659737
 30
-0.0000000000003295
 11
1090.94483026625
 21
511.7799169659751
 31
-0.0000000000003295
210
0.0
220
1.0
230
0.0
  0
LINE
  5
B95
330
1F
100
AcDbEntity
  8
0
 62
     0
370
    15
100
AcDbLine
 10
1087.344830266248
 20
513.3799169659737
 30
-0.0000000000003295
 11
1090.94483026625
 21
513.3799169659737
 31
-0.0000000000003295
210
0.0
220
1.0
230
0.0
  0
LINE
  5
B96
330
1F
100
AcDbEntity
  8
0
 62
     0
370
    15
100
AcDbLine
 10
1086.544830266249
 20
511.379916965971
 30
-0.0000000000003295
 11
1086.544830266249
 21
495.3799169659719
 31
-0.0000000000003295
210
0.0
220
1.0
230
0.0
  0
LINE
  5
B97
330
1F
100
AcDbEntity
  8
0
 62
     0
370
    15
100
AcDbLine
 10
1086.661987553773
 20
495.8343325536985
 30
0.0
 11
1089.076201116147
 21
498.2485461160718
 31
0.0
  0
LINE
  5
B98
330
1F
100
AcDbEntity
  8
0
 62
     0
370
    15
100
AcDbLine
 10
1086.661987553773
 20
510.9255013782435
 30
0.0
 11
1089.076201116147
 21
508.511287815872
 31
0.0
  0
LINE
  5
B99
330
1F
100
AcDbEntity
  8
0
 62
     0
370
    15
100
AcDbLine
 10
1089.076201116147
 20
498.2485461160718
 30
0.0
 11
1089.076201116147
 21
508.511287815872
 31
0.0
  0
ARC
  5
B9A
330
1F
100
AcDbEntity
  8
0
 62
     0
 48
6.0
370
    15
100
AcDbCircle
 10
1086.94483026625
 20
495.5514898412243
 30
0.0
 40
0.4
100
AcDbArc
 50
135.0000000000103
 51
180.0
  0
ARC
  5
B9B
330
1F
100
AcDbEntity
  8
0
 62
     0
370
    15
100
AcDbCircle
 10
1086.94483026625
 20
511.2083440907176
 30
0.0
 40
0.4
100
AcDbArc
 50
180.0
 51
224.9999999999896
  0
LINE
  5
B9C
330
1F
100
AcDbEntity
  8
0
  6
Continuous
370
     0
100
AcDbLine
 10
1028.974019164349
 20
251.7485552829285
 30
-0.0000000000000071
 11
1028.974019164349
 21
402.9485552829287
 31
-0.0000000000000071
  0
LINE
  5
B9D
330
1F
100
AcDbEntity
  8
0
  6
Continuous
370
     0
100
AcDbLine
 10
972.684829810184
 20
251.7485552829285
 30
-0.0000000000000071
 11
972.684829810184
 21
402.9485552829287
 31
-0.0000000000000071
  0
LINE
  5
B9E
330
1F
100
AcDbEntity
  8
0
  6
Continuous
370
     0
100
AcDbLine
 10
880.9273611852631
 20
251.7485552829285
 30
-0.0000000000000071
 11
880.9273611852631
 21
402.9485552829287
 31
-0.0000000000000071
  0
LINE
  5
B9F
330
1F
100
AcDbEntity
  8
0
  6
Continuous
370
     0
100
AcDbLine
 10
828.3466677476909
 20
251.7485552829285
 30
-0.0000000000000071
 11
828.3466677476909
 21
402.9485552829287
 31
-0.0000000000000071
  0
LINE
  5
BA0
330
1F
100
AcDbEntity
  8
0
  6
Continuous
370
     0
100
AcDbLine
 10
1072.016004715576
 20
402.9485552829283
 30
-0.0000000000000071
 11
761.3486821702581
 21
402.9485552829283
 31
-0.0000000000000071
  0
LINE
  5
BA1
330
1F
100
AcDbEntity
  8
0
  6
Continuous
370
     0
100
AcDbLine
 10
761.3486821702581
 20
251.7485552829285
 30
-0.0000000000000071
 11
761.3486821702581
 21
402.9485552829287
 31
-0.0000000000000071
  0
MTEXT
  5
BA2
330
1F
100
AcDbEntity
  8
0
  6
Continuous
370
     0
100
AcDbMText
 10
774.3757226515363
 20
283.3279857432476
 30
-0.0000000000000178
 40
7.0
 41
50.0
 71
     4
 72
     5
  1
{\fArial|b0|i0|c0|p32;LS}-905
  7
ゴシック
 73
     1
 44
1.0
1001
ACAD
1000
MTEXTBEGIN
1070
    73
1070
     1
1070
    44
1040
1.0
1070
    74
1070
     0
1000
MTEXTEND
  0
MTEXT
  5
BA3
330
1F
100
AcDbEntity
  8
0
  6
Continuous
370
     0
100
AcDbMText
 10
774.3757226515363
 20
326.5279857432479
 30
-0.0000000000000178
 40
7.0
 41
50.0
 71
     4
 72
     5
  1
{\fArial|b0|i0|c0|p32;LS}-903
  7
ゴシック
 73
     1
 44
1.0
1001
ACAD
1000
MTEXTBEGIN
1070
    73
1070
     1
1070
    44
1040
1.0
1070
    74
1070
     0
1000
MTEXTEND
  0
MTEXT
  5
BA4
330
1F
100
AcDbEntity
  8
0
  6
Continuous
370
     0
100
AcDbMText
 10
774.3757226515363
 20
304.927985743248
 30
-0.0000000000000178
 40
7.0
 41
50.0
 71
     4
 72
     5
  1
{\fArial|b0|i0|c0|p32;LS}-904
  7
ゴシック
 73
     1
 44
1.0
1001
ACAD
1000
MTEXTBEGIN
1070
    73
1070
     1
1070
    44
1040
1.0
1070
    74
1070
     0
1000
MTEXTEND
  0
MTEXT
  5
BA5
330
1F
100
AcDbEntity
  8
0
  6
Continuous
370
     0
100
AcDbMText
 10
774.3757226515363
 20
348.1279857432478
 30
-0.0000000000000178
 40
7.0
 41
50.0
 71
     4
 72
     5
  1
{\fArial|b0|i0|c0|p32;LS}-902
  7
ゴシック
 73
     1
 44
1.0
1001
ACAD
1000
MTEXTBEGIN
1070
    73
1070
     1
1070
    44
1040
1.0
1070
    74
1070
     0
1000
MTEXTEND
  0
MTEXT
  5
BA6
330
1F
100
AcDbEntity
  8
0
  6
Continuous
370
     0
100
AcDbMText
 10
774.3757226515363
 20
369.7279857432477
 30
-0.0000000000000178
 40
7.0
 41
50.0
 71
     4
 72
     5
  1
{\fArial|b0|i0|c0|p32;LS}-901
  7
ゴシック
 73
     1
 44
1.0
1001
ACAD
1000
MTEXTBEGIN
1070
    73
1070
     1
1070
    44
1040
1.0
1070
    74
1070
     0
1000
MTEXTEND
  0
MTEXT
  5
BA7
330
1F
100
AcDbEntity
  8
0
  6
Continuous
370
     0
100
AcDbMText
 10
1014.708327889434
 20
369.6086133012264
 30
-0.0000000000000178
 40
7.0
 41
50.0
 71
     6
 72
     5
  1
{\fMS Gothic|b0|i0|c128|p48;10ヶ所}
  7
ゴシック
 73
     1
 44
1.0
1001
ACAD
1000
MTEXTBEGIN
1070
    73
1070
     1
1070
    44
1040
1.0
1070
    74
1070
     0
1000
MTEXTEND
  0
MTEXT
  5
BA8
330
1F
100
AcDbEntity
  8
0
  6
Continuous
370
     0
100
AcDbMText
 10
842.4393232894571
 20
239.5301956842427
 30
-0.0000000000000178
 40
7.0
 41
194.6622222222222
 71
     5
 72
     5
  1
\U+203B取付ビスは別途ご用意ください。
  7
ゴシック
 73
     1
 44
1.0
1001
ACAD
1000
MTEXTBEGIN
1070
    73
1070
     1
1070
    44
1040
1.0
1070
    74
1070
     0
1000
MTEXTEND
  0
MTEXT
  5
BA9
330
1F
100
AcDbEntity
  8
0
  6
Continuous
370
     0
100
AcDbMText
 10
925.6269388846476
 20
283.2086133012262
 30
-0.0000000000000213
 40
7.0
 41
50.0
 71
     5
 72
     5
  1
{\fArial|b0|i0|c128|p32;No\fMS Gothic|b0|i0|c128|p48;.4仕上}
  7
ゴシック
 73
     1
 44
1.0
1001
ACAD
1000
MTEXTBEGIN
1070
    73
1070
     1
1070
    44
1040
1.0
1070
    74
1070
     0
1000
MTEXTEND
  0
MTEXT
  5
BAA
330
1F
100
AcDbEntity
  8
0
  6
Continuous
370
     0
100
AcDbMText
 10
925.6269388846476
 20
304.8086133012266
 30
-0.0000000000000213
 40
7.0
 41
50.0
 71
     5
 72
     5
  1
{\fArial|b0|i0|c128|p32;No\fMS Gothic|b0|i0|c128|p48;.4仕上}
  7
ゴシック
 73
     1
 44
1.0
1001
ACAD
1000
MTEXTBEGIN
1070
    73
1070
     1
1070
    44
1040
1.0
1070
    74
1070
     0
1000
MTEXTEND
  0
MTEXT
  5
BAB
330
1F
100
AcDbEntity
  8
0
  6
Continuous
370
     0
100
AcDbMText
 10
925.6269388846476
 20
348.0086133012264
 30
-0.0000000000000213
 40
7.0
 41
50.0
 71
     5
 72
     5
  1
{\fArial|b0|i0|c128|p32;No\fMS Gothic|b0|i0|c128|p48;.4仕上}
  7
ゴシック
 73
     1
 44
1.0
1001
ACAD
1000
MTEXTBEGIN
1070
    73
1070
     1
1070
    44
1040
1.0
1070
    74
1070
     0
1000
MTEXTEND
  0
MTEXT
  5
BAC
330
1F
100
AcDbEntity
  8
0
  6
Continuous
370
     0
100
AcDbMText
 10
925.6269388846476
 20
326.4086133012265
 30
-0.0000000000000213
 40
7.0
 41
50.0
 71
     5
 72
     5
  1
{\fArial|b0|i0|c128|p32;No\fMS Gothic|b0|i0|c128|p48;.4仕上}
  7
ゴシック
 73
     1
 44
1.0
1001
ACAD
1000
MTEXTBEGIN
1070
    73
1070
     1
1070
    44
1040
1.0
1070
    74
1070
     0
1000
MTEXTEND
  0
MTEXT
  5
BAD
330
1F
100
AcDbEntity
  8
0
  6
Continuous
370
     0
100
AcDbMText
 10
853.7026935721542
 20
261.6086133012286
 30
-0.0000000000000178
 40
7.0
 41
50.0
 71
     5
 72
     5
  1
{\fMS Gothic|b0|i0|c128|p48;1820}
  7
ゴシック
 73
     1
 44
1.0
1001
ACAD
1000
MTEXTBEGIN
1070
    73
1070
     1
1070
    44
1040
1.0
1070
    74
1070
     0
1000
MTEXTEND
  0
MTEXT
  5
BAE
330
1F
100
AcDbEntity
  8
0
  6
Continuous
370
     0
100
AcDbMText
 10
1014.708327889434
 20
261.6086133012264
 30
-0.0000000000000178
 40
7.0
 41
50.0
 71
     6
 72
     5
  1
{\fMS Gothic|b0|i0|c128|p48;10ヶ所}
  7
ゴシック
 73
     1
 44
1.0
1001
ACAD
1000
MTEXTBEGIN
1070
    73
1070
     1
1070
    44
1040
1.0
1070
    74
1070
     0
1000
MTEXTEND
  0
MTEXT
  5
BAF
330
1F
100
AcDbEntity
  8
0
  6
Continuous
370
     0
100
AcDbMText
 10
774.3757226515363
 20
261.7279857432477
 30
-0.0000000000000178
 40
7.0
 41
50.0
 71
     4
 72
     5
  1
{\fArial|b0|i0|c0|p32;LS}-901{\fArial|b0|i0|c0|p32;W}
  7
ゴシック
 73
     1
 44
1.0
1001
ACAD
1000
MTEXTBEGIN
1070
    73
1070
     1
1070
    44
1040
1.0
1070
    74
1070
     0
1000
MTEXTEND
  0
LINE
  5
BB0
330
1F
100
AcDbEntity
  8
0
  6
Continuous
370
     0
100
AcDbLine
 10
1072.016004715576
 20
251.748555282928
 30
-0.0000000000000071
 11
761.3486821702581
 21
251.7485552829285
 31
-0.0000000000000071
  0
MTEXT
  5
BB1
330
1F
100
AcDbEntity
  8
0
  6
Continuous
370
     0
100
AcDbMText
 10
925.6269388846476
 20
261.6086133012264
 30
-0.0000000000000213
 40
7.0
 41
81.72888888888889
 71
     5
 72
     5
  1
ﾎﾜｲﾄ焼付塗装
  7
ゴシック
 73
     1
 44
1.0
1001
ACAD
1000
MTEXTBEGIN
1070
    73
1070
     1
1070
    44
1040
1.0
1070
    74
1070
     0
1000
MTEXTEND
  0
LINE
  5
BB2
330
1F
100
AcDbEntity
  8
0
  6
Continuous
370
     0
100
AcDbLine
 10
1072.016004715576
 20
273.3485552829275
 30
-0.0000000000000071
 11
761.3486821702581
 21
273.3485552829284
 31
-0.0000000000000071
  0
MTEXT
  5
BB3
330
1F
100
AcDbEntity
  8
0
  6
Continuous
370
     0
100
AcDbMText
 10
1014.708327889434
 20
283.2086133012262
 30
-0.0000000000000178
 40
7.0
 41
50.0
 71
     6
 72
     5
  1
{\fMS Gothic|b0|i0|c128|p48;13ヶ所}
  7
ゴシック
 73
     1
 44
1.0
1001
ACAD
1000
MTEXTBEGIN
1070
    73
1070
     1
1070
    44
1040
1.0
1070
    74
1070
     0
1000
MTEXTEND
  0
MTEXT
  5
BB4
330
1F
100
AcDbEntity
  8
0
  6
Continuous
370
     0
100
AcDbMText
 10
853.7026935721542
 20
283.2086133012285
 30
-0.0000000000000178
 40
7.0
 41
50.0
 71
     5
 72
     5
  1
2405
  7
ゴシック
 73
     1
 44
1.0
1001
ACAD
1000
MTEXTBEGIN
1070
    73
1070
     1
1070
    44
1040
1.0
1070
    74
1070
     0
1000
MTEXTEND
  0
MTEXT
  5
BB5
330
1F
100
AcDbEntity
  8
0
  6
Continuous
370
     0
100
AcDbMText
 10
853.7026935721542
 20
326.4086133012284
 30
-0.0000000000000178
 40
7.0
 41
50.0
 71
     5
 72
     5
  1
845
  7
ゴシック
 73
     1
 44
1.0
1001
ACAD
1000
MTEXTBEGIN
1070
    73
1070
     1
1070
    44
1040
1.0
1070
    74
1070
     0
1000
MTEXTEND
  0
MTEXT
  5
BB6
330
1F
100
AcDbEntity
  8
0
  6
Continuous
370
     0
100
AcDbMText
 10
1014.708327889434
 20
304.8086133012262
 30
-0.0000000000000178
 40
7.0
 41
50.0
 71
     6
 72
     5
  1
{\fMS Gothic|b0|i0|c128|p48;7ヶ所}
  7
ゴシック
 73
     1
 44
1.0
1001
ACAD
1000
MTEXTBEGIN
1070
    73
1070
     1
1070
    44
1040
1.0
1070
    74
1070
     0
1000
MTEXTEND
  0
LINE
  5
BB7
330
1F
100
AcDbEntity
  8
0
  6
Continuous
370
     0
100
AcDbLine
 10
1072.016004715576
 20
316.5485552829282
 30
-0.0000000000000071
 11
761.3486821702581
 21
316.5485552829287
 31
-0.0000000000000071
  0
LINE
  5
BB8
330
1F
100
AcDbEntity
  8
0
  6
Continuous
370
     0
100
AcDbLine
 10
1072.016004715576
 20
294.9485552829278
 30
-0.0000000000000071
 11
761.3486821702581
 21
294.9485552829287
 31
-0.0000000000000071
  0
MTEXT
  5
BB9
330
1F
100
AcDbEntity
  8
0
  6
Continuous
370
     0
100
AcDbMText
 10
853.7026935721542
 20
304.8086133012284
 30
-0.0000000000000178
 40
7.0
 41
50.0
 71
     5
 72
     5
  1
1235
  7
ゴシック
 73
     1
 44
1.0
1001
ACAD
1000
MTEXTBEGIN
1070
    73
1070
     1
1070
    44
1040
1.0
1070
    74
1070
     0
1000
MTEXTEND
  0
MTEXT
  5
BBA
330
1F
100
AcDbEntity
  8
0
  6
Continuous
370
     0
100
AcDbMText
 10
853.7026935721542
 20
348.0086133012282
 30
-0.0000000000000178
 40
7.0
 41
50.0
 71
     5
 72
     5
  1
650
  7
ゴシック
 73
     1
 44
1.0
1001
ACAD
1000
MTEXTBEGIN
1070
    73
1070
     1
1070
    44
1040
1.0
1070
    74
1070
     0
1000
MTEXTEND
  0
MTEXT
  5
BBB
330
1F
100
AcDbEntity
  8
0
  6
Continuous
370
     0
100
AcDbMText
 10
1014.708327889434
 20
326.4086133012265
 30
-0.0000000000000178
 40
7.0
 41
50.0
 71
     6
 72
     5
  1
{\fMS Gothic|b0|i0|c128|p48;5ヶ所}
  7
ゴシック
 73
     1
 44
1.0
1001
ACAD
1000
MTEXTBEGIN
1070
    73
1070
     1
1070
    44
1040
1.0
1070
    74
1070
     0
1000
MTEXTEND
  0
LINE
  5
BBC
330
1F
100
AcDbEntity
  8
0
  6
Continuous
370
     0
100
AcDbLine
 10
1072.016004715576
 20
338.1485552829277
 30
-0.0000000000000071
 11
761.3486821702581
 21
338.1485552829285
 31
-0.0000000000000071
  0
MTEXT
  5
BBD
330
1F
100
AcDbEntity
  8
0
  6
Continuous
370
     0
100
AcDbMText
 10
925.6269388846476
 20
369.6086133012264
 30
-0.0000000000000213
 40
7.0
 41
50.0
 71
     5
 72
     5
  1
{\fArial|b0|i0|c128|p32;No\fMS Gothic|b0|i0|c128|p48;.4仕上}
  7
ゴシック
 73
     1
 44
1.0
1001
ACAD
1000
MTEXTBEGIN
1070
    73
1070
     1
1070
    44
1040
1.0
1070
    74
1070
     0
1000
MTEXTEND
  0
MTEXT
  5
BBE
330
1F
100
AcDbEntity
  8
0
  6
Continuous
370
     0
100
AcDbMText
 10
921.9187369102774
 20
391.4126047260434
 30
-0.0000000000000213
 40
7.0
 41
71.92888888888889
 71
     5
 72
     5
  1
{\fMS Gothic|b0|i0|c128|p48;仕上 ／ 色}
  7
ゴシック
 73
     1
 44
1.0
1001
ACAD
1000
MTEXTBEGIN
1070
    73
1070
     1
1070
    44
1040
1.0
1070
    74
1070
     0
1000
MTEXTEND
  0
LINE
  5
BBF
330
1F
100
AcDbEntity
  8
0
  6
Continuous
370
     0
100
AcDbLine
 10
1072.016004715576
 20
359.748555282928
 30
-0.0000000000000071
 11
761.3486821702581
 21
359.7485552829285
 31
-0.0000000000000071
  0
MTEXT
  5
BC0
330
1F
100
AcDbEntity
  8
0
  6
Continuous
370
     0
100
AcDbMText
 10
1014.708327889434
 20
348.0086133012264
 30
-0.0000000000000178
 40
7.0
 41
50.0
 71
     6
 72
     5
  1
{\fMS Gothic|b0|i0|c128|p48;4ヶ所}
  7
ゴシック
 73
     1
 44
1.0
1001
ACAD
1000
MTEXTBEGIN
1070
    73
1070
     1
1070
    44
1040
1.0
1070
    74
1070
     0
1000
MTEXTEND
  0
MTEXT
  5
BC1
330
1F
100
AcDbEntity
  8
0
  6
Continuous
370
     0
100
AcDbMText
 10
853.7026935721542
 20
369.6086133012286
 30
-0.0000000000000178
 40
7.0
 41
50.0
 71
     5
 72
     5
  1
1820
  7
ゴシック
 73
     1
 44
1.0
1001
ACAD
1000
MTEXTBEGIN
1070
    73
1070
     1
1070
    44
1040
1.0
1070
    74
1070
     0
1000
MTEXTEND
  0
MTEXT
  5
BC2
330
1F
100
AcDbEntity
  8
0
  6
Continuous
370
     0
100
AcDbMText
 10
853.7026935721542
 20
391.4126047260456
 30
-0.0000000000000178
 40
7.0
 41
50.0
 71
     5
 72
     5
  1
 Ｌ
  7
ゴシック
 73
     1
 44
1.0
1001
ACAD
1000
MTEXTBEGIN
1070
    73
1070
     1
1070
    44
1040
1.0
1070
    74
1070
     0
1000
MTEXTEND
  0
MTEXT
  5
BC3
330
1F
100
AcDbEntity
  8
0
  6
Continuous
370
     0
100
AcDbMText
 10
998.5000980118774
 20
391.4126047260434
 30
-0.0000000000000178
 40
7.0
 41
50.0
 71
     5
 72
     5
  1
{\fMS Gothic|b0|i0|c128|p48;ビス止め数}
  7
ゴシック
 73
     1
 44
1.0
1001
ACAD
1000
MTEXTBEGIN
1070
    73
1070
     1
1070
    44
1040
1.0
1070
    74
1070
     0
1000
MTEXTEND
  0
MTEXT
  5
BC4
330
1F
100
AcDbEntity
  8
0
  6
Continuous
370
     0
100
AcDbMText
 10
794.3547078992678
 20
391.3198430709272
 30
0.0
 40
7.0
 41
50.0
 71
     5
 72
     5
  1
{\fMS Gothic|b0|i0|c128|p48;品　番}
  7
ゴシック
 73
     1
 44
1.0
1001
ACAD
1000
MTEXTBEGIN
1070
    73
1070
     1
1070
    44
1040
1.0
1070
    74
1070
     0
1000
MTEXTEND
  0
LINE
  5
BC5
330
1F
100
AcDbEntity
  8
0
  6
Continuous
370
     0
100
AcDbLine
 10
1072.016004715576
 20
381.3485552829284
 30
-0.0000000000000071
 11
761.3486821702581
 21
381.3485552829284
 31
-0.0000000000000071
  0
MTEXT
  5
BC6
330
1F
100
AcDbEntity
  8
0
  6
Continuous
370
     0
100
AcDbMText
 10
1064.520954470853
 20
369.6086133012264
 30
-0.0000000000000178
 40
7.0
 41
50.0
 71
     6
 72
     5
  1
{\fMS Gothic|b0|i0|c128|p48;159ｇ}
  7
ゴシック
 73
     1
 44
1.0
1001
ACAD
1000
MTEXTBEGIN
1070
    73
1070
     1
1070
    44
1040
1.0
1070
    74
1070
     0
1000
MTEXTEND
  0
LINE
  5
BC7
330
1F
100
AcDbEntity
  8
0
  6
Continuous
370
     0
100
AcDbLine
 10
1028.974019164349
 20
251.7485552829285
 30
-0.0000000000000071
 11
1028.974019164349
 21
402.9485552829287
 31
-0.0000000000000071
  0
LINE
  5
BC8
330
1F
100
AcDbEntity
  8
0
  6
Continuous
370
     0
100
AcDbLine
 10
1072.016004715576
 20
251.7485552829285
 30
-0.0000000000000071
 11
1072.016004715576
 21
402.9485552829287
 31
-0.0000000000000071
  0
MTEXT
  5
BC9
330
1F
100
AcDbEntity
  8
0
  6
Continuous
370
     0
100
AcDbMText
 10
1049.26961911482
 20
391.4126047260434
 30
-0.0000000000000178
 40
7.0
 41
50.0
 71
     5
 72
     5
  1
{\fMS Gothic|b0|i0|c128|p48;質量}
  7
ゴシック
 73
     1
 44
1.0
1001
ACAD
1000
MTEXTBEGIN
1070
    73
1070
     1
1070
    44
1040
1.0
1070
    74
1070
     0
1000
MTEXTEND
  0
MTEXT
  5
BCA
330
1F
100
AcDbEntity
  8
0
  6
Continuous
370
     0
100
AcDbMText
 10
1064.520954470853
 20
348.008613301226
 30
-0.0000000000000178
 40
7.0
 41
50.0
 71
     6
 72
     5
  1
{\fMS Gothic|b0|i0|c128|p48;57ｇ}
  7
ゴシック
 73
     1
 44
1.0
1001
ACAD
1000
MTEXTBEGIN
1070
    73
1070
     1
1070
    44
1040
1.0
1070
    74
1070
     0
1000
MTEXTEND
  0
MTEXT
  5
BCB
330
1F
100
AcDbEntity
  8
0
  6
Continuous
370
     0
100
AcDbMText
 10
1064.520954470853
 20
304.8086133012262
 30
-0.0000000000000178
 40
7.0
 41
50.0
 71
     6
 72
     5
  1
{\fMS Gothic|b0|i0|c128|p48;108ｇ}
  7
ゴシック
 73
     1
 44
1.0
1001
ACAD
1000
MTEXTBEGIN
1070
    73
1070
     1
1070
    44
1040
1.0
1070
    74
1070
     0
1000
MTEXTEND
  0
MTEXT
  5
BCC
330
1F
100
AcDbEntity
  8
0
  6
Continuous
370
     0
100
AcDbMText
 10
1064.520954470853
 20
326.4086133012265
 30
-0.0000000000000178
 40
7.0
 41
50.0
 71
     6
 72
     5
  1
{\fMS Gothic|b0|i0|c128|p48;74ｇ}
  7
ゴシック
 73
     1
 44
1.0
1001
ACAD
1000
MTEXTBEGIN
1070
    73
1070
     1
1070
    44
1040
1.0
1070
    74
1070
     0
1000
MTEXTEND
  0
MTEXT
  5
BCD
330
1F
100
AcDbEntity
  8
0
  6
Continuous
370
     0
100
AcDbMText
 10
1064.520954470853
 20
261.6086133012268
 30
-0.0000000000000178
 40
7.0
 41
50.0
 71
     6
 72
     5
  1
{\fMS Gothic|b0|i0|c128|p48;159ｇ}
  7
ゴシック
 73
     1
 44
1.0
1001
ACAD
1000
MTEXTBEGIN
1070
    73
1070
     1
1070
    44
1040
1.0
1070
    74
1070
     0
1000
MTEXTEND
  0
MTEXT
  5
BCE
330
1F
100
AcDbEntity
  8
0
  6
Continuous
370
     0
100
AcDbMText
 10
1064.520954470853
 20
283.2086133012267
 30
-0.0000000000000178
 40
7.0
 41
50.0
 71
     6
 72
     5
  1
{\fMS Gothic|b0|i0|c128|p48;209ｇ}
  7
ゴシック
 73
     1
 44
1.0
1001
ACAD
1000
MTEXTBEGIN
1070
    73
1070
     1
1070
    44
1040
1.0
1070
    74
1070
     0
1000
MTEXTEND
  0
ENDSEC
  0
SECTION
  2
OBJECTS
  0
DICTIONARY
  5
C
330
0
100
AcDbDictionary
281
     1
  3
ACAD_COLOR
350
6B
  3
ACAD_GROUP
350
D
  3
ACAD_LAYOUT
350
1A
  3
ACAD_MATERIAL
350
6A
  3
ACAD_MLINESTYLE
350
17
  3
ACAD_PLOTSETTINGS
350
19
  3
ACAD_PLOTSTYLENAME
350
E
  3
ACDBHEADERROUNDTRIPXREC
350
BDB
  3
AcDbVariableDictionary
350
5E
  0
DICTIONARY
  5
93
330
2
100
AcDbDictionary
280
     1
281
     1
  3
ACAD_LAYERSTATES
360
94
  0
DICTIONARY
  5
6B
102
{ACAD_REACTORS
330
C
102
}
330
C
100
AcDbDictionary
281
     1
  0
DICTIONARY
  5
D
102
{ACAD_REACTORS
330
C
102
}
330
C
100
AcDbDictionary
281
     1
  0
DICTIONARY
  5
1A
102
{ACAD_REACTORS
330
C
102
}
330
C
100
AcDbDictionary
281
     1
  3
Model
350
22
  3
レイアウト1
350
51
  3
レイアウト2
350
56
  0
DICTIONARY
  5
6A
102
{ACAD_REACTORS
330
C
102
}
330
C
100
AcDbDictionary
281
     1
  0
DICTIONARY
  5
17
102
{ACAD_REACTORS
330
C
102
}
330
C
100
AcDbDictionary
281
     1
  3
Standard
350
18
  0
DICTIONARY
  5
19
102
{ACAD_REACTORS
330
C
102
}
330
C
100
AcDbDictionary
281
     1
  0
ACDBDICTIONARYWDFLT
  5
E
102
{ACAD_REACTORS
330
C
102
}
330
C
100
AcDbDictionary
281
     1
  3
Normal
350
F
100
AcDbDictionaryWithDefault
340
F
  0
DICTIONARY
  5
BDB
102
{ACAD_REACTORS
330
C
102
}
330
C
100
AcDbDictionary
281
     1
  3
COLORDICT
350
BDD
  3
MATERIALDICT
350
BDC
  0
DICTIONARY
  5
5E
102
{ACAD_REACTORS
330
C
102
}
330
C
100
AcDbDictionary
281
     1
  3
DIMASSOC
350
5F
  3
HIDETEXT
350
63
  3
PROJECTNAME
350
BD9
  0
DICTIONARY
  5
94
102
{ACAD_REACTORS
330
93
102
}
330
93
100
AcDbDictionary
281
     1
  0
LAYOUT
  5
22
102
{ACAD_XDICTIONARY
360
BDE
102
}
102
{ACAD_REACTORS
330
1A
102
}
330
1A
100
AcDbPlotSettings
  1

  2
none_device
  4
ANSI_A_(8.50_x_11.00_Inches)
  6

 40
6.349999904632568
 41
19.04999923706055
 42
6.350006103515625
 43
19.04998779296875
 44
215.8999938964844
 45
279.3999938964844
 46
0.0
 47
0.0
 48
0.0
 49
0.0
140
0.0
141
0.0
142
1.0
143
78.436453180766
 70
 11952
 72
     0
 73
     1
 74
     0
  7

 75
     0
147
0.0127491741332998
148
0.0
149
0.0
100
AcDbLayout
  1
Model
 70
     1
 71
     0
 10
0.0
 20
0.0
 11
12.0
 21
9.0
 12
0.0
 22
0.0
 32
0.0
 14
0.0
 24
0.0
 34
0.0
 15
0.0
 25
0.0
 35
0.0
146
0.0
 13
0.0
 23
0.0
 33
0.0
 16
1.0
 26
0.0
 36
0.0
 17
0.0
 27
1.0
 37
0.0
 76
     0
330
1F
  0
LAYOUT
  5
51
102
{ACAD_XDICTIONARY
360
BE0
102
}
102
{ACAD_REACTORS
330
1A
102
}
330
1A
100
AcDbPlotSettings
  1

  2
None
  4

  6

 40
0.0
 41
0.0
 42
0.0
 43
0.0
 44
0.0
 45
0.0
 46
0.0
 47
0.0
 48
0.0
 49
0.0
140
0.0
141
0.0
142
1.0
143
1.0
 70
   688
 72
     0
 73
     0
 74
     5
  7

 75
    16
147
1.0
148
0.0
149
0.0
100
AcDbLayout
  1
レイアウト1
 70
     1
 71
     1
 10
0.0
 20
0.0
 11
12.0
 21
9.0
 12
0.0
 22
0.0
 32
0.0
 14
0.0
 24
0.0
 34
0.0
 15
0.0
 25
0.0
 35
0.0
146
0.0
 13
0.0
 23
0.0
 33
0.0
 16
1.0
 26
0.0
 36
0.0
 17
0.0
 27
1.0
 37
0.0
 76
     0
330
50
  0
LAYOUT
  5
56
102
{ACAD_XDICTIONARY
360
BE2
102
}
102
{ACAD_REACTORS
330
1A
102
}
330
1A
100
AcDbPlotSettings
  1

  2
None
  4

  6

 40
0.0
 41
0.0
 42
0.0
 43
0.0
 44
0.0
 45
0.0
 46
0.0
 47
0.0
 48
0.0
 49
0.0
140
0.0
141
0.0
142
1.0
143
1.0
 70
   688
 72
     0
 73
     0
 74
     5
  7

 75
    16
147
1.0
148
0.0
149
0.0
100
AcDbLayout
  1
レイアウト2
 70
     1
 71
     2
 10
0.0
 20
0.0
 11
12.0
 21
9.0
 12
0.0
 22
0.0
 32
0.0
 14
0.0
 24
0.0
 34
0.0
 15
0.0
 25
0.0
 35
0.0
146
0.0
 13
0.0
 23
0.0
 33
0.0
 16
1.0
 26
0.0
 36
0.0
 17
0.0
 27
1.0
 37
0.0
 76
     0
330
55
  0
MLINESTYLE
  5
18
102
{ACAD_REACTORS
330
17
102
}
330
17
100
AcDbMlineStyle
  2
STANDARD
 70
     0
  3

 62
   256
 51
90.0
 52
90.0
 71
     2
 49
0.5
 62
   256
  6
BYLAYER
 49
-0.5
 62
   256
  6
BYLAYER
  0
ACDBPLACEHOLDER
  5
F
102
{ACAD_REACTORS
330
E
102
}
330
E
  0
XRECORD
  5
BDD
102
{ACAD_REACTORS
330
BDB
102
}
330
BDB
100
AcDbXrecord
280
     1
340
6B
  0
XRECORD
  5
BDC
102
{ACAD_REACTORS
330
BDB
102
}
330
BDB
100
AcDbXrecord
280
     1
340
6A
  0
DICTIONARYVAR
  5
5F
102
{ACAD_REACTORS
330
5E
102
}
330
5E
100
DictionaryVariables
280
     0
  1
2
  0
DICTIONARYVAR
  5
63
102
{ACAD_REACTORS
330
5E
102
}
330
5E
100
DictionaryVariables
280
     0
  1
1
  0
DICTIONARYVAR
  5
BD9
102
{ACAD_REACTORS
330
5E
102
}
330
5E
100
DictionaryVariables
280
     0
  1

  0
DICTIONARY
  5
BDE
330
22
100
AcDbDictionary
280
     1
281
     1
  3
ACAD_XREC_ROUNDTRIP
360
BDF
  0
DICTIONARY
  5
BE0
330
51
100
AcDbDictionary
280
     1
281
     1
  3
ACAD_XREC_ROUNDTRIP
360
BE1
  0
DICTIONARY
  5
BE2
330
56
100
AcDbDictionary
280
     1
281
     1
  3
ACAD_XREC_ROUNDTRIP
360
BE3
  0
XRECORD
  5
BDF
102
{ACAD_REACTORS
330
BDE
102
}
330
BDE
100
AcDbXrecord
280
     1
102
SHADEPLOT
 70
     0
102
SHADEPLOTRESLEVEL
 70
     2
102
SHADEPLOTCUSTOMDPI
 70
   300
  0
XRECORD
  5
BE1
102
{ACAD_REACTORS
330
BE0
102
}
330
BE0
100
AcDbXrecord
280
     1
102
SHADEPLOT
 70
     0
102
SHADEPLOTRESLEVEL
 70
     2
102
SHADEPLOTCUSTOMDPI
 70
   300
  0
XRECORD
  5
BE3
102
{ACAD_REACTORS
330
BE2
102
}
330
BE2
100
AcDbXrecord
280
     1
102
SHADEPLOT
 70
     0
102
SHADEPLOTRESLEVEL
 70
     2
102
SHADEPLOTCUSTOMDPI
 70
   300
  0
ENDSEC
  0
EOF
