  0
SECTION
  2
HEADER
  9
$ACADVER
  1
AC1015
  9
$ACADMAINTVER
 70
    20
  9
$DWGCODEPAGE
  3
ANSI_932
  9
$INSBASE
 10
0.0
 20
0.0
 30
0.0
  9
$EXTMIN
 10
753.3288592767539
 20
405.9323284345822
 30
-0.0015258207003583
  9
$EXTMAX
 10
896.8515029978608
 20
506.9248361409697
 30
0.0000000349246037
  9
$LIMMIN
 10
0.0
 20
0.0
  9
$LIMMAX
 10
420.0
 20
297.0
  9
$ORTHOMODE
 70
     0
  9
$REGENMODE
 70
     1
  9
$FILLMODE
 70
     1
  9
$QTEXTMODE
 70
     0
  9
$MIRRTEXT
 70
     0
  9
$LTSCALE
 40
1.0
  9
$ATTMODE
 70
     1
  9
$TEXTSIZE
 40
2.5
  9
$TRACEWID
 40
1.0
  9
$TEXTSTYLE
  7
Standard
  9
$CLAYER
  8
0
  9
$CELTYPE
  6
ByLayer
  9
$CECOLOR
 62
   256
  9
$CELTSCALE
 40
1.0
  9
$DISPSILH
 70
     0
  9
$DIMSCALE
 40
1.0
  9
$DIMASZ
 40
2.5
  9
$DIMEXO
 40
0.625
  9
$DIMDLI
 40
3.75
  9
$DIMRND
 40
0.0
  9
$DIMDLE
 40
0.0
  9
$DIMEXE
 40
1.25
  9
$DIMTP
 40
0.0
  9
$DIMTM
 40
0.0
  9
$DIMTXT
 40
2.5
  9
$DIMCEN
 40
2.5
  9
$DIMTSZ
 40
0.0
  9
$DIMTOL
 70
     0
  9
$DIMLIM
 70
     0
  9
$DIMTIH
 70
     0
  9
$DIMTOH
 70
     0
  9
$DIMSE1
 70
     0
  9
$DIMSE2
 70
     0
  9
$DIMTAD
 70
     1
  9
$DIMZIN
 70
     8
  9
$DIMBLK
  1

  9
$DIMASO
 70
     1
  9
$DIMSHO
 70
     1
  9
$DIMPOST
  1

  9
$DIMAPOST
  1

  9
$DIMALT
 70
     0
  9
$DIMALTD
 70
     3
  9
$DIMALTF
 40
0.03937007874016
  9
$DIMLFAC
 40
1.0
  9
$DIMTOFL
 70
     1
  9
$DIMTVP
 40
0.0
  9
$DIMTIX
 70
     0
  9
$DIMSOXD
 70
     0
  9
$DIMSAH
 70
     0
  9
$DIMBLK1
  1

  9
$DIMBLK2
  1

  9
$DIMSTYLE
  2
ISO-25
  9
$DIMCLRD
 70
     0
  9
$DIMCLRE
 70
     0
  9
$DIMCLRT
 70
     0
  9
$DIMTFAC
 40
1.0
  9
$DIMGAP
 40
0.625
  9
$DIMJUST
 70
     0
  9
$DIMSD1
 70
     0
  9
$DIMSD2
 70
     0
  9
$DIMTOLJ
 70
     0
  9
$DIMTZIN
 70
     8
  9
$DIMALTZ
 70
     0
  9
$DIMALTTZ
 70
     0
  9
$DIMUPT
 70
     0
  9
$DIMDEC
 70
     2
  9
$DIMTDEC
 70
     2
  9
$DIMALTU
 70
     2
  9
$DIMALTTD
 70
     3
  9
$DIMTXSTY
  7
Standard
  9
$DIMAUNIT
 70
     0
  9
$DIMADEC
 70
     0
  9
$DIMALTRND
 40
0.0
  9
$DIMAZIN
 70
     0
  9
$DIMDSEP
 70
    44
  9
$DIMATFIT
 70
     3
  9
$DIMFRAC
 70
     0
  9
$DIMLDRBLK
  1

  9
$DIMLUNIT
 70
     2
  9
$DIMLWD
 70
    -2
  9
$DIMLWE
 70
    -2
  9
$DIMTMOVE
 70
     0
  9
$LUNITS
 70
     2
  9
$LUPREC
 70
     4
  9
$SKETCHINC
 40
1.0
  9
$FILLETRAD
 40
0.0
  9
$AUNITS
 70
     0
  9
$AUPREC
 70
     0
  9
$MENU
  1
.
  9
$ELEVATION
 40
0.0
  9
$PELEVATION
 40
0.0
  9
$THICKNESS
 40
0.0
  9
$LIMCHECK
 70
     0
  9
$CHAMFERA
 40
0.0
  9
$CHAMFERB
 40
0.0
  9
$CHAMFERC
 40
0.0
  9
$CHAMFERD
 40
0.0
  9
$SKPOLY
 70
     0
  9
$TDCREATE
 40
2455499.599790937
  9
$TDUCREATE
 40
2455499.224790937
  9
$TDUPDATE
 40
2455499.600781250
  9
$TDUUPDATE
 40
2455499.225781250
  9
$TDINDWG
 40
0.0009904861
  9
$TDUSRTIMER
 40
0.0009904861
  9
$USRTIMER
 70
     1
  9
$ANGBASE
 50
0.0
  9
$ANGDIR
 70
     0
  9
$PDMODE
 70
     0
  9
$PDSIZE
 40
0.0
  9
$PLINEWID
 40
0.0
  9
$SPLFRAME
 70
     0
  9
$SPLINETYPE
 70
     6
  9
$SPLINESEGS
 70
     8
  9
$HANDSEED
  5
3D3
  9
$SURFTAB1
 70
     6
  9
$SURFTAB2
 70
     6
  9
$SURFTYPE
 70
     6
  9
$SURFU
 70
     6
  9
$SURFV
 70
     6
  9
$UCSBASE
  2

  9
$UCSNAME
  2

  9
$UCSORG
 10
0.0
 20
0.0
 30
0.0
  9
$UCSXDIR
 10
1.0
 20
0.0
 30
0.0
  9
$UCSYDIR
 10
0.0
 20
1.0
 30
0.0
  9
$UCSORTHOREF
  2

  9
$UCSORTHOVIEW
 70
     0
  9
$UCSORGTOP
 10
0.0
 20
0.0
 30
0.0
  9
$UCSORGBOTTOM
 10
0.0
 20
0.0
 30
0.0
  9
$UCSORGLEFT
 10
0.0
 20
0.0
 30
0.0
  9
$UCSORGRIGHT
 10
0.0
 20
0.0
 30
0.0
  9
$UCSORGFRONT
 10
0.0
 20
0.0
 30
0.0
  9
$UCSORGBACK
 10
0.0
 20
0.0
 30
0.0
  9
$PUCSBASE
  2

  9
$PUCSNAME
  2

  9
$PUCSORG
 10
0.0
 20
0.0
 30
0.0
  9
$PUCSXDIR
 10
1.0
 20
0.0
 30
0.0
  9
$PUCSYDIR
 10
0.0
 20
1.0
 30
0.0
  9
$PUCSORTHOREF
  2

  9
$PUCSORTHOVIEW
 70
     0
  9
$PUCSORGTOP
 10
0.0
 20
0.0
 30
0.0
  9
$PUCSORGBOTTOM
 10
0.0
 20
0.0
 30
0.0
  9
$PUCSORGLEFT
 10
0.0
 20
0.0
 30
0.0
  9
$PUCSORGRIGHT
 10
0.0
 20
0.0
 30
0.0
  9
$PUCSORGFRONT
 10
0.0
 20
0.0
 30
0.0
  9
$PUCSORGBACK
 10
0.0
 20
0.0
 30
0.0
  9
$USERI1
 70
     0
  9
$USERI2
 70
     0
  9
$USERI3
 70
     0
  9
$USERI4
 70
     0
  9
$USERI5
 70
     0
  9
$USERR1
 40
0.0
  9
$USERR2
 40
0.0
  9
$USERR3
 40
0.0
  9
$USERR4
 40
0.0
  9
$USERR5
 40
0.0
  9
$WORLDVIEW
 70
     1
  9
$SHADEDGE
 70
     3
  9
$SHADEDIF
 70
    70
  9
$TILEMODE
 70
     1
  9
$MAXACTVP
 70
    64
  9
$PINSBASE
 10
0.0
 20
0.0
 30
0.0
  9
$PLIMCHECK
 70
     0
  9
$PEXTMIN
 10
0.0
 20
0.0
 30
0.0
  9
$PEXTMAX
 10
0.0
 20
0.0
 30
0.0
  9
$PLIMMIN
 10
0.0
 20
0.0
  9
$PLIMMAX
 10
12.0
 20
9.0
  9
$UNITMODE
 70
     0
  9
$VISRETAIN
 70
     1
  9
$PLINEGEN
 70
     0
  9
$PSLTSCALE
 70
     1
  9
$TREEDEPTH
 70
  3020
  9
$CMLSTYLE
  2
Standard
  9
$CMLJUST
 70
     0
  9
$CMLSCALE
 40
20.0
  9
$PROXYGRAPHICS
 70
     1
  9
$MEASUREMENT
 70
     1
  9
$CELWEIGHT
370
    -1
  9
$ENDCAPS
280
     0
  9
$JOINSTYLE
280
     0
  9
$LWDISPLAY
290
     0
  9
$INSUNITS
 70
     4
  9
$HYPERLINKBASE
  1

  9
$STYLESHEET
  1

  9
$XEDIT
290
     1
  9
$CEPSNTYPE
380
     0
  9
$PSTYLEMODE
290
     1
  9
$FINGERPRINTGUID
  2
{FDEAD578-A652-11D2-9A35-0060089B3A3F}
  9
$VERSIONGUID
  2
{FBB7D932-E34A-43C8-8A39-493201CD50BD}
  9
$EXTNAMES
290
     1
  9
$PSVPSCALE
 40
0.0
  9
$OLESTARTUP
290
     0
  0
ENDSEC
  0
SECTION
  2
CLASSES
  0
CLASS
  1
ACDBDICTIONARYWDFLT
  2
AcDbDictionaryWithDefault
  3
ObjectDBX Classes
 90
        0
280
     0
281
     0
  0
CLASS
  1
ACDBPLACEHOLDER
  2
AcDbPlaceHolder
  3
ObjectDBX Classes
 90
        0
280
     0
281
     0
  0
CLASS
  1
LAYOUT
  2
AcDbLayout
  3
ObjectDBX Classes
 90
        0
280
     0
281
     0
  0
CLASS
  1
DICTIONARYVAR
  2
AcDbDictionaryVar
  3
ObjectDBX Classes
 90
        0
280
     0
281
     0
  0
ENDSEC
  0
SECTION
  2
TABLES
  0
TABLE
  2
VPORT
  5
8
330
0
100
AcDbSymbolTable
 70
     2
  0
VPORT
  5
3C9
330
8
100
AcDbSymbolTableRecord
100
AcDbViewportTableRecord
  2
*Active
 70
     0
 10
0.0
 20
0.0
 11
1.0
 21
1.0
 12
838.9165677447376
 22
458.1933175954885
 13
0.0
 23
0.0
 14
10.0
 24
10.0
 15
10.0
 25
10.0
 16
0.0
 26
0.0
 36
1.0
 17
0.0
 27
0.0
 37
0.0
 40
102.1765053904639
 41
2.013133208255159
 42
50.0
 43
0.0
 44
0.0
 50
0.0
 51
0.0
 71
     0
 72
  1000
 73
     1
 74
     3
 75
     0
 76
     0
 77
     0
 78
     0
281
     0
 65
     1
110
0.0
120
0.0
130
0.0
111
1.0
121
0.0
131
0.0
112
0.0
122
1.0
132
0.0
 79
     0
146
0.0
  0
ENDTAB
  0
TABLE
  2
LTYPE
  5
5
330
0
100
AcDbSymbolTable
 70
     4
  0
LTYPE
  5
14
330
5
100
AcDbSymbolTableRecord
100
AcDbLinetypeTableRecord
  2
ByBlock
 70
     0
  3

 72
    65
 73
     0
 40
0.0
  0
LTYPE
  5
15
330
5
100
AcDbSymbolTableRecord
100
AcDbLinetypeTableRecord
  2
ByLayer
 70
     0
  3

 72
    65
 73
     0
 40
0.0
  0
LTYPE
  5
16
330
5
100
AcDbSymbolTableRecord
100
AcDbLinetypeTableRecord
  2
Continuous
 70
     0
  3
Solid line
 72
    65
 73
     0
 40
0.0
  0
LTYPE
  5
87
330
5
100
AcDbSymbolTableRecord
100
AcDbLinetypeTableRecord
  2
DASHED2
 70
     0
  3
Dashed (.5x) _ _ _ _ _ _ _ _ _ _ _ _ _ _ _ _ _
 72
    65
 73
     2
 40
9.524999999999996
 49
6.349999999999997
 74
     0
 49
-3.174999999999998
 74
     0
  0
LTYPE
  5
88
330
5
100
AcDbSymbolTableRecord
100
AcDbLinetypeTableRecord
  2
BORDER
 70
     0
  3
__ . __ . 
 72
    65
 73
     4
 40
22.0
 49
20.0
 74
     0
 49
-1.0
 74
     0
 49
0.0
 74
     0
 49
-1.0
 74
     0
  0
LTYPE
  5
89
330
5
100
AcDbSymbolTableRecord
100
AcDbLinetypeTableRecord
  2
DOT
 70
     0
  3

 72
    65
 73
     2
 40
1.0
 49
0.0
 74
     0
 49
-1.0
 74
     0
  0
ENDTAB
  0
TABLE
  2
LAYER
  5
2
102
{ACAD_XDICTIONARY
360
90
102
}
330
0
100
AcDbSymbolTable
 70
     2
  0
LAYER
  5
10
330
2
100
AcDbSymbolTableRecord
100
AcDbLayerTableRecord
  2
0
 70
     0
 62
     7
  6
Continuous
370
    -3
390
F
  0
LAYER
  5
8A
330
2
100
AcDbSymbolTableRecord
100
AcDbLayerTableRecord
  2
図枠
 70
     0
 62
     7
  6
Continuous
370
    50
390
F
  0
ENDTAB
  0
TABLE
  2
STYLE
  5
3
330
0
100
AcDbSymbolTable
 70
     2
  0
STYLE
  5
11
330
3
100
AcDbSymbolTableRecord
100
AcDbTextStyleTableRecord
  2
Standard
 70
     0
 40
0.0
 41
1.0
 50
0.0
 71
     0
 42
2.5
  3
txt
  4

  0
STYLE
  5
8B
330
3
100
AcDbSymbolTableRecord
100
AcDbTextStyleTableRecord
  2
ゴシック
 70
     0
 40
0.0
 41
1.0
 50
0.0
 71
     0
 42
1.767676767676765
  3
MS PGothic.ttf
  4

1001
ACAD
1000
MS PGothic
1071
    32818
  0
ENDTAB
  0
TABLE
  2
VIEW
  5
6
330
0
100
AcDbSymbolTable
 70
     0
  0
ENDTAB
  0
TABLE
  2
UCS
  5
7
330
0
100
AcDbSymbolTable
 70
     0
  0
ENDTAB
  0
TABLE
  2
APPID
  5
9
330
0
100
AcDbSymbolTable
 70
     1
  0
APPID
  5
12
330
9
100
AcDbSymbolTableRecord
100
AcDbRegAppTableRecord
  2
ACAD
 70
     0
  0
ENDTAB
  0
TABLE
  2
DIMSTYLE
  5
A
330
0
100
AcDbSymbolTable
 70
     5
100
AcDbDimStyleTable
 71
     0
  0
DIMSTYLE
105
27
330
A
100
AcDbSymbolTableRecord
100
AcDbDimStyleTableRecord
  2
ISO-25
 70
     0
 41
2.5
 42
0.625
 43
3.75
 44
1.25
 73
     0
 74
     0
 77
     1
 78
     8
140
2.5
141
2.5
143
0.03937007874016
147
0.625
171
     3
172
     1
271
     2
272
     2
274
     3
278
    44
283
     0
284
     8
340
11
  0
DIMSTYLE
105
8C
330
A
100
AcDbSymbolTableRecord
100
AcDbDimStyleTableRecord
  2
基本（１：１）
 70
     0
 40
0.0
 41
1.5
 42
1.0
 43
7.0
 44
0.1
 73
     0
 74
     0
 77
     1
 78
     8
140
2.5
141
1.0
143
0.0394
147
0.5
171
     4
172
     1
176
     4
177
     4
178
     4
273
     8
274
     4
340
8B
371
     0
372
     0
  0
DIMSTYLE
105
8D
330
A
100
AcDbSymbolTableRecord
100
AcDbDimStyleTableRecord
  2
基本（１：２）
 70
     0
 40
0.0
 41
2.5
 42
2.5
 43
14.0
 44
2.0
 73
     0
 74
     0
 77
     1
 78
     8
140
5.0
141
2.0
143
0.0394
147
1.0
171
     4
172
     1
176
     4
177
     4
178
     4
271
     1
272
     1
273
     8
274
     4
340
8B
371
     0
372
     0
  0
DIMSTYLE
105
8E
330
A
100
AcDbSymbolTableRecord
100
AcDbDimStyleTableRecord
  2
基本（２：１）
 70
     0
 40
0.0
 41
1.0
 42
0.5
 43
3.5
 44
0.5
 73
     0
 74
     0
 77
     1
 78
     8
140
1.25
141
0.5
143
0.0394
147
0.5
171
     4
172
     1
176
     4
177
     4
178
     4
271
     2
272
     2
273
     8
274
     4
340
8B
371
    13
372
    13
  0
DIMSTYLE
105
8F
330
A
100
AcDbSymbolTableRecord
100
AcDbDimStyleTableRecord
  2
基本（1：8）
 70
     0
 40
0.0
 41
10.0
 42
10.0
 43
28.0
 44
4.0
 73
     0
 74
     0
 77
     1
 78
     8
140
20.0
141
4.0
143
0.0394
147
5.0
171
     4
172
     1
176
     4
177
     4
178
     4
271
     1
272
     1
273
     8
274
     4
340
8B
371
     0
372
     0
  0
ENDTAB
  0
TABLE
  2
BLOCK_RECORD
  5
1
330
0
100
AcDbSymbolTable
 70
     2
  0
BLOCK_RECORD
  5
1F
330
1
100
AcDbSymbolTableRecord
100
AcDbBlockTableRecord
  2
*Model_Space
340
22
  0
BLOCK_RECORD
  5
50
330
1
100
AcDbSymbolTableRecord
100
AcDbBlockTableRecord
  2
*Paper_Space
340
51
  0
BLOCK_RECORD
  5
55
330
1
100
AcDbSymbolTableRecord
100
AcDbBlockTableRecord
  2
*Paper_Space0
340
56
  0
ENDTAB
  0
ENDSEC
  0
SECTION
  2
BLOCKS
  0
BLOCK
  5
20
330
1F
100
AcDbEntity
  8
0
100
AcDbBlockBegin
  2
*Model_Space
 70
     0
 10
0.0
 20
0.0
 30
0.0
  3
*Model_Space
  1

  0
ENDBLK
  5
21
330
1F
100
AcDbEntity
  8
0
100
AcDbBlockEnd
  0
BLOCK
  5
52
330
50
100
AcDbEntity
 67
     1
  8
0
100
AcDbBlockBegin
  2
*Paper_Space
 70
     0
 10
0.0
 20
0.0
 30
0.0
  3
*Paper_Space
  1

  0
ENDBLK
  5
53
330
50
100
AcDbEntity
 67
     1
  8
0
100
AcDbBlockEnd
  0
BLOCK
  5
57
330
55
100
AcDbEntity
  8
0
100
AcDbBlockBegin
  2
*Paper_Space0
 70
     0
 10
0.0
 20
0.0
 30
0.0
  3
*Paper_Space0
  1

  0
ENDBLK
  5
58
330
55
100
AcDbEntity
  8
0
100
AcDbBlockEnd
  0
ENDSEC
  0
SECTION
  2
ENTITIES
  0
TEXT
  5
230
330
1F
100
AcDbEntity
  8
0
100
AcDbText
 10
865.2294286304126
 20
502.3715979513247
 30
0.0
 40
0.875
  1
H**.**.**
  7
ゴシック
100
AcDbText
1001
ACAD
1000
MTEXTBEGIN
1070
    73
1070
     1
1070
    44
1040
1.0
1070
    74
1070
     0
1000
MTEXTEND
  0
TEXT
  5
231
330
1F
100
AcDbEntity
  8
0
100
AcDbText
 10
866.1355200009706
 20
504.1593517584312
 30
0.0
 40
0.875
  1
改訂日
  7
ゴシック
100
AcDbText
1001
ACAD
1000
MTEXTBEGIN
1070
    73
1070
     1
1070
    44
1040
1.0
1070
    74
1070
     0
1000
MTEXTEND
  0
TEXT
  5
232
330
1F
100
AcDbEntity
  8
0
100
AcDbText
 10
862.5084895441155
 20
504.1615725706139
 30
0.0
 40
0.875
  1
副番
  7
ゴシック
100
AcDbText
1001
ACAD
1000
MTEXTBEGIN
1070
    73
1070
     1
1070
    44
1040
1.0
1070
    74
1070
     0
1000
MTEXTEND
  0
TEXT
  5
233
330
1F
100
AcDbEntity
  8
0
100
AcDbText
 10
873.0995428436067
 20
502.3715979513247
 30
0.0
 40
0.875
  1
**********************
  7
ゴシック
100
AcDbText
1001
ACAD
1000
MTEXTBEGIN
1070
    73
1070
     1
1070
    44
1040
1.0
1070
    74
1070
     0
1000
MTEXTEND
  0
TEXT
  5
234
330
1F
100
AcDbEntity
  8
0
100
AcDbText
 10
875.4402788842158
 20
504.1549101340657
 30
0.0
 40
0.875
  1
改　訂　内　容
  7
ゴシック
100
AcDbText
1001
ACAD
1000
MTEXTBEGIN
1070
    73
1070
     1
1070
    44
1040
1.0
1070
    74
1070
     0
1000
MTEXTEND
  0
TEXT
  5
235
330
1F
100
AcDbEntity
  8
0
100
AcDbText
 10
888.8628677167048
 20
502.3715979513247
 30
0.0
 40
0.875
  1
＊＊
  7
ゴシック
100
AcDbText
1001
ACAD
1000
MTEXTBEGIN
1070
    73
1070
     1
1070
    44
1040
1.0
1070
    74
1070
     0
1000
MTEXTEND
  0
TEXT
  5
236
330
1F
100
AcDbEntity
  8
0
100
AcDbText
 10
888.232157056807
 20
504.1549101340657
 30
0.0
 40
0.875
  1
改訂者
  7
ゴシック
100
AcDbText
1001
ACAD
1000
MTEXTBEGIN
1070
    73
1070
     1
1070
    44
1040
1.0
1070
    74
1070
     0
1000
MTEXTEND
  0
TEXT
  5
237
330
1F
100
AcDbEntity
  8
0
100
AcDbText
 10
891.7188321837107
 20
504.1482476975175
 30
0.0
 40
0.875
  1
検認者
  7
ゴシック
100
AcDbText
1001
ACAD
1000
MTEXTBEGIN
1070
    73
1070
     1
1070
    44
1040
1.0
1070
    74
1070
     0
1000
MTEXTEND
  0
TEXT
  5
238
330
1F
100
AcDbEntity
  8
0
100
AcDbText
 10
863.2569212926787
 20
502.2077481719602
 30
0.0
 40
0.9445624886512755
  1
1
100
AcDbText
1001
ACAD
1000
MTEXTBEGIN
1070
    73
1070
     1
1070
    44
1040
1.0
1070
    74
1070
     0
1000
MTEXTEND
  0
TEXT
  5
239
330
1F
100
AcDbEntity
  8
0
100
AcDbText
 10
846.0493816544708
 20
408.4552273929491
 30
0.0
 40
1.924999999999999
  1
株式会社
  7
ゴシック
100
AcDbText
1001
ACAD
1000
MTEXTBEGIN
1070
    73
1070
     1
1070
    44
1040
1.0
1070
    74
1070
     0
1000
MTEXTEND
  0
TEXT
  5
23A
330
1F
100
AcDbEntity
  8
0
100
AcDbText
 10
876.6568397979257
 20
408.0981043259718
 30
0.0
 40
1.224999999999998
  1
ＳＬＳ００４４３
  7
ゴシック
100
AcDbText
1001
ACAD
1000
MTEXTBEGIN
1070
    73
1070
     1
1070
    44
1040
1.0
1070
    74
1070
     0
1000
MTEXTEND
  0
TEXT
  5
23B
330
1F
100
AcDbEntity
  8
0
100
AcDbText
 10
874.3716240618846
 20
411.9512134630276
 30
0.0
 40
1.224999999999998
  1
エンドキャップ：承認図
  7
ゴシック
100
AcDbText
1001
ACAD
1000
MTEXTBEGIN
1070
    73
1070
     1
1070
    44
1040
1.0
1070
    74
1070
     0
1000
MTEXTEND
  0
TEXT
  5
23C
330
1F
100
AcDbEntity
  8
0
100
AcDbText
 10
878.2114083258434
 20
415.8385231076977
 30
0.0
 40
1.224999999999998
  1
フィット棚柱
  7
ゴシック
100
AcDbText
1001
ACAD
1000
MTEXTBEGIN
1070
    73
1070
     1
1070
    44
1040
1.0
1070
    74
1070
     0
1000
MTEXTEND
  0
TEXT
  5
23D
330
1F
100
AcDbEntity
  8
0
100
AcDbText
 10
871.0973746363592
 20
409.9716204636029
 30
0.0
 40
1.049999999999997
  1
図 番
  7
ゴシック
100
AcDbText
1001
ACAD
1000
MTEXTBEGIN
1070
    73
1070
     1
1070
    44
1040
1.0
1070
    74
1070
     0
1000
MTEXTEND
  0
TEXT
  5
23E
330
1F
100
AcDbEntity
  8
0
100
AcDbText
 10
870.761587834329
 20
413.8056306158872
 30
0.0
 40
1.049999999999997
  1
図面名
  7
ゴシック
100
AcDbText
1001
ACAD
1000
MTEXTBEGIN
1070
    73
1070
     1
1070
    44
1040
1.0
1070
    74
1070
     0
1000
MTEXTEND
  0
TEXT
  5
23F
330
1F
100
AcDbEntity
  8
0
100
AcDbText
 10
870.7322731135167
 20
417.6742854382222
 30
0.0
 40
1.049999999999997
  1
製品名
  7
ゴシック
100
AcDbText
1001
ACAD
1000
MTEXTBEGIN
1070
    73
1070
     1
1070
    44
1040
1.0
1070
    74
1070
     0
1000
MTEXTEND
  0
TEXT
  5
240
330
1F
100
AcDbEntity
  8
0
100
AcDbText
 10
864.3246493536112
 20
411.7642375452334
 30
0.0
 40
1.049999999999997
  1
園原
  7
ゴシック
100
AcDbText
1001
ACAD
1000
MTEXTBEGIN
1070
    73
1070
     1
1070
    44
1040
1.0
1070
    74
1070
     0
1000
MTEXTEND
  0
TEXT
  5
241
330
1F
100
AcDbEntity
  8
0
100
AcDbText
 10
864.3246493536112
 20
413.6892375452334
 30
0.0
 40
1.049999999999997
  1
園原
  7
ゴシック
100
AcDbText
1001
ACAD
1000
MTEXTBEGIN
1070
    73
1070
     1
1070
    44
1040
1.0
1070
    74
1070
     0
1000
MTEXTEND
  0
TEXT
  5
242
330
1F
100
AcDbEntity
  8
0
100
AcDbText
 10
858.3034103594068
 20
411.7535776467562
 30
0.0
 40
1.049999999999997
  1
検図
  7
ゴシック
100
AcDbText
1001
ACAD
1000
MTEXTBEGIN
1070
    73
1070
     1
1070
    44
1040
1.0
1070
    74
1070
     0
1000
MTEXTEND
  0
TEXT
  5
243
330
1F
100
AcDbEntity
  8
0
100
AcDbText
 10
858.1968113746366
 20
413.6785776467562
 30
0.0
 40
1.049999999999997
  1
照査
  7
ゴシック
100
AcDbText
1001
ACAD
1000
MTEXTBEGIN
1070
    73
1070
     1
1070
    44
1040
1.0
1070
    74
1070
     0
1000
MTEXTEND
  0
TEXT
  5
244
330
1F
100
AcDbEntity
  8
0
100
AcDbText
 10
851.8445732114791
 20
411.7509126721369
 30
0.0
 40
1.049999999999997
  1
峰
  7
ゴシック
100
AcDbText
1001
ACAD
1000
MTEXTBEGIN
1070
    73
1070
     1
1070
    44
1040
1.0
1070
    74
1070
     0
1000
MTEXTEND
  0
TEXT
  5
245
330
1F
100
AcDbEntity
  8
0
100
AcDbText
 10
851.8445732114791
 20
413.6759126721369
 30
0.0
 40
1.049999999999997
  1
峰
  7
ゴシック
100
AcDbText
1001
ACAD
1000
MTEXTBEGIN
1070
    73
1070
     1
1070
    44
1040
1.0
1070
    74
1070
     0
1000
MTEXTEND
  0
TEXT
  5
246
330
1F
100
AcDbEntity
  8
0
100
AcDbText
 10
845.1890702578852
 20
411.7722324690912
 30
0.0
 40
1.049999999999997
  1
製図
  7
ゴシック
100
AcDbText
1001
ACAD
1000
MTEXTBEGIN
1070
    73
1070
     1
1070
    44
1040
1.0
1070
    74
1070
     0
1000
MTEXTEND
  0
TEXT
  5
247
330
1F
100
AcDbEntity
  8
0
100
AcDbText
 10
845.0638164507777
 20
413.686572570614
 30
0.0
 40
1.049999999999997
  1
設計
  7
ゴシック
100
AcDbText
1001
ACAD
1000
MTEXTBEGIN
1070
    73
1070
     1
1070
    44
1040
1.0
1070
    74
1070
     0
1000
MTEXTEND
  0
TEXT
  5
248
330
1F
100
AcDbEntity
  8
0
100
AcDbText
 10
845.6636291380251
 20
415.5715979513247
 30
0.0
 40
1.049999999999997
  1
H22.09.22
  7
ゴシック
100
AcDbText
1001
ACAD
1000
MTEXTBEGIN
1070
    73
1070
     1
1070
    44
1040
1.0
1070
    74
1070
     0
1000
MTEXTEND
  0
TEXT
  5
249
330
1F
100
AcDbEntity
  8
0
100
AcDbText
 10
854.8107103562992
 20
417.5339075959947
 30
0.0
 40
1.049999999999997
  1
尺　　度
  7
ゴシック
100
AcDbText
1001
ACAD
1000
MTEXTBEGIN
1070
    73
1070
     1
1070
    44
1040
1.0
1070
    74
1070
     0
1000
MTEXTEND
  0
TEXT
  5
24A
330
1F
100
AcDbEntity
  8
0
100
AcDbText
 10
846.1726392903088
 20
417.536572570614
 30
0.0
 40
1.049999999999997
  1
日　　付
  7
ゴシック
100
AcDbText
1001
ACAD
1000
MTEXTBEGIN
1070
    73
1070
     1
1070
    44
1040
1.0
1070
    74
1070
     0
1000
MTEXTEND
  0
TEXT
  5
24B
330
1F
100
AcDbEntity
  8
0
100
AcDbText
 10
846.2275009220897
 20
419.6361200702384
 30
0.0
 40
1.049999999999997
  1
材　　質
  7
ゴシック
100
AcDbText
1001
ACAD
1000
MTEXTBEGIN
1070
    73
1070
     1
1070
    44
1040
1.0
1070
    74
1070
     0
1000
MTEXTEND
  0
TEXT
  5
24C
330
1F
100
AcDbEntity
  8
0
100
AcDbText
 10
872.4340394796122
 20
419.6467799687156
 30
0.0
 40
1.049999999999997
  1
表面処理
  7
ゴシック
100
AcDbText
1001
ACAD
1000
MTEXTBEGIN
1070
    73
1070
     1
1070
    44
1040
1.0
1070
    74
1070
     0
1000
MTEXTEND
  0
TEXT
  5
24D
330
1F
100
AcDbEntity
  8
0
100
AcDbText
 10
854.7343277238665
 20
419.6087132289833
 30
0.0
 40
1.049999999999997
  1
エラストマー
  7
ゴシック
100
AcDbText
1001
ACAD
1000
MTEXTBEGIN
1070
    73
1070
     1
1070
    44
1040
1.0
1070
    74
1070
     0
1000
MTEXTEND
  0
TEXT
  5
24E
330
1F
100
AcDbEntity
  8
0
100
AcDbText
 10
880.9693244074528
 20
419.5908155017106
 30
0.0
 40
1.049999999999997
  1
シボ加工
  7
ゴシック
100
AcDbText
1001
ACAD
1000
MTEXTBEGIN
1070
    73
1070
     1
1070
    44
1040
1.0
1070
    74
1070
     0
1000
MTEXTEND
  0
MTEXT
  5
24F
330
1F
100
AcDbEntity
  8
0
 62
     4
100
AcDbMText
 10
851.9536753721236
 20
477.7104710950596
 30
0.0
 40
1.25
 41
0.0
 71
     5
 72
     1
  1
\A1;12
  7
ゴシック
 73
     1
 44
1.0
1001
ACAD
1000
MTEXTBEGIN
1070
    73
1070
     1
1070
    44
1040
1.0
1070
    74
1070
     0
1000
MTEXTEND
  0
SOLID
  5
250
330
1F
100
AcDbEntity
  8
0
 62
     4
100
AcDbTrace
 10
856.9536753721218
 20
476.7521377617264
 30
0.0
 11
856.9536753721218
 21
476.4188044283929
 31
0.0
 12
857.9536753721217
 22
476.5854710950597
 32
0.0
 13
857.9536753721217
 23
476.5854710950597
 33
0.0
  0
SOLID
  5
251
330
1F
100
AcDbEntity
  8
0
 62
     4
100
AcDbTrace
 10
846.9536753721254
 20
476.7521377617264
 30
0.0
 11
846.9536753721254
 21
476.4188044283929
 31
0.0
 12
845.9536753721236
 22
476.5854710950597
 32
0.0
 13
845.9536753721236
 23
476.5854710950597
 33
0.0
  0
LINE
  5
252
330
1F
100
AcDbEntity
  8
0
 62
     4
370
    13
100
AcDbLine
 10
846.9536753721254
 20
476.5854710950597
 30
0.0
 11
856.9536753721218
 21
476.5854710950597
 31
0.0
  0
LINE
  5
253
330
1F
100
AcDbEntity
  8
0
 62
     4
370
    13
100
AcDbLine
 10
857.9536753721217
 20
471.3161995751299
 30
0.0
 11
857.9536753721217
 21
477.0854710950596
 31
0.0
  0
LINE
  5
254
330
1F
100
AcDbEntity
  8
0
 62
     4
370
    13
100
AcDbLine
 10
845.9536753721236
 20
471.3161995751301
 30
0.0
 11
845.9536753721236
 21
477.0854710950596
 31
0.0
  0
MTEXT
  5
255
330
1F
100
AcDbEntity
  8
0
 62
     4
100
AcDbMText
 10
839.0100979939484
 20
468.8161995751322
 30
0.0
 40
1.25
 41
0.0
 71
     5
 72
     1
  1
\A1;6
  7
ゴシック
 11
0.0000000000000001
 21
1.0
 31
0.0
 73
     1
 44
1.0
1001
ACAD
1000
MTEXTBEGIN
1070
    73
1070
     1
1070
    44
1040
1.0
1070
    74
1070
     0
1000
MTEXTEND
  0
SOLID
  5
256
330
1F
100
AcDbEntity
  8
0
 62
     4
100
AcDbTrace
 10
839.9684313272805
 20
470.8161995751301
 30
0.0
 11
840.3017646606144
 21
470.8161995751301
 31
0.0
 12
840.1350979939465
 22
471.81619957513
 32
0.0
 13
840.1350979939465
 23
471.81619957513
 33
0.0
  0
SOLID
  5
257
330
1F
100
AcDbEntity
  8
0
 62
     4
100
AcDbTrace
 10
839.9684313272805
 20
466.8161995751317
 30
0.0
 11
840.3017646606144
 21
466.8161995751317
 31
0.0
 12
840.1350979939465
 22
465.8161995751318
 32
0.0
 13
840.1350979939465
 23
465.8161995751318
 33
0.0
  0
LINE
  5
258
330
1F
100
AcDbEntity
  8
0
 62
     4
370
    13
100
AcDbLine
 10
840.1350979939465
 20
466.8161995751317
 30
0.0
 11
840.1350979939465
 21
470.8161995751301
 31
0.0
  0
LINE
  5
259
330
1F
100
AcDbEntity
  8
0
 62
     4
370
    13
100
AcDbLine
 10
846.4536753721235
 20
471.81619957513
 30
0.0
 11
839.6350979939466
 21
471.81619957513
 31
0.0
  0
LINE
  5
25A
330
1F
100
AcDbEntity
  8
0
 62
     4
370
    13
100
AcDbLine
 10
845.7536753721228
 20
465.8161995751318
 30
0.0
 11
839.6350979939466
 21
465.8161995751318
 31
0.0
  0
MTEXT
  5
25B
330
1F
100
AcDbEntity
  8
0
 62
     4
100
AcDbMText
 10
839.0100979939484
 20
464.3161995751322
 30
0.0
 40
1.25
 41
0.0
 71
     5
 72
     1
  1
\A1;3
  7
ゴシック
 11
0.0000000000000001
 21
1.0
 31
0.0
 73
     1
 44
1.0
1001
ACAD
1000
MTEXTBEGIN
1070
    73
1070
     1
1070
    44
1040
1.0
1070
    74
1070
     0
1000
MTEXTEND
  0
SOLID
  5
25C
330
1F
100
AcDbEntity
  8
0
 62
     4
100
AcDbTrace
 10
839.9684313272805
 20
463.8161995751299
 30
0.0
 11
840.3017646606144
 21
463.8161995751299
 31
0.0
 12
840.1350979939465
 22
462.8161995751299
 32
0.0
 13
840.1350979939465
 23
462.8161995751299
 33
0.0
  0
SOLID
  5
25D
330
1F
100
AcDbEntity
  8
0
 62
     4
100
AcDbTrace
 10
839.9684313272805
 20
464.8161995751317
 30
0.0
 11
840.3017646606144
 21
464.8161995751317
 31
0.0
 12
840.1350979939465
 22
465.8161995751318
 32
0.0
 13
840.1350979939465
 23
465.8161995751318
 33
0.0
  0
LINE
  5
25E
330
1F
100
AcDbEntity
  8
0
 62
     4
370
    13
100
AcDbLine
 10
840.1350979939465
 20
464.8161995751317
 30
0.0
 11
840.1350979939465
 21
463.8161995751299
 31
0.0
  0
LINE
  5
25F
330
1F
100
AcDbEntity
  8
0
 62
     4
370
    13
100
AcDbLine
 10
848.8318233788664
 20
462.8161995751299
 30
0.0
 11
839.6350979939466
 21
462.8161995751299
 31
0.0
  0
LINE
  5
260
330
1F
100
AcDbEntity
  8
0
 62
     4
370
    13
100
AcDbLine
 10
845.2536753721229
 20
465.8161995751318
 30
0.0
 11
839.6350979939466
 21
465.8161995751318
 31
0.0
  0
MTEXT
  5
261
330
1F
100
AcDbEntity
  8
0
 62
     4
100
AcDbMText
 10
871.6318606672425
 20
477.7104710950588
 30
0.0
 40
1.25
 41
0.0
 71
     5
 72
     1
  1
\A1;4
  7
ゴシック
 73
     1
 44
1.0
1001
ACAD
1000
MTEXTBEGIN
1070
    73
1070
     1
1070
    44
1040
1.0
1070
    74
1070
     0
1000
MTEXTEND
  0
SOLID
  5
262
330
1F
100
AcDbEntity
  8
0
 62
     4
100
AcDbTrace
 10
872.6318606672389
 20
476.7521377617256
 30
0.0
 11
872.6318606672389
 21
476.4188044283921
 31
0.0
 12
873.6318606672407
 22
476.5854710950588
 32
0.0
 13
873.6318606672407
 23
476.5854710950588
 33
0.0
  0
SOLID
  5
263
330
1F
100
AcDbEntity
  8
0
 62
     4
100
AcDbTrace
 10
870.6318606672425
 20
476.7521377617256
 30
0.0
 11
870.6318606672425
 21
476.4188044283921
 31
0.0
 12
869.6318606672461
 22
476.5854710950588
 32
0.0
 13
869.6318606672461
 23
476.5854710950588
 33
0.0
  0
LINE
  5
264
330
1F
100
AcDbEntity
  8
0
 62
     4
370
    13
100
AcDbLine
 10
870.6318606672425
 20
476.5854710950588
 30
0.0
 11
872.6318606672389
 21
476.5854710950588
 31
0.0
  0
LINE
  5
265
330
1F
100
AcDbEntity
  8
0
 62
     4
370
    13
100
AcDbLine
 10
873.6318606672407
 20
472.3161995751292
 30
0.0
 11
873.6318606672407
 21
477.0854710950588
 31
0.0
  0
LINE
  5
266
330
1F
100
AcDbEntity
  8
0
 62
     4
370
    13
100
AcDbLine
 10
869.6318606672461
 20
471.3161995751299
 30
0.0
 11
869.6318606672461
 21
477.0854710950588
 31
0.0
  0
TEXT
  5
267
330
1F
100
AcDbEntity
  8
0
100
AcDbText
 10
852.7556402319001
 20
441.5153641145923
 30
0.0
 40
1.399999999999999
  1
品　番
  7
ゴシック
100
AcDbText
1001
ACAD
1000
MTEXTBEGIN
1070
    73
1070
     1
1070
    44
1040
1.0
1070
    74
1070
     0
1000
MTEXTEND
  0
TEXT
  5
268
330
1F
100
AcDbEntity
  8
0
100
AcDbText
 10
856.1717385405058
 20
438.1835875812064
 30
-0.0000000000000028
 40
1.399999999999999
  1
HR
  7
ゴシック
100
AcDbText
1001
ACAD
1000
MTEXTBEGIN
1070
    73
1070
     1
1070
    44
1040
1.0
1070
    74
1070
     0
1000
MTEXTEND
  0
TEXT
  5
269
330
1F
100
AcDbEntity
  8
0
100
AcDbText
 10
852.0990112677786
 20
438.1835875812064
 30
-0.0000000000000028
 40
1.399999999999999
  1
-931
  7
ゴシック
100
AcDbText
1001
ACAD
1000
MTEXTBEGIN
1070
    73
1070
     1
1070
    44
1040
1.0
1070
    74
1070
     0
1000
MTEXTEND
  0
TEXT
  5
26A
330
1F
100
AcDbEntity
  8
0
100
AcDbText
 10
849.7067875297156
 20
438.1835875812064
 30
-0.0000000000000028
 40
1.399999999999999
  1
LS
  7
ゴシック
100
AcDbText
1001
ACAD
1000
MTEXTBEGIN
1070
    73
1070
     1
1070
    44
1040
1.0
1070
    74
1070
     0
1000
MTEXTEND
  0
TEXT
  5
26B
330
1F
100
AcDbEntity
  8
0
100
AcDbText
 10
866.4841032114141
 20
441.5438258885116
 30
-0.0000000000000028
 40
1.399999999999999
  1
色
  7
ゴシック
100
AcDbText
1001
ACAD
1000
MTEXTBEGIN
1070
    73
1070
     1
1070
    44
1040
1.0
1070
    74
1070
     0
1000
MTEXTEND
  0
TEXT
  5
26C
330
1F
100
AcDbEntity
  8
0
100
AcDbText
 10
863.7800422977084
 20
438.2431509716743
 30
-0.0000000000000028
 40
1.399999999999999
  1
ホワイト
  7
ゴシック
100
AcDbText
1001
ACAD
1000
MTEXTBEGIN
1070
    73
1070
     1
1070
    44
1040
1.0
1070
    74
1070
     0
1000
MTEXTEND
  0
TEXT
  5
26D
330
1F
100
AcDbEntity
  8
0
100
AcDbText
 10
852.07821788546
 20
451.7999171689429
 30
0.0
 40
1.8375
  1
エンドキャップ
  7
ゴシック
100
AcDbText
1001
ACAD
1000
MTEXTBEGIN
1070
    73
1070
     1
1070
    44
1040
1.0
1070
    74
1070
     0
1000
MTEXTEND
  0
LINE
  5
26E
330
1F
100
AcDbEntity
  8
0
 62
     4
100
AcDbLine
 10
850.5437103312575
 20
454.6156704068014
 30
0.0
 11
850.5437103312575
 21
450.5770191641986
 31
0.0
  0
LINE
  5
26F
330
1F
100
AcDbEntity
  8
0
 62
     4
100
AcDbLine
 10
870.1440336250756
 20
454.6156704068014
 30
0.0
 11
850.5437103312575
 21
454.6156704068014
 31
0.0
  0
LINE
  5
270
330
1F
100
AcDbEntity
  8
0
 62
     4
100
AcDbLine
 10
870.1440336250756
 20
450.5770191641986
 30
0.0
 11
870.1440336250756
 21
454.6156704068014
 31
0.0
  0
LINE
  5
271
330
1F
100
AcDbEntity
  8
0
 62
     4
100
AcDbLine
 10
850.5437103312575
 20
450.5770191641986
 30
0.0
 11
870.1440336250756
 21
450.5770191641986
 31
0.0
  0
ARC
  5
272
330
1F
100
AcDbEntity
  8
0
 62
     6
100
AcDbCircle
 10
796.6209159015211
 20
500.5447297418242
 30
0.0
 40
1.0
100
AcDbArc
 50
0.0
 51
90.0
  0
ARC
  5
273
330
1F
100
AcDbEntity
  8
0
 62
     6
100
AcDbCircle
 10
786.6209159015229
 20
500.5447297418243
 30
0.0
 40
1.0
100
AcDbArc
 50
90.0
 51
180.0
  0
LINE
  5
274
330
1F
100
AcDbEntity
  8
0
 62
     6
100
AcDbLine
 10
786.6209159015229
 20
501.5447297418242
 30
0.0
 11
796.6209159015211
 21
501.5447297418242
 31
0.0
  0
LINE
  5
275
330
1F
100
AcDbEntity
  8
0
 62
     6
100
AcDbLine
 10
797.32091590152
 20
495.544729741824
 30
0.0
 11
785.9209159015222
 21
495.544729741826
 31
0.0
  0
LINE
  5
276
330
1F
100
AcDbEntity
  8
0
 62
     6
100
AcDbLine
 10
785.620915901523
 20
495.8447297418261
 30
0.0
 11
797.6209159015211
 21
495.844729741824
 31
0.0
  0
LINE
  5
277
330
1F
100
AcDbEntity
  8
0
 62
     6
100
AcDbLine
 10
785.9209159015222
 20
495.544729741826
 30
0.0
 11
785.620915901523
 21
495.8447297418261
 31
0.0
  0
LINE
  5
278
330
1F
100
AcDbEntity
  8
0
 62
     6
100
AcDbLine
 10
797.32091590152
 20
495.544729741824
 30
0.0
 11
797.6209159015211
 21
495.844729741824
 31
0.0
  0
LINE
  5
279
330
1F
100
AcDbEntity
  8
0
 62
     6
100
AcDbLine
 10
785.620915901523
 20
495.8447297418261
 30
0.0
 11
785.620915901523
 21
500.5447297418243
 31
0.0
  0
LINE
  5
27A
330
1F
100
AcDbEntity
  8
0
 62
     6
100
AcDbLine
 10
797.6209159015211
 20
500.5447297418242
 30
0.0
 11
797.6209159015211
 21
495.844729741824
 31
0.0
  0
MTEXT
  5
27B
330
1F
100
AcDbEntity
  8
0
 62
     4
100
AcDbMText
 10
802.7664472674128
 20
498.5447297418255
 30
0.0
 40
1.25
 41
0.0
 71
     5
 72
     1
  1
\A1;6
  7
ゴシック
 11
0.0000000000000001
 21
1.0
 31
0.0
 73
     1
 44
1.0
1001
ACAD
1000
MTEXTBEGIN
1070
    73
1070
     1
1070
    44
1040
1.0
1070
    74
1070
     0
1000
MTEXTEND
  0
SOLID
  5
27C
330
1F
100
AcDbEntity
  8
0
 62
     4
100
AcDbTrace
 10
803.7247806007467
 20
496.5447297418241
 30
0.0
 11
804.0581139340789
 21
496.5447297418241
 31
0.0
 12
803.8914472674127
 22
495.5447297418241
 32
0.0
 13
803.8914472674127
 23
495.5447297418241
 33
0.0
  0
SOLID
  5
27D
330
1F
100
AcDbEntity
  8
0
 62
     4
100
AcDbTrace
 10
803.7247806007467
 20
500.5447297418242
 30
0.0
 11
804.0581139340789
 21
500.5447297418242
 31
0.0
 12
803.8914472674127
 22
501.5447297418242
 32
0.0
 13
803.8914472674127
 23
501.5447297418242
 33
0.0
  0
LINE
  5
27E
330
1F
100
AcDbEntity
  8
0
 62
     4
370
    13
100
AcDbLine
 10
803.8914472674127
 20
500.5447297418242
 30
0.0
 11
803.8914472674127
 21
496.5447297418241
 31
0.0
  0
LINE
  5
27F
330
1F
100
AcDbEntity
  8
0
 62
     4
370
    13
100
AcDbLine
 10
797.82091590152
 20
495.5447297418241
 30
0.0
 11
804.391447267411
 21
495.5447297418241
 31
0.0
  0
LINE
  5
280
330
1F
100
AcDbEntity
  8
0
 62
     4
370
    13
100
AcDbLine
 10
797.1209159015211
 20
501.5447297418242
 30
0.0
 11
804.391447267411
 21
501.5447297418242
 31
0.0
  0
MTEXT
  5
281
330
1F
100
AcDbEntity
  8
0
 62
     4
100
AcDbMText
 10
778.218964026349
 20
500.5447297418257
 30
0.0
 40
1.25
 41
0.0
 71
     5
 72
     1
  1
\A1;2
  7
ゴシック
 11
0.0000000000000001
 21
1.0
 31
0.0
 73
     1
 44
1.0
1001
ACAD
1000
MTEXTBEGIN
1070
    73
1070
     1
1070
    44
1040
1.0
1070
    74
1070
     0
1000
MTEXTEND
  0
SOLID
  5
282
330
1F
100
AcDbEntity
  8
0
 62
     4
100
AcDbTrace
 10
779.1772973596812
 20
502.5447297418243
 30
0.0
 11
779.5106306930133
 21
502.5447297418243
 31
0.0
 12
779.3439640263437
 22
501.5447297418243
 32
0.0
 13
779.3439640263437
 23
501.5447297418243
 33
0.0
  0
SOLID
  5
283
330
1F
100
AcDbEntity
  8
0
 62
     4
100
AcDbTrace
 10
779.1772973596812
 20
498.5447297418243
 30
0.0
 11
779.5106306930133
 21
498.5447297418243
 31
0.0
 12
779.3439640263437
 22
499.5447297418244
 32
0.0
 13
779.3439640263437
 23
499.5447297418244
 33
0.0
  0
LINE
  5
284
330
1F
100
AcDbEntity
  8
0
 62
     4
370
    13
100
AcDbLine
 10
779.3439640263437
 20
499.5447297418244
 30
0.0
 11
779.3439640263437
 21
501.5447297418243
 31
0.0
  0
LINE
  5
285
330
1F
100
AcDbEntity
  8
0
 62
     4
370
    13
100
AcDbLine
 10
779.3439640263437
 20
502.5447297418243
 30
0.0
 11
779.3439640263437
 21
503.5447297418244
 31
0.0
  0
LINE
  5
286
330
1F
100
AcDbEntity
  8
0
 62
     4
370
    13
100
AcDbLine
 10
779.3439640263437
 20
498.5447297418243
 30
0.0
 11
779.3439640263437
 21
497.5447297418243
 31
0.0
  0
LINE
  5
287
330
1F
100
AcDbEntity
  8
0
 62
     4
370
    13
100
AcDbLine
 10
786.1209159015229
 20
501.5447297418243
 30
0.0
 11
778.8439640263472
 21
501.5447297418243
 31
0.0
  0
LINE
  5
288
330
1F
100
AcDbEntity
  8
0
 62
     4
370
    13
100
AcDbLine
 10
786.1209159015211
 20
499.5447297418244
 30
0.0
 11
778.8439640263472
 21
499.5447297418244
 31
0.0
  0
TEXT
  5
289
330
1F
100
AcDbEntity
  8
0
 62
     4
100
AcDbText
 10
778.851066299077
 20
454.594444550319
 30
0.0
 40
1.25
  1
棚柱本体長さ：Ａ
 50
90.0
  7
ゴシック
100
AcDbText
1001
ACAD
1000
MTEXTBEGIN
1070
    73
1070
     1
1070
    44
1040
1.0
1070
    74
1070
     0
1000
MTEXTEND
  0
TEXT
  5
28A
330
1F
100
AcDbEntity
  8
0
100
AcDbText
 10
780.8107755868327
 20
416.1467423543485
 30
0.0
 40
1.8375
  1
棚柱に装着した状態
  7
ゴシック
100
AcDbText
1001
ACAD
1000
MTEXTBEGIN
1070
    73
1070
     1
1070
    44
1040
1.0
1070
    74
1070
     0
1000
MTEXTEND
  0
LINE
  5
28B
330
1F
100
AcDbEntity
  8
0
 62
     4
100
AcDbLine
 10
779.6002116986433
 20
418.9732744630503
 30
0.0
 11
779.6002116986433
 21
414.9194271206812
 31
0.0
  0
LINE
  5
28C
330
1F
100
AcDbEntity
  8
0
 62
     4
100
AcDbLine
 10
803.5730960260931
 20
418.9732744630503
 30
0.0
 11
779.6002116986433
 21
418.9732744630503
 31
0.0
  0
LINE
  5
28D
330
1F
100
AcDbEntity
  8
0
 62
     4
100
AcDbLine
 10
803.5730960260931
 20
414.9194271206812
 30
0.0
 11
803.5730960260931
 21
418.9732744630503
 31
0.0
  0
LINE
  5
28E
330
1F
100
AcDbEntity
  8
0
 62
     4
100
AcDbLine
 10
779.6002116986433
 20
414.9194271206812
 30
0.0
 11
803.5730960260931
 21
414.9194271206812
 31
0.0
  0
TEXT
  5
28F
330
1F
100
AcDbEntity
  8
0
100
AcDbText
 10
804.5334461453307
 20
487.9896955674236
 30
-0.0000000000000028
 40
1.399999999999999
  1
エンドキャップ
  7
ゴシック
100
AcDbText
1001
ACAD
1000
MTEXTBEGIN
1070
    73
1070
     1
1070
    44
1040
1.0
1070
    74
1070
     0
1000
MTEXTEND
  0
TEXT
  5
290
330
1F
100
AcDbEntity
  8
0
100
AcDbText
 10
803.3742222710129
 20
461.2332934104265
 30
-0.0000000000000028
 40
1.399999999999999
  1
フィット棚柱本体
  7
ゴシック
100
AcDbText
1001
ACAD
1000
MTEXTBEGIN
1070
    73
1070
     1
1070
    44
1040
1.0
1070
    74
1070
     0
1000
MTEXTEND
  0
TEXT
  5
291
330
1F
100
AcDbEntity
  8
0
100
AcDbText
 10
802.8213318064167
 20
409.1727667629002
 30
0.0
 40
1.399999999999999
  1
を加えたサイズになります。
  7
ゴシック
100
AcDbText
1001
ACAD
1000
MTEXTBEGIN
1070
    73
1070
     1
1070
    44
1040
1.0
1070
    74
1070
     0
1000
MTEXTEND
  0
TEXT
  5
292
330
1F
100
AcDbEntity
  8
0
100
AcDbText
 10
799.5629416290626
 20
409.1727667629002
 30
0.0
 40
1.399999999999999
  1
mm
  7
ゴシック
100
AcDbText
1001
ACAD
1000
MTEXTBEGIN
1070
    73
1070
     1
1070
    44
1040
1.0
1070
    74
1070
     0
1000
MTEXTEND
  0
TEXT
  5
293
330
1F
100
AcDbEntity
  8
0
100
AcDbText
 10
756.8096421366767
 20
409.1727667629002
 30
0.0
 40
1.399999999999999
  1
　　　         棚柱の全長は、棚柱本体長さＡに４
  7
ゴシック
100
AcDbText
1001
ACAD
1000
MTEXTBEGIN
1070
    73
1070
     1
1070
    44
1040
1.0
1070
    74
1070
     0
1000
MTEXTEND
  0
TEXT
  5
294
330
1F
100
AcDbEntity
  8
0
100
AcDbText
 10
764.8809692050486
 20
411.6482320759289
 30
0.0
 40
1.399999999999999
  1
【注】エンドキャップを棚柱本体の上下(計２箇所)に装着した場合
  7
ゴシック
100
AcDbText
1001
ACAD
1000
MTEXTBEGIN
1070
    73
1070
     1
1070
    44
1040
1.0
1070
    74
1070
     0
1000
MTEXTEND
  0
TEXT
  5
295
330
1F
100
AcDbEntity
  8
0
 62
     4
100
AcDbText
 10
774.9703189231527
 20
450.0298138685008
 30
0.0
 40
1.25
  1
棚柱全長（上下ｴﾝﾄﾞｷｬｯﾌﾟ付き）
 50
90.0
  7
ゴシック
100
AcDbText
1001
ACAD
1000
MTEXTBEGIN
1070
    73
1070
     1
1070
    44
1040
1.0
1070
    74
1070
     0
1000
MTEXTEND
  0
SOLID
  5
296
330
1F
100
AcDbEntity
  8
0
 62
     4
100
AcDbTrace
 10
858.3633312746165
 20
483.4176099168955
 30
0.0
 11
858.1496931074067
 21
483.1617391592411
 31
0.0
 12
857.4888999180471
 22
483.9305890396971
 32
0.0
 13
857.4888999180471
 23
483.9305890396971
 33
0.0
  0
LINE
  5
297
330
1F
100
AcDbEntity
  8
0
 62
     4
370
    13
100
AcDbLine
 10
855.9536753721181
 20
485.2124180429599
 30
0.0
 11
857.4888999180471
 21
483.9305890396971
 31
0.0
  0
MTEXT
  5
298
330
1F
100
AcDbEntity
  8
0
 62
     4
100
AcDbMText
 10
860.8213369621312
 20
482.6137689953578
 30
0.0
 40
1.25
 41
0.0
 71
     5
 72
     1
  1
\A1;R2
  7
ゴシック
 11
0.7676122729619596
 21
-0.6409145016288634
 31
0.0
 73
     1
 44
1.0
1001
ACAD
1000
MTEXTBEGIN
1070
    73
1070
     1
1070
    44
1040
1.0
1070
    74
1070
     0
1000
MTEXTEND
  0
LINE
  5
299
330
1F
100
AcDbEntity
  8
0
 62
     4
370
    13
100
AcDbLine
 10
861.1764918316252
 20
480.8516503401104
 30
0.0
 11
858.2565121910116
 21
483.2896745380684
 31
0.0
  0
SOLID
  5
29A
330
1F
100
AcDbEntity
  8
0
 62
     4
100
AcDbTrace
 10
858.3260207031685
 20
472.2805923059603
 30
0.0
 11
858.5494740471544
 21
472.0332469721187
 31
0.0
 12
857.6957113736366
 22
471.4865596070829
 32
0.0
 13
857.6957113736366
 23
471.4865596070829
 33
0.0
  0
LINE
  5
29B
330
1F
100
AcDbEntity
  8
0
 62
     4
370
    13
100
AcDbLine
 10
856.9536753721218
 20
470.8161995751297
 30
0.0
 11
857.6957113736366
 21
471.4865596070829
 31
0.0
  0
MTEXT
  5
29C
330
1F
100
AcDbEntity
  8
0
 62
     4
100
AcDbMText
 10
859.3737268966556
 20
474.5185884237661
 30
0.0
 40
1.25
 41
0.0
 71
     5
 72
     1
  1
\A1;R1
  7
ゴシック
 11
0.7420360015224135
 21
0.6703600319564323
 31
0.0
 73
     1
 44
1.0
1001
ACAD
1000
MTEXTBEGIN
1070
    73
1070
     1
1070
    44
1040
1.0
1070
    74
1070
     0
1000
MTEXTEND
  0
LINE
  5
29D
330
1F
100
AcDbEntity
  8
0
 62
     4
370
    13
100
AcDbLine
 10
861.0759804885288
 20
474.5403161731113
 30
0.0
 11
858.4377473751624
 21
472.156919639039
 31
0.0
  0
MTEXT
  5
29E
330
1F
100
AcDbEntity
  8
0
 62
     4
100
AcDbMText
 10
872.6318606672389
 20
459.9842644680694
 30
0.0
 40
1.25
 41
0.0
 71
     5
 72
     1
  1
\A1;2
  7
ゴシック
 73
     1
 44
1.0
1001
ACAD
1000
MTEXTBEGIN
1070
    73
1070
     1
1070
    44
1040
1.0
1070
    74
1070
     0
1000
MTEXTEND
  0
SOLID
  5
29F
330
1F
100
AcDbEntity
  8
0
 62
     4
100
AcDbTrace
 10
874.6318606672426
 20
459.0259311347361
 30
0.0
 11
874.6318606672426
 21
458.6925978014028
 31
0.0
 12
873.6318606672407
 22
458.8592644680694
 32
0.0
 13
873.6318606672407
 23
458.8592644680694
 33
0.0
  0
SOLID
  5
2A0
330
1F
100
AcDbEntity
  8
0
 62
     4
100
AcDbTrace
 10
870.6318606672407
 20
459.0259311347361
 30
0.0
 11
870.6318606672407
 21
458.6925978014028
 31
0.0
 12
871.6318606672425
 22
458.8592644680694
 32
0.0
 13
871.6318606672425
 23
458.8592644680694
 33
0.0
  0
LINE
  5
2A1
330
1F
100
AcDbEntity
  8
0
 62
     4
370
    13
100
AcDbLine
 10
871.6318606672425
 20
458.8592644680694
 30
0.0
 11
873.6318606672407
 21
458.8592644680694
 31
0.0
  0
LINE
  5
2A2
330
1F
100
AcDbEntity
  8
0
 62
     4
370
    13
100
AcDbLine
 10
874.6318606672426
 20
458.8592644680694
 30
0.0
 11
875.6318606672389
 21
458.8592644680694
 31
0.0
  0
LINE
  5
2A3
330
1F
100
AcDbEntity
  8
0
 62
     4
370
    13
100
AcDbLine
 10
870.6318606672407
 20
458.8592644680694
 30
0.0
 11
869.631860667239
 21
458.8592644680694
 31
0.0
  0
LINE
  5
2A4
330
1F
100
AcDbEntity
  8
0
 62
     4
370
    13
100
AcDbLine
 10
873.6318606672407
 20
462.3161995751299
 30
0.0
 11
873.6318606672407
 21
458.3592644680694
 31
0.0
  0
LINE
  5
2A5
330
1F
100
AcDbEntity
  8
0
 62
     4
370
    13
100
AcDbLine
 10
871.6318606672425
 20
462.8161995751299
 30
0.0
 11
871.6318606672425
 21
458.3592644680694
 31
0.0
  0
TEXT
  5
2A6
330
1F
100
AcDbEntity
  8
0
100
AcDbText
 10
863.8759813840001
 20
434.8856232629587
 30
-0.0000000000000028
 40
1.399999999999999
  1
ブラック
  7
ゴシック
100
AcDbText
1001
ACAD
1000
MTEXTBEGIN
1070
    73
1070
     1
1070
    44
1040
1.0
1070
    74
1070
     0
1000
MTEXTEND
  0
TEXT
  5
2A7
330
1F
100
AcDbEntity
  8
0
100
AcDbText
 10
856.1717385405023
 20
434.8651461669072
 30
-0.0000000000000028
 40
1.399999999999999
  1
BR
  7
ゴシック
100
AcDbText
1001
ACAD
1000
MTEXTBEGIN
1070
    73
1070
     1
1070
    44
1040
1.0
1070
    74
1070
     0
1000
MTEXTEND
  0
TEXT
  5
2A8
330
1F
100
AcDbEntity
  8
0
100
AcDbText
 10
852.099011267775
 20
434.8651461669072
 30
-0.0000000000000028
 40
1.399999999999999
  1
-931
  7
ゴシック
100
AcDbText
1001
ACAD
1000
MTEXTBEGIN
1070
    73
1070
     1
1070
    44
1040
1.0
1070
    74
1070
     0
1000
MTEXTEND
  0
TEXT
  5
2A9
330
1F
100
AcDbEntity
  8
0
100
AcDbText
 10
849.7067875297121
 20
434.8651461669072
 30
-0.0000000000000028
 40
1.399999999999999
  1
LS
  7
ゴシック
100
AcDbText
1001
ACAD
1000
MTEXTBEGIN
1070
    73
1070
     1
1070
    44
1040
1.0
1070
    74
1070
     0
1000
MTEXTEND
  0
SOLID
  5
2AA
330
1F
100
AcDbEntity
  8
0
 62
     4
100
AcDbTrace
 10
775.5167204383083
 20
423.0447275406292
 30
0.0
 11
775.8500537716404
 21
423.0447275406292
 31
0.0
 12
775.6833871049762
 22
422.0447275406292
 32
0.0
 13
775.6833871049762
 23
422.0447275406292
 33
0.0
  0
SOLID
  5
2AB
330
1F
100
AcDbEntity
  8
0
 62
     4
100
AcDbTrace
 10
775.5167204383083
 20
500.5447297418244
 30
0.0
 11
775.8500537716404
 21
500.5447297418244
 31
0.0
 12
775.6833871049762
 22
501.5447297418243
 32
0.0
 13
775.6833871049762
 23
501.5447297418243
 33
0.0
  0
LINE
  5
2AC
330
1F
100
AcDbEntity
  8
0
 62
     4
370
    13
100
AcDbLine
 10
775.6833871049762
 20
500.5447297418244
 30
0.0
 11
775.6833871049762
 21
423.0447275406292
 31
0.0
  0
LINE
  5
2AD
330
1F
100
AcDbEntity
  8
0
 62
     4
370
    13
100
AcDbLine
 10
785.4138091203362
 20
501.5447297418243
 30
0.0
 11
775.1833871049726
 21
501.5447297418243
 31
0.0
  0
SOLID
  5
2AE
330
1F
100
AcDbEntity
  8
0
 62
     0
100
AcDbTrace
 10
796.9765783342259
 20
470.2856408739388
 30
0.0
 11
797.2652534688218
 21
470.4523075406049
 31
0.0
 12
796.6209159015211
 22
471.2349996110567
 32
0.0
 13
796.6209159015211
 23
471.2349996110567
 33
0.0
  0
LINE
  5
2AF
330
1F
100
AcDbEntity
  8
0
  6
Continuous
370
     0
100
AcDbLine
 10
818.665565031018
 20
460.5318640649024
 30
0.0
 11
802.8003740902654
 21
460.5318640649025
 31
0.0
  0
LINE
  5
2B0
330
1F
100
AcDbEntity
  8
0
 62
     0
370
    13
100
AcDbLine
 10
797.1209159015211
 20
470.368974207273
 30
0.0
 11
802.8003740902654
 21
460.5318640649025
 31
0.0
  0
SOLID
  5
2B1
330
1F
100
AcDbEntity
  8
0
 62
     0
100
AcDbTrace
 10
797.9765783342259
 20
497.0953425233217
 30
0.0
 11
798.26525346882
 21
497.2620091899878
 31
0.0
 12
797.6209159015211
 22
498.0447012604397
 32
0.0
 13
797.6209159015211
 23
498.0447012604397
 33
0.0
  0
LINE
  5
2B2
330
1F
100
AcDbEntity
  8
0
 62
     0
370
    13
100
AcDbLine
 10
798.1209159015193
 20
497.1786758566558
 30
0.0
 11
803.8003740902654
 21
487.3415657142854
 31
0.0
  0
LINE
  5
2B3
330
1F
100
AcDbEntity
  8
0
  6
Continuous
370
     0
100
AcDbLine
 10
817.8595387475466
 20
487.3415657142853
 30
0.0
 11
803.8003740902654
 21
487.3415657142854
 31
0.0
  0
SOLID
  5
2B4
330
1F
100
AcDbEntity
  8
0
 62
     4
100
AcDbTrace
 10
779.1772973596812
 20
423.0447275406292
 30
0.0
 11
779.5106306930133
 21
423.0447275406292
 31
0.0
 12
779.3439640263437
 22
422.0447275406292
 32
0.0
 13
779.3439640263437
 23
422.0447275406292
 33
0.0
  0
SOLID
  5
2B5
330
1F
100
AcDbEntity
  8
0
 62
     4
100
AcDbTrace
 10
779.1772973596812
 20
498.5447297418243
 30
0.0
 11
779.5106306930133
 21
498.5447297418243
 31
0.0
 12
779.3439640263437
 22
499.5447297418244
 32
0.0
 13
779.3439640263437
 23
499.5447297418244
 33
0.0
  0
LINE
  5
2B6
330
1F
100
AcDbEntity
  8
0
 62
     4
370
    13
100
AcDbLine
 10
779.3439640263437
 20
498.5447297418243
 30
0.0
 11
779.3439640263437
 21
423.0447275406292
 31
0.0
  0
LINE
  5
2B7
330
1F
100
AcDbEntity
  8
0
 62
     4
370
    13
100
AcDbLine
 10
786.1209159015211
 20
499.5447297418244
 30
0.0
 11
778.8439640263472
 21
499.5447297418244
 31
0.0
  0
LINE
  5
2B8
330
1F
100
AcDbEntity
  8
0
  6
DASHED2
 62
     4
 48
0.2
100
AcDbLine
 10
796.6209159015211
 20
499.5447297418244
 30
0.0
 11
796.6209159015211
 21
495.5447297418242
 31
0.0
  0
LINE
  5
2B9
330
1F
100
AcDbEntity
  8
0
  6
DASHED2
 62
     4
 48
0.2
100
AcDbLine
 10
786.6209159015211
 20
499.5447297418244
 30
0.0
 11
786.6209159015211
 21
495.544729741826
 31
0.0
  0
LINE
  5
2BA
330
1F
100
AcDbEntity
  8
0
 62
     0
 48
6.0
370
     5
100
AcDbLine
 10
789.1209159015211
 20
495.5447297418255
 30
0.0
 11
789.1209159015211
 21
422.0447275406292
 31
0.0
  0
LINE
  5
2BB
330
1F
100
AcDbEntity
  8
0
 62
     0
 48
6.0
370
     5
100
AcDbLine
 10
788.6209159015211
 20
495.5447297418256
 30
0.0
 11
788.6209159015211
 21
422.0447275406292
 31
0.0
  0
LINE
  5
2BC
330
1F
100
AcDbEntity
  8
0
 62
     0
 48
6.0
370
     5
100
AcDbLine
 10
794.1209159015211
 20
495.5447297418246
 30
0.0
 11
794.1209159015211
 21
422.0447275406292
 31
0.0
  0
LINE
  5
2BD
330
1F
100
AcDbEntity
  8
0
 62
     0
 48
6.0
370
     5
100
AcDbLine
 10
794.6209159015211
 20
495.5447297418246
 30
0.0
 11
794.6209159015211
 21
422.0447275406292
 31
0.0
  0
LINE
  5
2BE
330
1F
100
AcDbEntity
  8
0
  6
DASHED2
 62
     4
 48
0.2
370
    15
100
AcDbLine
 10
786.6209159015211
 20
499.5447297418244
 30
0.0
 11
796.6209159015211
 21
499.5447297418244
 31
0.0
  0
LINE
  5
2BF
330
1F
100
AcDbEntity
  8
0
 62
     0
370
    15
100
AcDbLine
 10
796.6209159015211
 20
495.5447297418242
 30
0.0
 11
796.6209159015211
 21
422.0447275406292
 31
0.0
  0
LINE
  5
2C0
330
1F
100
AcDbEntity
  8
0
 62
     0
370
    15
100
AcDbLine
 10
786.6209159015211
 20
495.544729741826
 30
0.0
 11
786.6209159015211
 21
422.0447275406292
 31
0.0
  0
LINE
  5
2C1
330
1F
100
AcDbEntity
  8
0
 62
     0
370
    15
100
AcDbLine
 10
792.4209206862101
 20
427.3710517551947
 30
0.0
 11
792.4209216246249
 21
426.9447315046648
 31
0.0
  0
ARC
  5
2C2
330
1F
100
AcDbEntity
  8
0
 62
     0
370
    15
100
AcDbCircle
 10
792.9209206862065
 20
427.3710528557889
 30
0.0
 40
0.5
100
AcDbArc
 50
147.0001261192062
 51
180.0001261188969
  0
LINE
  5
2C3
330
1F
100
AcDbEntity
  8
0
 62
     0
370
    15
100
AcDbLine
 10
793.5241220422608
 20
429.2179483073807
 30
0.0
 11
792.5015848028047
 21
427.6433714502575
 31
0.0
  0
ARC
  5
2C4
330
1F
100
AcDbEntity
  8
0
 62
     0
370
    15
100
AcDbCircle
 10
793.0209189831925
 20
429.5447306223027
 30
0.0
 40
0.6
100
AcDbArc
 50
327.0001261191186
 51
33.00012611905239
  0
ARC
  5
2C5
330
1F
100
AcDbEntity
  8
0
 62
     0
370
    15
100
AcDbCircle
 10
792.9209111168361
 20
431.7184079485628
 30
0.0
 40
0.5
100
AcDbArc
 50
180.0001261193138
 51
213.0001261190524
  0
LINE
  5
2C6
330
1F
100
AcDbEntity
  8
0
 62
     0
370
    15
100
AcDbLine
 10
792.4209111168397
 20
431.7184068479612
 30
0.0
 11
792.4209101784249
 21
432.1447270984912
 31
0.0
  0
LINE
  5
2C7
330
1F
100
AcDbEntity
  8
0
 62
     0
370
    15
100
AcDbLine
 10
793.524120603633
 20
429.8715151525132
 30
0.0
 11
792.501576432292
 21
431.446087508016
 31
0.0
  0
LINE
  5
2C8
330
1F
100
AcDbEntity
  8
0
 62
     0
370
    15
100
AcDbLine
 10
789.7177166434353
 20
429.871510963195
 30
0.0
 11
790.7402573488357
 21
431.4460855695135
 31
0.0
  0
LINE
  5
2C9
330
1F
100
AcDbEntity
  8
0
 62
     0
370
    15
100
AcDbLine
 10
790.8209220648618
 20
431.7184050870194
 30
0.0
 11
790.8209220648637
 21
432.1447253375493
 31
0.0
  0
ARC
  5
2CA
330
1F
100
AcDbEntity
  8
0
 62
     0
370
    15
100
AcDbCircle
 10
790.3209220648618
 20
431.7184050870213
 30
0.0
 40
0.5
100
AcDbArc
 50
327.0000000000893
 51
359.9999999997915
  0
ARC
  5
2CB
330
1F
100
AcDbEntity
  8
0
 62
     0
370
    15
100
AcDbCircle
 10
790.3209220648618
 20
427.3710499942386
 30
0.0
 40
0.5
100
AcDbArc
 50
0.0000000002084408
 51
32.9999999999107
  0
LINE
  5
2CC
330
1F
100
AcDbEntity
  8
0
 62
     0
370
    15
100
AcDbLine
 10
789.7177166434353
 20
429.2179441180626
 30
0.0
 11
790.7402573488357
 21
427.6433695117459
 31
0.0
  0
ARC
  5
2CD
330
1F
100
AcDbEntity
  8
0
 62
     0
370
    15
100
AcDbCircle
 10
790.2209189831951
 20
429.5447275406291
 30
0.0
 40
0.6
100
AcDbArc
 50
147.0000000000893
 51
212.9999999999983
  0
LINE
  5
2CE
330
1F
100
AcDbEntity
  8
0
 62
     0
370
    15
100
AcDbLine
 10
792.2209220648633
 20
426.7447297437096
 30
0.0
 11
791.0209220648625
 21
426.7447297437096
 31
0.0
  0
LINE
  5
2CF
330
1F
100
AcDbEntity
  8
0
 62
     0
370
    15
100
AcDbLine
 10
790.8209220648618
 20
427.3710499942401
 30
0.0
 11
790.8209220648637
 21
426.9447297437102
 31
0.0
  0
ARC
  5
2D0
330
1F
100
AcDbEntity
  8
0
 62
     0
370
    15
100
AcDbCircle
 10
791.0209220648625
 20
426.9447297437105
 30
0.0
 40
0.2
100
AcDbArc
 50
180.0
 51
270.0
  0
ARC
  5
2D1
330
1F
100
AcDbEntity
  8
0
 62
     0
370
    15
100
AcDbCircle
 10
792.2209220648633
 20
426.9447297437105
 30
0.0
 40
0.2
100
AcDbArc
 50
270.0
 51
0.0
  0
ARC
  5
2D2
330
1F
100
AcDbEntity
  8
0
 62
     0
370
    15
100
AcDbCircle
 10
792.2209220599338
 20
432.1447297410756
 30
0.0
 40
0.2
100
AcDbArc
 50
0.0000001085976733
 51
90.00000010859768
  0
LINE
  5
2D3
330
1F
100
AcDbEntity
  8
0
 62
     0
370
    15
100
AcDbLine
 10
792.2209220595555
 20
432.3447297410742
 30
0.0
 11
791.0209097434867
 21
432.3447297388004
 31
0.0
  0
ARC
  5
2D4
330
1F
100
AcDbEntity
  8
0
 62
     0
370
    15
100
AcDbCircle
 10
791.0209220599331
 20
432.1447297391784
 30
0.0
 40
0.2
100
AcDbArc
 50
90.00000010859768
 51
180.0000001085976
  0
LINE
  5
2D5
330
1F
100
AcDbEntity
  8
0
 62
     0
370
    15
100
AcDbLine
 10
792.4209206862101
 20
442.3710517551947
 30
0.0
 11
792.4209216246249
 21
441.9447315046647
 31
0.0
  0
ARC
  5
2D6
330
1F
100
AcDbEntity
  8
0
 62
     0
370
    15
100
AcDbCircle
 10
792.9209206862065
 20
442.3710528557889
 30
0.0
 40
0.5
100
AcDbArc
 50
147.0001261192062
 51
180.0001261188969
  0
LINE
  5
2D7
330
1F
100
AcDbEntity
  8
0
 62
     0
370
    15
100
AcDbLine
 10
793.5241220422608
 20
444.2179483073807
 30
0.0
 11
792.5015848028047
 21
442.6433714502575
 31
0.0
  0
ARC
  5
2D8
330
1F
100
AcDbEntity
  8
0
 62
     0
370
    15
100
AcDbCircle
 10
793.0209189831925
 20
444.5447306223027
 30
0.0
 40
0.6
100
AcDbArc
 50
327.0001261191186
 51
33.00012611905239
  0
ARC
  5
2D9
330
1F
100
AcDbEntity
  8
0
 62
     0
370
    15
100
AcDbCircle
 10
792.9209111168361
 20
446.7184079485628
 30
0.0
 40
0.5
100
AcDbArc
 50
180.0001261193138
 51
213.0001261190524
  0
LINE
  5
2DA
330
1F
100
AcDbEntity
  8
0
 62
     0
370
    15
100
AcDbLine
 10
792.4209111168397
 20
446.7184068479611
 30
0.0
 11
792.4209101784249
 21
447.1447270984913
 31
0.0
  0
LINE
  5
2DB
330
1F
100
AcDbEntity
  8
0
 62
     0
370
    15
100
AcDbLine
 10
793.524120603633
 20
444.8715151525132
 30
0.0
 11
792.501576432292
 21
446.446087508016
 31
0.0
  0
LINE
  5
2DC
330
1F
100
AcDbEntity
  8
0
 62
     0
370
    15
100
AcDbLine
 10
789.7177166434353
 20
444.871510963195
 30
0.0
 11
790.7402573488357
 21
446.4460855695135
 31
0.0
  0
LINE
  5
2DD
330
1F
100
AcDbEntity
  8
0
 62
     0
370
    15
100
AcDbLine
 10
790.8209220648618
 20
446.7184050870193
 30
0.0
 11
790.8209220648637
 21
447.1447253375493
 31
0.0
  0
ARC
  5
2DE
330
1F
100
AcDbEntity
  8
0
 62
     0
370
    15
100
AcDbCircle
 10
790.3209220648618
 20
446.7184050870214
 30
0.0
 40
0.5
100
AcDbArc
 50
327.0000000000893
 51
359.9999999997915
  0
ARC
  5
2DF
330
1F
100
AcDbEntity
  8
0
 62
     0
370
    15
100
AcDbCircle
 10
790.3209220648618
 20
442.3710499942386
 30
0.0
 40
0.5
100
AcDbArc
 50
0.0000000002084408
 51
32.9999999999107
  0
LINE
  5
2E0
330
1F
100
AcDbEntity
  8
0
 62
     0
370
    15
100
AcDbLine
 10
789.7177166434353
 20
444.2179441180626
 30
0.0
 11
790.7402573488357
 21
442.6433695117458
 31
0.0
  0
ARC
  5
2E1
330
1F
100
AcDbEntity
  8
0
 62
     0
370
    15
100
AcDbCircle
 10
790.2209189831951
 20
444.5447275406292
 30
0.0
 40
0.6
100
AcDbArc
 50
147.0000000000893
 51
212.9999999999983
  0
LINE
  5
2E2
330
1F
100
AcDbEntity
  8
0
 62
     0
370
    15
100
AcDbLine
 10
792.2209220648633
 20
441.7447297437095
 30
0.0
 11
791.0209220648625
 21
441.7447297437095
 31
0.0
  0
LINE
  5
2E3
330
1F
100
AcDbEntity
  8
0
 62
     0
370
    15
100
AcDbLine
 10
790.8209220648618
 20
442.3710499942401
 30
0.0
 11
790.8209220648637
 21
441.9447297437102
 31
0.0
  0
ARC
  5
2E4
330
1F
100
AcDbEntity
  8
0
 62
     0
370
    15
100
AcDbCircle
 10
791.0209220648625
 20
441.9447297437105
 30
0.0
 40
0.2
100
AcDbArc
 50
180.0
 51
270.0
  0
ARC
  5
2E5
330
1F
100
AcDbEntity
  8
0
 62
     0
370
    15
100
AcDbCircle
 10
792.2209220648633
 20
441.9447297437105
 30
0.0
 40
0.2
100
AcDbArc
 50
270.0
 51
0.0
  0
ARC
  5
2E6
330
1F
100
AcDbEntity
  8
0
 62
     0
370
    15
100
AcDbCircle
 10
792.2209220599338
 20
447.1447297410756
 30
0.0
 40
0.2
100
AcDbArc
 50
0.0000001085976733
 51
90.00000010859768
  0
LINE
  5
2E7
330
1F
100
AcDbEntity
  8
0
 62
     0
370
    15
100
AcDbLine
 10
792.2209220595555
 20
447.3447297410742
 30
0.0
 11
791.0209097434867
 21
447.3447297388004
 31
0.0
  0
ARC
  5
2E8
330
1F
100
AcDbEntity
  8
0
 62
     0
370
    15
100
AcDbCircle
 10
791.0209220599331
 20
447.1447297391783
 30
0.0
 40
0.2
100
AcDbArc
 50
90.00000010859768
 51
180.0000001085976
  0
LINE
  5
2E9
330
1F
100
AcDbEntity
  8
0
 62
     0
370
    15
100
AcDbLine
 10
792.4209206862101
 20
457.3710517551947
 30
0.0
 11
792.4209216246249
 21
456.9447315046647
 31
0.0
  0
ARC
  5
2EA
330
1F
100
AcDbEntity
  8
0
 62
     0
370
    15
100
AcDbCircle
 10
792.9209206862065
 20
457.371052855789
 30
0.0
 40
0.5
100
AcDbArc
 50
147.0001261192062
 51
180.0001261188969
  0
LINE
  5
2EB
330
1F
100
AcDbEntity
  8
0
 62
     0
370
    15
100
AcDbLine
 10
793.5241220422608
 20
459.2179483073807
 30
0.0
 11
792.5015848028047
 21
457.6433714502575
 31
0.0
  0
ARC
  5
2EC
330
1F
100
AcDbEntity
  8
0
 62
     0
370
    15
100
AcDbCircle
 10
793.0209189831925
 20
459.5447306223029
 30
0.0
 40
0.6
100
AcDbArc
 50
327.0001261191186
 51
33.00012611905239
  0
ARC
  5
2ED
330
1F
100
AcDbEntity
  8
0
 62
     0
370
    15
100
AcDbCircle
 10
792.9209111168361
 20
461.7184079485628
 30
0.0
 40
0.5
100
AcDbArc
 50
180.0001261193138
 51
213.0001261190524
  0
LINE
  5
2EE
330
1F
100
AcDbEntity
  8
0
 62
     0
370
    15
100
AcDbLine
 10
792.4209111168397
 20
461.7184068479612
 30
0.0
 11
792.4209101784249
 21
462.144727098491
 31
0.0
  0
LINE
  5
2EF
330
1F
100
AcDbEntity
  8
0
 62
     0
370
    15
100
AcDbLine
 10
793.524120603633
 20
459.8715151525132
 30
0.0
 11
792.501576432292
 21
461.446087508016
 31
0.0
  0
LINE
  5
2F0
330
1F
100
AcDbEntity
  8
0
 62
     0
370
    15
100
AcDbLine
 10
789.7177166434353
 20
459.871510963195
 30
0.0
 11
790.7402573488357
 21
461.4460855695135
 31
0.0
  0
LINE
  5
2F1
330
1F
100
AcDbEntity
  8
0
 62
     0
370
    15
100
AcDbLine
 10
790.8209220648618
 20
461.7184050870194
 30
0.0
 11
790.8209220648637
 21
462.1447253375493
 31
0.0
  0
ARC
  5
2F2
330
1F
100
AcDbEntity
  8
0
 62
     0
370
    15
100
AcDbCircle
 10
790.3209220648618
 20
461.7184050870214
 30
0.0
 40
0.5
100
AcDbArc
 50
327.0000000000893
 51
359.9999999997915
  0
ARC
  5
2F3
330
1F
100
AcDbEntity
  8
0
 62
     0
370
    15
100
AcDbCircle
 10
790.3209220648618
 20
457.3710499942386
 30
0.0
 40
0.5
100
AcDbArc
 50
0.0000000002084408
 51
32.9999999999107
  0
LINE
  5
2F4
330
1F
100
AcDbEntity
  8
0
 62
     0
370
    15
100
AcDbLine
 10
789.7177166434353
 20
459.2179441180627
 30
0.0
 11
790.7402573488357
 21
457.6433695117459
 31
0.0
  0
ARC
  5
2F5
330
1F
100
AcDbEntity
  8
0
 62
     0
370
    15
100
AcDbCircle
 10
790.2209189831951
 20
459.5447275406292
 30
0.0
 40
0.6
100
AcDbArc
 50
147.0000000000893
 51
212.9999999999983
  0
LINE
  5
2F6
330
1F
100
AcDbEntity
  8
0
 62
     0
370
    15
100
AcDbLine
 10
792.2209220648633
 20
456.7447297437095
 30
0.0
 11
791.0209220648625
 21
456.7447297437095
 31
0.0
  0
LINE
  5
2F7
330
1F
100
AcDbEntity
  8
0
 62
     0
370
    15
100
AcDbLine
 10
790.8209220648618
 20
457.3710499942401
 30
0.0
 11
790.8209220648637
 21
456.9447297437102
 31
0.0
  0
ARC
  5
2F8
330
1F
100
AcDbEntity
  8
0
 62
     0
370
    15
100
AcDbCircle
 10
791.0209220648625
 20
456.9447297437105
 30
0.0
 40
0.2
100
AcDbArc
 50
180.0
 51
270.0
  0
ARC
  5
2F9
330
1F
100
AcDbEntity
  8
0
 62
     0
370
    15
100
AcDbCircle
 10
792.2209220648633
 20
456.9447297437105
 30
0.0
 40
0.2
100
AcDbArc
 50
270.0
 51
0.0
  0
ARC
  5
2FA
330
1F
100
AcDbEntity
  8
0
 62
     0
370
    15
100
AcDbCircle
 10
792.2209220599338
 20
462.1447297410755
 30
0.0
 40
0.2
100
AcDbArc
 50
0.0000001085976733
 51
90.00000010859768
  0
LINE
  5
2FB
330
1F
100
AcDbEntity
  8
0
 62
     0
370
    15
100
AcDbLine
 10
792.2209220595555
 20
462.3447297410741
 30
0.0
 11
791.0209097434867
 21
462.3447297388004
 31
0.0
  0
ARC
  5
2FC
330
1F
100
AcDbEntity
  8
0
 62
     0
370
    15
100
AcDbCircle
 10
791.0209220599331
 20
462.1447297391783
 30
0.0
 40
0.2
100
AcDbArc
 50
90.00000010859768
 51
180.0000001085976
  0
CIRCLE
  5
2FD
330
1F
100
AcDbEntity
  8
0
 62
     0
 48
6.0
370
     5
100
AcDbCircle
 10
791.6209159015211
 20
467.0447297418227
 30
0.0
 40
3.5
  0
CIRCLE
  5
2FE
330
1F
100
AcDbEntity
  8
0
 62
     0
 48
6.0
370
    15
100
AcDbCircle
 10
791.6209159015211
 20
467.0447297418227
 30
0.0
 40
2.0
  0
LINE
  5
2FF
330
1F
100
AcDbEntity
  8
0
  6
DASHED2
 62
     0
 48
0.2
370
    15
100
AcDbLine
 10
795.8209159015218
 20
495.5447297418244
 30
0.0
 11
795.8209159015218
 21
422.0447275406292
 31
0.0
  0
LINE
  5
300
330
1F
100
AcDbEntity
  8
0
  6
DASHED2
 62
     0
 48
0.2
370
    15
100
AcDbLine
 10
787.4209159015204
 20
495.5447297418258
 30
0.0
 11
787.4209159015204
 21
422.0447275406292
 31
0.0
  0
LINE
  5
301
330
1F
100
AcDbEntity
  8
0
 62
     0
 48
6.0
370
     5
100
AcDbLine
 10
794.3709159015211
 20
495.5447297418246
 30
0.0
 11
794.3709159015211
 21
422.0447275406292
 31
0.0
  0
LINE
  5
302
330
1F
100
AcDbEntity
  8
0
 62
     0
 48
6.0
370
     5
100
AcDbLine
 10
788.8709159015211
 20
495.5447297418256
 30
0.0
 11
788.8709159015211
 21
422.0447275406292
 31
0.0
  0
LINE
  5
303
330
1F
100
AcDbEntity
  8
0
  6
Continuous
370
     0
100
AcDbLine
 10
872.7540101519057
 20
430.6959564208337
 30
0.0
 11
872.7540101519057
 21
443.9697220780309
 31
0.0
  0
LINE
  5
304
330
1F
100
AcDbEntity
  8
0
  6
Continuous
370
     0
100
AcDbLine
 10
872.7540101519057
 20
430.6959564208337
 30
0.0
 11
872.7540101519057
 21
443.9697220780309
 31
0.0
  0
LINE
  5
305
330
1F
100
AcDbEntity
  8
0
  6
Continuous
370
     0
100
AcDbLine
 10
862.2707768255873
 20
430.6959564208337
 30
0.0
 11
862.2707768255873
 21
443.9697220780309
 31
0.0
  0
LINE
  5
306
330
1F
100
AcDbEntity
  8
0
  6
Continuous
370
     0
100
AcDbLine
 10
872.7540101519057
 20
443.9697220780309
 30
0.0
 11
848.8711797101
 21
443.9697220780309
 31
0.0
  0
LINE
  5
307
330
1F
100
AcDbEntity
  8
0
  6
Continuous
370
     0
100
AcDbLine
 10
872.7540101519057
 20
430.6959564208337
 30
0.0
 11
848.8711797101
 21
430.6959564208337
 31
0.0
  0
LINE
  5
308
330
1F
100
AcDbEntity
  8
0
  6
Continuous
370
     0
100
AcDbLine
 10
848.8711797101
 20
430.6959564208337
 30
0.0
 11
848.8711797101
 21
443.9697220780309
 31
0.0
  0
LINE
  5
309
330
1F
100
AcDbEntity
  8
0
  6
Continuous
370
     0
100
AcDbLine
 10
872.7540101519057
 20
440.6512806637315
 30
0.0
 11
848.8711797101
 21
440.6512806637316
 31
0.0
  0
LINE
  5
30A
330
1F
100
AcDbEntity
  8
0
  6
Continuous
370
     0
100
AcDbLine
 10
872.7540101519021
 20
434.0143978351331
 30
0.0
 11
848.8711797101
 21
434.0143978351331
 31
0.0
  0
LINE
  5
30B
330
1F
100
AcDbEntity
  8
0
  6
Continuous
370
     0
100
AcDbLine
 10
872.7540101519021
 20
437.3328392494324
 30
0.0
 11
848.8711797101
 21
437.3328392494324
 31
0.0
  0
LINE
  5
30C
330
1F
100
AcDbEntity
  8
0
 62
     6
100
AcDbLine
 10
857.95367537212
 20
485.2124180429583
 30
0.0
 11
857.9536753721217
 21
487.2124180429593
 31
0.0
  0
LINE
  5
30D
330
1F
100
AcDbEntity
  8
0
 62
     6
100
AcDbLine
 10
845.9536753721218
 20
485.2124180429578
 30
0.0
 11
845.9536753721218
 21
487.2124180429557
 31
0.0
  0
LINE
  5
30E
330
1F
100
AcDbEntity
  8
0
 62
     6
100
AcDbLine
 10
857.9536753721217
 20
487.2124180429592
 30
0.0
 11
845.9536753721218
 21
487.2124180429557
 31
0.0
  0
LINE
  5
30F
330
1F
100
AcDbEntity
  8
0
 62
     6
100
AcDbLine
 10
846.9536753721254
 20
471.81619957513
 30
0.0
 11
856.9536753721218
 21
471.81619957513
 31
0.0
  0
ARC
  5
310
330
1F
100
AcDbEntity
  8
0
 62
     6
100
AcDbCircle
 10
856.9536753721218
 20
470.8161995751299
 30
0.0
 40
1.0
100
AcDbArc
 50
0.0
 51
90.0
  0
LINE
  5
311
330
1F
100
AcDbEntity
  8
0
 62
     6
100
AcDbLine
 10
857.9536753721217
 20
470.8161995751299
 30
0.0
 11
857.9536753721217
 21
466.1161995751299
 31
0.0
  0
ARC
  5
312
330
1F
100
AcDbEntity
  8
0
 62
     6
100
AcDbCircle
 10
846.9536753721254
 20
470.8161995751301
 30
0.0
 40
1.0
100
AcDbArc
 50
90.0
 51
180.0
  0
LINE
  5
313
330
1F
100
AcDbEntity
  8
0
 62
     6
100
AcDbLine
 10
845.9536753721236
 20
466.1161995751318
 30
0.0
 11
845.9536753721236
 21
470.8161995751301
 31
0.0
  0
LINE
  5
314
330
1F
100
AcDbEntity
  8
0
 62
     6
100
AcDbLine
 10
857.6536753721207
 20
465.8161995751298
 30
0.0
 11
846.2536753721247
 21
465.8161995751318
 31
0.0
  0
LINE
  5
315
330
1F
100
AcDbEntity
  8
0
 62
     6
100
AcDbLine
 10
873.6318606672407
 20
462.8161995751299
 30
0.0
 11
872.1318606672408
 21
462.8161995751299
 31
0.0
  0
LINE
  5
316
330
1F
100
AcDbEntity
  8
0
 62
     6
100
AcDbLine
 10
871.6318606672425
 20
463.31619957513
 30
0.0
 11
871.6318606672425
 21
465.8161995751298
 31
0.0
  0
LINE
  5
317
330
1F
100
AcDbEntity
  8
0
 62
     6
100
AcDbLine
 10
869.631860667239
 20
466.1161995751299
 30
0.0
 11
869.6318606672461
 21
470.8161995751305
 31
0.0
  0
LINE
  5
318
330
1F
100
AcDbEntity
  8
0
 62
     6
100
AcDbLine
 10
870.6318606672425
 20
471.81619957513
 30
0.0
 11
873.6318606672407
 21
471.81619957513
 31
0.0
  0
LINE
  5
319
330
1F
100
AcDbEntity
  8
0
 62
     6
100
AcDbLine
 10
873.6318606672407
 20
471.81619957513
 30
0.0
 11
873.6318606672407
 21
462.8161995751299
 31
0.0
  0
LINE
  5
31A
330
1F
100
AcDbEntity
  8
0
 62
     6
100
AcDbLine
 10
869.9318606672418
 20
465.8161995751298
 30
0.0
 11
873.6318606672407
 21
465.8161995751298
 31
0.0
  0
LINE
  5
31B
330
1F
100
AcDbEntity
  8
0
 62
     6
100
AcDbLine
 10
872.1318606672408
 20
462.8161995751299
 30
0.0
 11
871.6318606672425
 21
463.31619957513
 31
0.0
  0
LINE
  5
31C
330
1F
100
AcDbEntity
  8
0
 62
     6
100
AcDbLine
 10
855.9536753721218
 20
483.2124180429592
 30
0.0
 11
847.9536753721218
 21
483.2124180429568
 31
0.0
  0
ARC
  5
31D
330
1F
100
AcDbEntity
  8
0
 62
     6
100
AcDbCircle
 10
847.95367537212
 20
485.2124180429568
 30
0.0
 40
2.0
100
AcDbArc
 50
179.9999999999674
 51
270.0
  0
ARC
  5
31E
330
1F
100
AcDbEntity
  8
0
 62
     6
100
AcDbCircle
 10
855.9536753721181
 20
485.2124180429592
 30
0.0
 40
2.0
100
AcDbArc
 50
270.0
 51
359.999999999974
  0
LINE
  5
31F
330
1F
100
AcDbEntity
  8
0
 62
     6
100
AcDbLine
 10
873.6318606672407
 20
464.8161995751297
 30
0.0
 11
872.1318606672408
 21
464.8161995751297
 31
0.0
  0
LINE
  5
320
330
1F
100
AcDbEntity
  8
0
 62
     6
100
AcDbLine
 10
873.6318606672407
 20
465.3539170421421
 30
0.0
 11
872.1318606672408
 21
465.353917042142
 31
0.0
  0
LINE
  5
321
330
1F
100
AcDbEntity
  8
0
 62
     6
100
AcDbLine
 10
856.0536753721221
 20
464.1805965105174
 30
0.0
 11
856.0536753721258
 21
464.616199575131
 31
0.0
  0
ARC
  5
322
330
1F
100
AcDbEntity
  8
0
 62
     6
100
AcDbCircle
 10
855.853675372125
 20
464.616199575131
 30
0.0
 40
0.2
100
AcDbArc
 50
0.0
 51
90.0
  0
LINE
  5
323
330
1F
100
AcDbEntity
  8
0
 62
     6
100
AcDbLine
 10
855.853675372125
 20
464.8161995751309
 30
0.0
 11
854.1536753721244
 21
464.8161995751305
 31
0.0
  0
LINE
  5
324
330
1F
100
AcDbEntity
  8
0
 62
     6
100
AcDbLine
 10
854.5970829633583
 20
465.8161995751304
 30
0.0
 11
854.038960084857
 21
465.4253977283533
 31
0.0
  0
ARC
  5
325
330
1F
100
AcDbEntity
  8
0
 62
     6
100
AcDbCircle
 10
854.1536753721244
 20
465.2615673194957
 30
0.0
 40
0.2
100
AcDbArc
 50
124.9999999999811
 51
180.000000000013
  0
LINE
  5
326
330
1F
100
AcDbEntity
  8
0
 62
     6
100
AcDbLine
 10
853.9536753721254
 20
465.0161995751304
 30
0.0
 11
853.9536753721254
 21
465.2615673194957
 31
0.0
  0
ARC
  5
327
330
1F
100
AcDbEntity
  8
0
 62
     6
100
AcDbCircle
 10
854.1536753721244
 20
465.0161995751304
 30
0.0
 40
0.2
100
AcDbArc
 50
180.000000000013
 51
270.0
  0
ARC
  5
328
330
1F
100
AcDbEntity
  8
0
 62
     6
100
AcDbCircle
 10
855.3536753721287
 20
464.1805965105165
 30
0.0
 40
0.7
100
AcDbArc
 50
304.9999999999811
 51
0.0000000000130276
  0
LINE
  5
329
330
1F
100
AcDbEntity
  8
0
 62
     6
100
AcDbLine
 10
855.7551788775722
 20
463.6071900795143
 30
0.0
 11
854.6255273653819
 21
462.8161995751299
 31
0.0
  0
LINE
  5
32A
330
1F
100
AcDbEntity
  8
0
 62
     6
100
AcDbLine
 10
849.2818233788652
 20
462.8161995751299
 30
0.0
 11
854.6255273653819
 21
462.8161995751299
 31
0.0
  0
LINE
  5
32B
330
1F
100
AcDbEntity
  8
0
 62
     6
100
AcDbLine
 10
848.1521718666749
 20
463.6071900795136
 30
0.0
 11
849.2818233788652
 21
462.8161995751299
 31
0.0
  0
ARC
  5
32C
330
1F
100
AcDbEntity
  8
0
 62
     6
100
AcDbCircle
 10
848.5536753721222
 20
464.1805965105156
 30
0.0
 40
0.7
100
AcDbArc
 50
180.0
 51
235.0000000000189
  0
LINE
  5
32D
330
1F
100
AcDbEntity
  8
0
 62
     6
100
AcDbLine
 10
847.8536753721195
 20
464.1805965105165
 30
0.0
 11
847.8536753721195
 21
464.6161995751298
 31
0.0
  0
ARC
  5
32E
330
1F
100
AcDbEntity
  8
0
 62
     6
100
AcDbCircle
 10
848.0536753721203
 20
464.6161995751298
 30
0.0
 40
0.2
100
AcDbArc
 50
90.0
 51
180.0
  0
LINE
  5
32F
330
1F
100
AcDbEntity
  8
0
 62
     6
100
AcDbLine
 10
848.0536753721203
 20
464.8161995751297
 30
0.0
 11
849.7536753721192
 21
464.8161995751299
 31
0.0
  0
ARC
  5
330
330
1F
100
AcDbEntity
  8
0
 62
     6
100
AcDbCircle
 10
849.7536753721192
 20
465.0161995751298
 30
0.0
 40
0.2
100
AcDbArc
 50
270.0
 51
0.0
  0
LINE
  5
331
330
1F
100
AcDbEntity
  8
0
 62
     6
100
AcDbLine
 10
849.9536753721182
 20
465.0161995751298
 30
0.0
 11
849.9536753721182
 21
465.2615673194951
 31
0.0
  0
LINE
  5
332
330
1F
100
AcDbEntity
  8
0
 62
     6
100
AcDbLine
 10
849.3102677808833
 20
465.8161995751312
 30
0.0
 11
849.8683906593901
 21
465.4253977283529
 31
0.0
  0
ARC
  5
333
330
1F
100
AcDbEntity
  8
0
 62
     6
100
AcDbCircle
 10
849.7536753721192
 20
465.2615673194951
 30
0.0
 40
0.2
100
AcDbArc
 50
0.0
 51
55.0000000000189
  0
LINE
  5
334
330
1F
100
AcDbEntity
  8
0
 62
     6
100
AcDbLine
 10
857.6536753721207
 20
465.8161995751298
 30
0.0
 11
857.9536753721217
 21
466.1161995751299
 31
0.0
  0
LINE
  5
335
330
1F
100
AcDbEntity
  8
0
 62
     6
100
AcDbLine
 10
846.2536753721247
 20
465.8161995751318
 30
0.0
 11
845.9536753721236
 21
466.1161995751318
 31
0.0
  0
LINE
  5
336
330
1F
100
AcDbEntity
  8
0
 62
     6
100
AcDbLine
 10
869.9318606672418
 20
465.8161995751298
 30
0.0
 11
869.631860667239
 21
466.1161995751299
 31
0.0
  0
LINE
  5
337
330
1F
100
AcDbEntity
  8
0
 62
     6
100
AcDbLine
 10
845.9536753721236
 20
466.1161995751318
 30
0.0
 11
857.9536753721217
 21
466.1161995751299
 31
0.0
  0
LINE
  5
338
330
1F
100
AcDbEntity
  8
0
 62
     6
100
AcDbLine
 10
869.631860667239
 20
466.1161995751299
 30
0.0
 11
873.6318606672407
 21
466.11619957513
 31
0.0
  0
ARC
  5
339
330
1F
100
AcDbEntity
  8
0
 62
     6
100
AcDbCircle
 10
870.6318606672425
 20
470.8161995751299
 30
0.0
 40
1.0
100
AcDbArc
 50
90.0
 51
179.9999999999707
  0
LINE
  5
33A
330
1F
100
AcDbEntity
  8
0
 62
     6
100
AcDbLine
 10
855.0536753721221
 20
463.1159920369189
 30
0.0
 11
855.0536753721148
 21
464.8161995751307
 31
0.0
  0
LINE
  5
33B
330
1F
100
AcDbEntity
  8
0
 62
     6
100
AcDbLine
 10
848.8536753721215
 20
463.1159920369206
 30
0.0
 11
848.8536753721215
 21
464.8161995751297
 31
0.0
  0
LINE
  5
33C
330
1F
100
AcDbEntity
  8
0
 62
     6
100
AcDbLine
 10
872.1318606672408
 20
462.81619957513
 30
0.0
 11
872.1318606672408
 21
465.8161995751298
 31
0.0
  0
LINE
  5
33D
330
1F
100
AcDbEntity
  8
0
 62
     6
100
AcDbLine
 10
855.0536753721221
 20
463.31619957513
 30
0.0
 11
848.8536753721232
 21
463.31619957513
 31
0.0
  0
LINE
  5
33E
330
1F
100
AcDbEntity
  8
図枠
370
     5
100
AcDbLine
 10
879.3533499502114
 20
421.4340979513247
 30
0.0
 11
879.3533499502114
 21
418.9840979513246
 31
0.0
  0
LINE
  5
33F
330
1F
100
AcDbEntity
  8
図枠
 62
     5
370
    18
100
AcDbLine
 10
895.1033499502077
 20
505.4340979513248
 30
0.0
 11
755.1033499502077
 21
505.4340979513248
 31
0.0
  0
LINE
  5
340
330
1F
100
AcDbEntity
  8
図枠
  6
DOT
370
     5
100
AcDbLine
 10
896.8463499502062
 20
405.9535979513246
 30
0.0
 11
896.8463499502062
 21
506.9145979513248
 31
0.0
  0
LINE
  5
341
330
1F
100
AcDbEntity
  8
図枠
  6
DOT
370
     5
100
AcDbLine
 10
896.8463499502062
 20
506.9145979513248
 30
0.0
 11
753.3603499502073
 21
506.9145979513248
 31
0.0
  0
LINE
  5
342
330
1F
100
AcDbEntity
  8
図枠
  6
DOT
370
     5
100
AcDbLine
 10
753.3603499502073
 20
405.9535979513246
 30
0.0
 11
896.8463499502062
 21
405.9535979513246
 31
0.0
  0
LINE
  5
343
330
1F
100
AcDbEntity
  8
図枠
  6
DOT
370
     5
100
AcDbLine
 10
753.3603499502073
 20
405.9535979513246
 30
0.0
 11
753.3603499502073
 21
506.9145979513248
 31
0.0
  0
LINE
  5
344
330
1F
100
AcDbEntity
  8
図枠
 62
     5
370
    18
100
AcDbLine
 10
755.1033499502077
 20
407.4340979513246
 30
0.0
 11
755.1033499502077
 21
505.4340979513248
 31
0.0
  0
LINE
  5
345
330
1F
100
AcDbEntity
  8
図枠
 62
     5
370
    18
100
AcDbLine
 10
895.1033499502077
 20
407.4340979513246
 30
0.0
 11
755.1033499502077
 21
407.4340979513246
 31
0.0
  0
LINE
  5
346
330
1F
100
AcDbEntity
  8
図枠
 62
     5
370
    18
100
AcDbLine
 10
895.1033499502077
 20
407.4340979513246
 30
0.0
 11
895.1033499502077
 21
505.4340979513248
 31
0.0
  0
LINE
  5
347
330
1F
100
AcDbEntity
  8
図枠
370
     5
100
AcDbLine
 10
895.1033499502077
 20
421.4340979513247
 30
0.0
 11
844.3533499502077
 21
421.4340979513247
 31
0.0
  0
LINE
  5
348
330
1F
100
AcDbEntity
  8
図枠
370
     5
100
AcDbLine
 10
895.1033499502077
 20
418.9840979513247
 30
0.0
 11
844.3533499502077
 21
418.9840979513247
 31
0.0
  0
LINE
  5
349
330
1F
100
AcDbEntity
  8
図枠
370
     5
100
AcDbLine
 10
844.3533499502077
 20
421.4340979513247
 30
0.0
 11
844.3533499502077
 21
418.9840979513247
 31
0.0
  0
LINE
  5
34A
330
1F
100
AcDbEntity
  8
図枠
370
    18
100
AcDbLine
 10
861.9657883423183
 20
409.7981948961169
 30
0.0
 11
863.3657883423234
 21
409.7981948961169
 31
0.0
  0
LINE
  5
34B
330
1F
100
AcDbEntity
  8
図枠
370
    18
100
AcDbLine
 10
861.9657883423183
 20
408.1609334897353
 30
0.0
 11
862.8407883423202
 21
408.1609334897353
 31
0.0
  0
LINE
  5
34C
330
1F
100
AcDbEntity
  8
図枠
370
    18
100
AcDbLine
 10
867.9390365965387
 20
409.3859334897354
 30
0.0
 11
869.0419072692197
 21
409.3859334897354
 31
0.0
  0
LINE
  5
34D
330
1F
100
AcDbEntity
  8
図枠
370
    18
100
AcDbLine
 10
859.634576221109
 20
410.6109334897353
 30
0.0
 11
859.634576221109
 21
409.9109334897353
 31
0.0
  0
LINE
  5
34E
330
1F
100
AcDbEntity
  8
図枠
370
    18
100
AcDbLine
 10
864.7657883423248
 20
410.0859334897354
 30
0.0
 11
865.1157883423216
 21
410.6109334897353
 31
0.0
  0
LINE
  5
34F
330
1F
100
AcDbEntity
  8
図枠
370
    18
100
AcDbLine
 10
864.3677401155541
 20
408.9137375665946
 30
0.0
 11
864.3054043946245
 21
408.8527052161283
 31
0.0
  0
LINE
  5
350
330
1F
100
AcDbEntity
  8
図枠
370
    18
100
AcDbLine
 10
858.9345762211083
 20
409.9109334897353
 30
0.0
 11
858.9345762211083
 21
410.0859334897354
 31
0.0
  0
LINE
  5
351
330
1F
100
AcDbEntity
  8
図枠
370
    18
100
AcDbLine
 10
867.0333739358861
 20
409.1059334897353
 30
0.0
 11
866.9512406025528
 21
409.3859334897354
 31
0.0
  0
LINE
  5
352
330
1F
100
AcDbEntity
  8
図枠
370
    18
100
AcDbLine
 10
860.5095762211091
 20
410.0859334897354
 30
0.0
 11
861.0345762211085
 21
410.6109334897353
 31
0.0
  0
LINE
  5
353
330
1F
100
AcDbEntity
  8
図枠
370
    18
100
AcDbLine
 10
858.0595762211082
 20
409.3859334897354
 30
0.0
 11
858.0595762211082
 21
408.8609334897354
 31
0.0
  0
SPLINE
  5
354
330
1F
100
AcDbEntity
  8
図枠
370
    18
100
AcDbSpline
210
0.0
220
0.0
230
1.0
 70
     8
 71
     3
 72
     9
 73
     5
 74
     0
 42
0.0000000001
 43
0.0000000001
 40
0.0
 40
0.0
 40
0.0
 40
0.0
 40
0.9999999993702067
 40
1.0
 40
1.0
 40
1.0
 40
1.0
 10
861.9657883423183
 20
409.6854563024985
 30
0.0
 10
862.2998999534971
 20
409.3774778287385
 30
0.0
 10
862.6340115648869
 20
409.0694993547844
 30
0.0
 10
863.0119455029339
 20
408.8425506828567
 30
0.0
 10
863.011945503174
 20
408.8425506827138
 30
0.0
  0
SPLINE
  5
355
330
1F
100
AcDbEntity
  8
図枠
370
    18
100
AcDbSpline
210
0.0
220
0.0
230
1.0
 70
     8
 71
     3
 72
     8
 73
     4
 74
     0
 42
0.0000000001
 43
0.0000000001
 40
0.0
 40
0.0
 40
0.0
 40
0.0
 40
1.0
 40
1.0
 40
1.0
 40
1.0
 10
863.8763637202568
 20
408.4632170522102
 30
0.0
 10
864.2750439204078
 20
408.3357160804573
 30
0.0
 10
864.6954161313638
 20
408.2483247850964
 30
0.0
 10
865.1157883423216
 20
408.1609334897353
 30
0.0
  0
SPLINE
  5
356
330
1F
100
AcDbEntity
  8
図枠
370
    18
100
AcDbSpline
210
0.0
220
0.0
230
1.0
 70
     8
 71
     3
 72
     8
 73
     4
 74
     0
 42
0.0000000001
 43
0.0000000001
 40
0.0
 40
0.0
 40
0.0
 40
0.0
 40
1.0
 40
1.0
 40
1.0
 40
1.0
 10
863.1677984435878
 20
409.6002049973846
 30
0.0
 10
863.2655787931467
 20
409.4911799155221
 30
0.0
 10
863.3633591427074
 20
409.3821548336595
 30
0.0
 10
863.4692891821991
 20
409.286250246753
 30
0.0
  0
SPLINE
  5
357
330
1F
100
AcDbEntity
  8
図枠
370
    18
100
AcDbSpline
210
0.0
220
0.0
230
1.0
 70
     8
 71
     3
 72
     8
 73
     4
 74
     0
 42
0.0000000001
 43
0.0000000001
 40
0.0
 40
0.0
 40
0.0
 40
0.0
 40
1.0
 40
1.0
 40
1.0
 40
1.0
 10
864.3054043946245
 20
408.8527052161285
 30
0.0
 10
864.5643236333576
 20
408.779069258801
 30
0.0
 10
864.8400559878405
 20
408.7325013742683
 30
0.0
 10
865.1157883423216
 20
408.6859334897353
 30
0.0
  0
LINE
  5
358
330
1F
100
AcDbEntity
  8
図枠
370
    18
100
AcDbLine
 10
858.9345762211083
 20
408.8609334897354
 30
0.0
 11
858.9345762211083
 21
409.3859334897354
 31
0.0
  0
LINE
  5
359
330
1F
100
AcDbEntity
  8
図枠
370
     5
100
AcDbLine
 10
870.6033499502096
 20
421.4340979513247
 30
0.0
 11
870.6033499502078
 21
407.4340979513246
 31
0.0
  0
LINE
  5
35A
330
1F
100
AcDbEntity
  8
図枠
370
    18
100
AcDbLine
 10
861.9657883423183
 20
408.1609334897353
 30
0.0
 11
861.9657883423183
 21
408.6859334897353
 31
0.0
  0
LINE
  5
35B
330
1F
100
AcDbEntity
  8
図枠
370
    18
100
AcDbLine
 10
867.706506806256
 20
410.1939886013989
 30
0.0
 11
867.9919072692186
 21
410.6109334897353
 31
0.0
  0
LINE
  5
35C
330
1F
100
AcDbEntity
  8
図枠
370
    18
100
AcDbLine
 10
865.8919072692183
 20
410.0159334897353
 30
0.0
 11
866.7664406025519
 21
410.0159334897353
 31
0.0
  0
LINE
  5
35D
330
1F
100
AcDbEntity
  8
図枠
370
    18
100
AcDbLine
 10
860.5095762211091
 20
409.9109334897353
 30
0.0
 11
860.5095762211091
 21
410.0859334897354
 31
0.0
  0
LINE
  5
35E
330
1F
100
AcDbEntity
  8
図枠
370
    18
100
AcDbLine
 10
861.0345762211085
 20
409.9109334897353
 30
0.0
 11
860.5095762211091
 21
409.9109334897353
 31
0.0
  0
LINE
  5
35F
330
1F
100
AcDbEntity
  8
図枠
370
    18
100
AcDbLine
 10
865.8919072692183
 20
409.3859334897354
 30
0.0
 11
866.9512406025528
 21
409.3859334897354
 31
0.0
  0
LINE
  5
360
330
1F
100
AcDbEntity
  8
図枠
370
    18
100
AcDbLine
 10
858.9345762211083
 20
409.3859334897354
 30
0.0
 11
859.634576221109
 21
409.3859334897354
 31
0.0
  0
LINE
  5
361
330
1F
100
AcDbEntity
  8
図枠
370
    18
100
AcDbLine
 10
861.9657883423183
 20
409.9809334897353
 30
0.0
 11
863.7157883423183
 21
409.9809334897353
 31
0.0
  0
LINE
  5
362
330
1F
100
AcDbEntity
  8
図枠
370
    18
100
AcDbLine
 10
859.1095762211093
 20
408.6859334897353
 30
0.0
 11
858.0595762211082
 21
408.6859334897353
 31
0.0
  0
LINE
  5
363
330
1F
100
AcDbEntity
  8
図枠
370
    18
100
AcDbLine
 10
867.3619072692195
 20
407.9859334897354
 30
0.0
 11
867.2181739358853
 21
408.4759334897354
 31
0.0
  0
LINE
  5
364
330
1F
100
AcDbEntity
  8
図枠
370
    18
100
AcDbLine
 10
865.1157883423216
 20
410.6109334897353
 30
0.0
 11
861.9657883423183
 21
410.6109334897353
 31
0.0
  0
LINE
  5
365
330
1F
100
AcDbEntity
  8
図枠
370
    18
100
AcDbLine
 10
867.7577447938343
 20
410.0159334897353
 30
0.0
 11
867.706506806256
 21
410.1939886013989
 31
0.0
  0
LINE
  5
366
330
1F
100
AcDbEntity
  8
図枠
370
    18
100
AcDbLine
 10
867.7577447938343
 20
410.0159334897353
 30
0.0
 11
869.0419072692197
 21
410.0159334897353
 31
0.0
  0
LINE
  5
367
330
1F
100
AcDbEntity
  8
図枠
370
    18
100
AcDbLine
 10
865.1157883423216
 20
408.6859334897353
 30
0.0
 11
865.1157883423216
 21
408.1609334897353
 31
0.0
  0
LINE
  5
368
330
1F
100
AcDbEntity
  8
図枠
370
    18
100
AcDbLine
 10
869.0419072692197
 20
409.1059334897353
 30
0.0
 11
869.0419072692197
 21
408.4759334897354
 31
0.0
  0
LINE
  5
369
330
1F
100
AcDbEntity
  8
図枠
370
    18
100
AcDbLine
 10
864.7657883423248
 20
410.0859334897354
 30
0.0
 11
865.1157883423216
 21
410.6109334897353
 31
0.0
  0
ARC
  5
36A
330
1F
100
AcDbEntity
  8
図枠
370
    18
100
AcDbCircle
 10
862.3857883423202
 20
410.0159334897353
 30
0.0
 40
1.329999999999995
100
AcDbArc
 50
270.0
 51
298.0859048152069
  0
LINE
  5
36B
330
1F
100
AcDbEntity
  8
図枠
370
    18
100
AcDbLine
 10
868.0196107310743
 20
409.1059334897353
 30
0.0
 11
867.9390365965387
 21
409.3859334897354
 31
0.0
  0
LINE
  5
36C
330
1F
100
AcDbEntity
  8
図枠
370
    18
100
AcDbLine
 10
865.8919072692183
 20
409.1059334897353
 30
0.0
 11
867.0333739358861
 21
409.1059334897353
 31
0.0
  0
LINE
  5
36D
330
1F
100
AcDbEntity
  8
図枠
370
    18
100
AcDbLine
 10
866.7664406025519
 20
410.0159334897353
 30
0.0
 11
866.591907269219
 21
410.6109334897353
 31
0.0
  0
LINE
  5
36E
330
1F
100
AcDbEntity
  8
図枠
370
    18
100
AcDbLine
 10
868.2009025337807
 20
408.4759334897354
 30
0.0
 11
869.0419072692197
 21
408.4759334897354
 31
0.0
  0
LINE
  5
36F
330
1F
100
AcDbEntity
  8
図枠
370
    18
100
AcDbLine
 10
858.0595762211082
 20
410.6109334897353
 30
0.0
 11
858.0595762211082
 21
409.9109334897353
 31
0.0
  0
LINE
  5
370
330
1F
100
AcDbEntity
  8
図枠
370
    18
100
AcDbLine
 10
858.9345762211083
 20
410.0859334897354
 30
0.0
 11
859.459576221108
 21
410.6109334897353
 31
0.0
  0
LINE
  5
371
330
1F
100
AcDbEntity
  8
図枠
370
    18
100
AcDbLine
 10
859.459576221108
 20
410.6109334897353
 30
0.0
 11
858.0595762211082
 21
410.6109334897353
 31
0.0
  0
LINE
  5
372
330
1F
100
AcDbEntity
  8
図枠
370
    18
100
AcDbLine
 10
859.634576221109
 20
409.9109334897353
 30
0.0
 11
858.9345762211083
 21
409.9109334897353
 31
0.0
  0
LINE
  5
373
330
1F
100
AcDbEntity
  8
図枠
370
    18
100
AcDbLine
 10
865.8919072692183
 20
410.0159334897353
 30
0.0
 11
865.8919072692183
 21
409.3859334897354
 31
0.0
  0
LINE
  5
374
330
1F
100
AcDbEntity
  8
図枠
370
    18
100
AcDbLine
 10
860.5095762211091
 20
409.2109334897354
 30
0.0
 11
860.5095762211091
 21
409.3859334897354
 31
0.0
  0
LINE
  5
375
330
1F
100
AcDbEntity
  8
図枠
370
    18
100
AcDbLine
 10
861.0345762211085
 20
410.6109334897353
 30
0.0
 11
859.634576221109
 21
410.6109334897353
 31
0.0
  0
LINE
  5
376
330
1F
100
AcDbEntity
  8
図枠
370
    18
100
AcDbLine
 10
861.0345762211085
 20
409.9109334897353
 30
0.0
 11
861.0345762211085
 21
409.3859334897354
 31
0.0
  0
LINE
  5
377
330
1F
100
AcDbEntity
  8
図枠
370
    18
100
AcDbLine
 10
857.6566898870638
 20
409.9109334897353
 30
0.0
 11
857.6566898870638
 21
409.3859334897354
 31
0.0
  0
LINE
  5
378
330
1F
100
AcDbEntity
  8
図枠
370
    18
100
AcDbLine
 10
861.9657883423183
 20
409.6854563024985
 30
0.0
 11
861.9657883423183
 21
409.7981948961169
 31
0.0
  0
LINE
  5
379
330
1F
100
AcDbEntity
  8
図枠
370
    18
100
AcDbLine
 10
859.634576221109
 20
409.3859334897354
 30
0.0
 11
859.634576221109
 21
409.2109334897354
 31
0.0
  0
LINE
  5
37A
330
1F
100
AcDbEntity
  8
図枠
370
    18
100
AcDbLine
 10
868.341907269219
 20
407.9859334897354
 30
0.0
 11
867.3619072692195
 21
407.9859334897354
 31
0.0
  0
LINE
  5
37B
330
1F
100
AcDbEntity
  8
図枠
370
    18
100
AcDbLine
 10
863.5534977144102
 20
409.3792586729468
 30
0.0
 11
863.4692891821991
 21
409.286250246753
 31
0.0
  0
LINE
  5
37C
330
1F
100
AcDbEntity
  8
図枠
370
    18
100
AcDbLine
 10
858.0595762211082
 20
408.8609334897354
 30
0.0
 11
858.9345762211083
 21
408.8609334897354
 31
0.0
  0
LINE
  5
37D
330
1F
100
AcDbEntity
  8
図枠
370
    18
100
AcDbLine
 10
865.8919072692183
 20
409.1059334897353
 30
0.0
 11
865.8919072692183
 21
408.4759334897354
 31
0.0
  0
ARC
  5
37E
330
1F
100
AcDbEntity
  8
図枠
370
    18
100
AcDbCircle
 10
859.1095762211093
 20
409.2109334897354
 30
0.0
 40
0.525
100
AcDbArc
 50
270.0
 51
0.0
  0
LINE
  5
37F
330
1F
100
AcDbEntity
  8
図枠
370
    18
100
AcDbLine
 10
865.8919072692183
 20
408.4759334897354
 30
0.0
 11
867.2181739358853
 21
408.4759334897354
 31
0.0
  0
LINE
  5
380
330
1F
100
AcDbEntity
  8
図枠
370
    18
100
AcDbLine
 10
858.0595762211082
 20
408.1609334897353
 30
0.0
 11
859.459576221108
 21
408.1609334897353
 31
0.0
  0
ARC
  5
381
330
1F
100
AcDbEntity
  8
図枠
370
    18
100
AcDbCircle
 10
862.8407883423202
 20
410.0859334897354
 30
0.0
 40
1.924999999999999
100
AcDbArc
 50
322.4876119797228
 51
0.0
  0
LINE
  5
382
330
1F
100
AcDbEntity
  8
図枠
370
    18
100
AcDbLine
 10
857.6566898870638
 20
409.3859334897354
 30
0.0
 11
858.006689887064
 21
409.3859334897354
 31
0.0
  0
ARC
  5
383
330
1F
100
AcDbEntity
  8
図枠
370
    18
100
AcDbCircle
 10
862.8407883423202
 20
410.0859334897354
 30
0.0
 40
1.925000000000022
100
AcDbArc
 50
270.0
 51
302.5449588540891
  0
LINE
  5
384
330
1F
100
AcDbEntity
  8
図枠
370
    18
100
AcDbLine
 10
860.5095762211091
 20
409.3859334897354
 30
0.0
 11
861.0345762211085
 21
409.3859334897354
 31
0.0
  0
ARC
  5
385
330
1F
100
AcDbEntity
  8
図枠
370
    18
100
AcDbCircle
 10
862.3857883423202
 20
410.0159334897353
 30
0.0
 40
1.33000000000001
100
AcDbArc
 50
331.3992813832665
 51
358.4920422457636
  0
LINE
  5
386
330
1F
100
AcDbEntity
  8
図枠
370
    18
100
AcDbLine
 10
858.0595762211082
 20
408.6859334897353
 30
0.0
 11
858.0595762211082
 21
408.1609334897353
 31
0.0
  0
LINE
  5
387
330
1F
100
AcDbEntity
  8
図枠
370
    18
100
AcDbLine
 10
858.0595762211082
 20
409.3859334897354
 30
0.0
 11
858.006689887064
 21
409.3859334897354
 31
0.0
  0
LINE
  5
388
330
1F
100
AcDbEntity
  8
図枠
370
    18
100
AcDbLine
 10
861.9657883423183
 20
408.6859334897353
 30
0.0
 11
861.9657883423183
 21
408.1609334897353
 31
0.0
  0
LINE
  5
389
330
1F
100
AcDbEntity
  8
図枠
370
    18
100
AcDbLine
 10
858.0595762211082
 20
409.9109334897353
 30
0.0
 11
857.6566898870638
 21
409.9109334897353
 31
0.0
  0
LINE
  5
38A
330
1F
100
AcDbEntity
  8
図枠
370
    18
100
AcDbLine
 10
866.591907269219
 20
410.6109334897353
 30
0.0
 11
867.9919072692186
 21
410.6109334897353
 31
0.0
  0
LINE
  5
38B
330
1F
100
AcDbEntity
  8
図枠
370
    18
100
AcDbLine
 10
861.9657883423183
 20
408.6859334897353
 30
0.0
 11
862.3857883423202
 21
408.6859334897353
 31
0.0
  0
LINE
  5
38C
330
1F
100
AcDbEntity
  8
図枠
370
    18
100
AcDbLine
 10
868.0196107310743
 20
409.1059334897353
 30
0.0
 11
869.0419072692197
 21
409.1059334897353
 31
0.0
  0
LINE
  5
38D
330
1F
100
AcDbEntity
  8
図枠
370
    18
100
AcDbLine
 10
868.341907269219
 20
407.9859334897354
 30
0.0
 11
868.2009025337807
 21
408.4759334897354
 31
0.0
  0
CIRCLE
  5
38E
330
1F
100
AcDbEntity
  8
図枠
370
    18
100
AcDbCircle
 10
864.7933499502082
 20
417.0590979513246
 30
0.0
 40
0.4199999999999961
  0
CIRCLE
  5
38F
330
1F
100
AcDbEntity
  8
図枠
370
    18
100
AcDbCircle
 10
864.7933499502082
 20
417.0590979513246
 30
0.0
 40
0.4199999999999961
  0
CIRCLE
  5
390
330
1F
100
AcDbEntity
  8
図枠
370
    18
100
AcDbCircle
 10
864.7933499502082
 20
417.0590979513246
 30
0.0
 40
0.839999999999992
  0
LINE
  5
391
330
1F
100
AcDbEntity
  8
図枠
370
    18
100
AcDbLine
 10
866.7134210792987
 20
417.4790979513246
 30
0.0
 11
868.393421079299
 21
417.8990979513247
 31
0.0
  0
LINE
  5
392
330
1F
100
AcDbEntity
  8
図枠
370
     5
100
AcDbLine
 10
853.9783499502076
 20
417.0590979513246
 30
0.0
 11
860.9783499502077
 21
417.0590979513246
 31
0.0
  0
LINE
  5
393
330
1F
100
AcDbEntity
  8
図枠
370
    18
100
AcDbLine
 10
869.0419072692197
 20
410.0159334897353
 30
0.0
 11
869.0419072692197
 21
409.3859334897354
 31
0.0
  0
LINE
  5
394
330
1F
100
AcDbEntity
  8
図枠
  6
BORDER
370
    18
100
AcDbLine
 10
864.7933499502082
 20
418.3190979513247
 30
0.0
 11
864.7933499502082
 21
415.7990979513246
 31
0.0
  0
LINE
  5
395
330
1F
100
AcDbEntity
  8
図枠
  6
BORDER
370
    18
100
AcDbLine
 10
864.7933499502082
 20
418.3190979513247
 30
0.0
 11
864.7933499502082
 21
415.7990979513246
 31
0.0
  0
LINE
  5
396
330
1F
100
AcDbEntity
  8
図枠
370
     5
100
AcDbLine
 10
861.8533499502078
 20
418.9840979513247
 30
0.0
 11
861.8533499502078
 21
415.1340979513246
 31
0.0
  0
LINE
  5
397
330
1F
100
AcDbEntity
  8
図枠
370
     5
100
AcDbLine
 10
844.3533499502077
 20
415.1340979513246
 30
0.0
 11
895.1033499502077
 21
415.1340979513246
 31
0.0
  0
LINE
  5
398
330
1F
100
AcDbEntity
  8
図枠
370
     5
100
AcDbLine
 10
853.1033499502095
 20
421.4340979513247
 30
0.0
 11
853.1033499502095
 21
415.1340979513246
 31
0.0
  0
LINE
  5
399
330
1F
100
AcDbEntity
  8
図枠
370
     5
100
AcDbLine
 10
845.2283499502078
 20
417.0590979513246
 30
0.0
 11
852.2283499502076
 21
417.0590979513246
 31
0.0
  0
LINE
  5
39A
330
1F
100
AcDbEntity
  8
図枠
370
     5
100
AcDbLine
 10
858.3533499502078
 20
413.2090979513247
 30
0.0
 11
869.7283499502059
 21
413.2090979513247
 31
0.0
  0
LINE
  5
39B
330
1F
100
AcDbEntity
  8
図枠
370
     5
100
AcDbLine
 10
845.2283499502078
 20
413.2090979513247
 30
0.0
 11
856.6033499502077
 21
413.2090979513247
 31
0.0
  0
LINE
  5
39C
330
1F
100
AcDbEntity
  8
図枠
370
     5
100
AcDbLine
 10
844.3533499502077
 20
411.2840979513247
 30
0.0
 11
895.1033499502077
 21
411.2840979513247
 31
0.0
  0
LINE
  5
39D
330
1F
100
AcDbEntity
  8
図枠
370
     5
100
AcDbLine
 10
857.4783499502077
 20
415.1340979513246
 30
0.0
 11
857.4783499502077
 21
411.2840979513247
 31
0.0
  0
LINE
  5
39E
330
1F
100
AcDbEntity
  8
図枠
370
     5
100
AcDbLine
 10
844.3533499502077
 20
418.9840979513247
 30
0.0
 11
844.3533499502077
 21
407.4340979513246
 31
0.0
  0
ARC
  5
39F
330
1F
100
AcDbEntity
  8
図枠
370
    18
100
AcDbCircle
 10
859.459576221108
 20
409.2109334897354
 30
0.0
 40
1.049999999999997
100
AcDbArc
 50
270.0
 51
0.0
  0
LINE
  5
3A0
330
1F
100
AcDbEntity
  8
図枠
370
    18
100
AcDbLine
 10
861.9657883423183
 20
410.6109334897353
 30
0.0
 11
861.9657883423183
 21
409.9809334897353
 31
0.0
  0
LINE
  5
3A1
330
1F
100
AcDbEntity
  8
図枠
370
    18
100
AcDbLine
 10
866.7134210792987
 20
416.6390979513247
 30
0.0
 11
868.393421079299
 21
416.2190979513246
 31
0.0
  0
LINE
  5
3A2
330
1F
100
AcDbEntity
  8
図枠
370
    18
100
AcDbLine
 10
866.7134210792987
 20
417.4790979513246
 30
0.0
 11
866.7134210792987
 21
416.6390979513247
 31
0.0
  0
LINE
  5
3A3
330
1F
100
AcDbEntity
  8
図枠
370
    18
100
AcDbLine
 10
868.393421079299
 20
417.8990979513247
 30
0.0
 11
868.393421079299
 21
416.2190979513246
 31
0.0
  0
LINE
  5
3A4
330
1F
100
AcDbEntity
  8
図枠
370
     5
100
AcDbLine
 10
895.1033499502077
 20
418.9840979513247
 30
0.0
 11
844.3533499502077
 21
418.9840979513247
 31
0.0
  0
CIRCLE
  5
3A5
330
1F
100
AcDbEntity
  8
図枠
370
    18
100
AcDbCircle
 10
864.7933499502082
 20
417.0590979513246
 30
0.0
 40
0.4199999999999961
  0
LINE
  5
3A6
330
1F
100
AcDbEntity
  8
図枠
  6
BORDER
370
    18
100
AcDbLine
 10
863.5333499502062
 20
417.0590979513246
 30
0.0
 11
868.9233499502075
 21
417.0590979513246
 31
0.0
  0
LINE
  5
3A7
330
1F
100
AcDbEntity
  8
図枠
370
    18
100
AcDbLine
 10
863.3657883423234
 20
409.7981948961169
 30
0.0
 11
863.1677984435878
 21
409.6002049973846
 31
0.0
  0
LINE
  5
3A8
330
1F
100
AcDbEntity
  8
図枠
370
    18
100
AcDbLine
 10
868.393421079299
 20
417.8990979513247
 30
0.0
 11
868.393421079299
 21
416.2190979513246
 31
0.0
  0
LINE
  5
3A9
330
1F
100
AcDbEntity
  8
図枠
370
    18
100
AcDbLine
 10
866.7134210792987
 20
417.4790979513246
 30
0.0
 11
866.7134210792987
 21
416.6390979513247
 31
0.0
  0
LINE
  5
3AA
330
1F
100
AcDbEntity
  8
図枠
370
    18
100
AcDbLine
 10
866.7134210792987
 20
416.6390979513247
 30
0.0
 11
868.393421079299
 21
416.2190979513246
 31
0.0
  0
LINE
  5
3AB
330
1F
100
AcDbEntity
  8
図枠
370
    18
100
AcDbLine
 10
866.7134210792987
 20
417.4790979513246
 30
0.0
 11
868.393421079299
 21
417.8990979513247
 31
0.0
  0
CIRCLE
  5
3AC
330
1F
100
AcDbEntity
  8
図枠
370
    18
100
AcDbCircle
 10
864.7933499502082
 20
417.0590979513246
 30
0.0
 40
0.839999999999992
  0
CIRCLE
  5
3AD
330
1F
100
AcDbEntity
  8
図枠
370
    18
100
AcDbCircle
 10
864.7933499502082
 20
417.0590979513246
 30
0.0
 40
0.4199999999999961
  0
CIRCLE
  5
3AE
330
1F
100
AcDbEntity
  8
図枠
370
    18
100
AcDbCircle
 10
864.7933499502082
 20
417.0590979513246
 30
0.0
 40
0.839999999999992
  0
LINE
  5
3AF
330
1F
100
AcDbEntity
  8
図枠
370
    18
100
AcDbLine
 10
866.7134210792987
 20
417.4790979513246
 30
0.0
 11
868.393421079299
 21
417.8990979513247
 31
0.0
  0
LINE
  5
3B0
330
1F
100
AcDbEntity
  8
図枠
370
    18
100
AcDbLine
 10
866.7134210792987
 20
416.6390979513247
 30
0.0
 11
868.393421079299
 21
416.2190979513246
 31
0.0
  0
LINE
  5
3B1
330
1F
100
AcDbEntity
  8
図枠
370
    18
100
AcDbLine
 10
866.7134210792987
 20
417.4790979513246
 30
0.0
 11
866.7134210792987
 21
416.6390979513247
 31
0.0
  0
LINE
  5
3B2
330
1F
100
AcDbEntity
  8
図枠
370
    18
100
AcDbLine
 10
868.393421079299
 20
417.8990979513247
 30
0.0
 11
868.393421079299
 21
416.2190979513246
 31
0.0
  0
LINE
  5
3B3
330
1F
100
AcDbEntity
  8
図枠
  6
BORDER
370
    18
100
AcDbLine
 10
864.7933499502082
 20
418.3190979513247
 30
0.0
 11
864.7933499502082
 21
415.7990979513246
 31
0.0
  0
LINE
  5
3B4
330
1F
100
AcDbEntity
  8
図枠
  6
BORDER
370
    18
100
AcDbLine
 10
864.7933499502082
 20
418.3190979513247
 30
0.0
 11
864.7933499502082
 21
415.7990979513246
 31
0.0
  0
LINE
  5
3B5
330
1F
100
AcDbEntity
  8
図枠
370
    18
100
AcDbLine
 10
868.393421079299
 20
417.8990979513247
 30
0.0
 11
868.393421079299
 21
416.2190979513246
 31
0.0
  0
LINE
  5
3B6
330
1F
100
AcDbEntity
  8
図枠
370
    18
100
AcDbLine
 10
866.7134210792987
 20
417.4790979513246
 30
0.0
 11
866.7134210792987
 21
416.6390979513247
 31
0.0
  0
LINE
  5
3B7
330
1F
100
AcDbEntity
  8
図枠
370
    18
100
AcDbLine
 10
866.7134210792987
 20
416.6390979513247
 30
0.0
 11
868.393421079299
 21
416.2190979513246
 31
0.0
  0
LINE
  5
3B8
330
1F
100
AcDbEntity
  8
図枠
370
    18
100
AcDbLine
 10
866.7134210792987
 20
417.4790979513246
 30
0.0
 11
868.393421079299
 21
417.8990979513247
 31
0.0
  0
CIRCLE
  5
3B9
330
1F
100
AcDbEntity
  8
図枠
370
    18
100
AcDbCircle
 10
864.7933499502082
 20
417.0590979513246
 30
0.0
 40
0.839999999999992
  0
LINE
  5
3BA
330
1F
100
AcDbEntity
  8
図枠
 62
     5
370
    18
100
AcDbLine
 10
863.503850065093
 20
501.8527640762323
 30
0.0
 11
862.6376000650921
 21
500.3523750641758
 31
0.0
  0
LINE
  5
3BB
330
1F
100
AcDbEntity
  8
図枠
 62
     5
370
    18
100
AcDbLine
 10
863.503850065093
 20
503.5852640762323
 30
0.0
 11
862.6376000650921
 21
502.0848750641758
 31
0.0
  0
LINE
  5
3BC
330
1F
100
AcDbEntity
  8
図枠
 62
     5
370
    18
100
AcDbLine
 10
863.503850065093
 20
503.5852640762323
 30
0.0
 11
864.370100065094
 21
502.0848750641758
 31
0.0
  0
LINE
  5
3BD
330
1F
100
AcDbEntity
  8
図枠
 62
     5
370
    18
100
AcDbLine
 10
862.6376000650921
 20
502.0848750641758
 30
0.0
 11
864.370100065094
 21
502.0848750641758
 31
0.0
  0
LINE
  5
3BE
330
1F
100
AcDbEntity
  8
図枠
 62
     5
370
    18
100
AcDbLine
 10
865.0033499502091
 20
500.1840979513247
 30
0.0
 11
865.0033499502091
 21
505.4340979513248
 31
0.0
  0
LINE
  5
3BF
330
1F
100
AcDbEntity
  8
図枠
 62
     5
370
    18
100
AcDbLine
 10
888.1033499502077
 20
500.1840979513247
 30
0.0
 11
888.1033499502077
 21
505.4340979513248
 31
0.0
  0
LINE
  5
3C0
330
1F
100
AcDbEntity
  8
図枠
 62
     5
370
    18
100
AcDbLine
 10
870.6033499502078
 20
500.1840979513247
 30
0.0
 11
870.6033499502078
 21
505.4340979513248
 31
0.0
  0
LINE
  5
3C1
330
1F
100
AcDbEntity
  8
図枠
 62
     5
370
    18
100
AcDbLine
 10
862.203349950208
 20
500.1840979513247
 30
0.0
 11
895.1033499502077
 21
500.1840979513247
 31
0.0
  0
LINE
  5
3C2
330
1F
100
AcDbEntity
  8
図枠
 62
     5
370
    18
100
AcDbLine
 10
862.203349950208
 20
501.9340979513247
 30
0.0
 11
895.1033499502077
 21
501.9340979513247
 31
0.0
  0
LINE
  5
3C3
330
1F
100
AcDbEntity
  8
図枠
 62
     5
370
    18
100
AcDbLine
 10
862.203349950208
 20
503.6840979513246
 30
0.0
 11
895.1033499502077
 21
503.6840979513246
 31
0.0
  0
LINE
  5
3C4
330
1F
100
AcDbEntity
  8
図枠
 62
     5
370
    18
100
AcDbLine
 10
891.6033499502077
 20
500.1840979513247
 30
0.0
 11
891.6033499502077
 21
505.4340979513248
 31
0.0
  0
LINE
  5
3C5
330
1F
100
AcDbEntity
  8
図枠
 62
     5
370
    18
100
AcDbLine
 10
862.203349950208
 20
500.1840979513247
 30
0.0
 11
862.203349950208
 21
505.4340979513248
 31
0.0
  0
LINE
  5
3C6
330
1F
100
AcDbEntity
  8
図枠
 62
     5
370
    18
100
AcDbLine
 10
862.6376000650921
 20
500.3523750641758
 30
0.0
 11
864.370100065094
 21
500.3523750641758
 31
0.0
  0
LINE
  5
3C7
330
1F
100
AcDbEntity
  8
図枠
 62
     5
370
    18
100
AcDbLine
 10
863.503850065093
 20
501.8527640762323
 30
0.0
 11
864.370100065094
 21
500.3523750641758
 31
0.0
  0
ENDSEC
  0
SECTION
  2
OBJECTS
  0
DICTIONARY
  5
C
330
0
100
AcDbDictionary
281
     1
  3
ACAD_COLOR
350
6B
  3
ACAD_GROUP
350
D
  3
ACAD_LAYOUT
350
1A
  3
ACAD_MATERIAL
350
6A
  3
ACAD_MLINESTYLE
350
17
  3
ACAD_PLOTSETTINGS
350
19
  3
ACAD_PLOTSTYLENAME
350
E
  3
ACDBHEADERROUNDTRIPXREC
350
3CA
  3
AcDbVariableDictionary
350
5E
  0
DICTIONARY
  5
90
330
2
100
AcDbDictionary
280
     1
281
     1
  3
ACAD_LAYERSTATES
360
91
  0
DICTIONARY
  5
6B
102
{ACAD_REACTORS
330
C
102
}
330
C
100
AcDbDictionary
281
     1
  0
DICTIONARY
  5
D
102
{ACAD_REACTORS
330
C
102
}
330
C
100
AcDbDictionary
281
     1
  0
DICTIONARY
  5
1A
102
{ACAD_REACTORS
330
C
102
}
330
C
100
AcDbDictionary
281
     1
  3
Model
350
22
  3
レイアウト1
350
51
  3
レイアウト2
350
56
  0
DICTIONARY
  5
6A
102
{ACAD_REACTORS
330
C
102
}
330
C
100
AcDbDictionary
281
     1
  0
DICTIONARY
  5
17
102
{ACAD_REACTORS
330
C
102
}
330
C
100
AcDbDictionary
281
     1
  3
Standard
350
18
  0
DICTIONARY
  5
19
102
{ACAD_REACTORS
330
C
102
}
330
C
100
AcDbDictionary
281
     1
  0
ACDBDICTIONARYWDFLT
  5
E
102
{ACAD_REACTORS
330
C
102
}
330
C
100
AcDbDictionary
281
     1
  3
Normal
350
F
100
AcDbDictionaryWithDefault
340
F
  0
DICTIONARY
  5
3CA
102
{ACAD_REACTORS
330
C
102
}
330
C
100
AcDbDictionary
281
     1
  3
COLORDICT
350
3CC
  3
MATERIALDICT
350
3CB
  0
DICTIONARY
  5
5E
102
{ACAD_REACTORS
330
C
102
}
330
C
100
AcDbDictionary
281
     1
  3
DIMASSOC
350
5F
  3
HIDETEXT
350
63
  3
PROJECTNAME
350
3C8
  0
DICTIONARY
  5
91
102
{ACAD_REACTORS
330
90
102
}
330
90
100
AcDbDictionary
281
     1
  0
LAYOUT
  5
22
102
{ACAD_XDICTIONARY
360
3CD
102
}
102
{ACAD_REACTORS
330
1A
102
}
330
1A
100
AcDbPlotSettings
  1

  2
none_device
  4
ANSI_A_(8.50_x_11.00_Inches)
  6

 40
6.349999904632568
 41
19.04999923706055
 42
6.350006103515625
 43
19.04998779296875
 44
215.8999938964844
 45
279.3999938964844
 46
0.0
 47
0.0
 48
0.0
 49
0.0
140
0.0
141
0.0
142
1.0
143
78.436453180766
 70
 11952
 72
     0
 73
     1
 74
     0
  7

 75
     0
147
0.0127491741332998
148
0.0
149
0.0
100
AcDbLayout
  1
Model
 70
     1
 71
     0
 10
0.0
 20
0.0
 11
12.0
 21
9.0
 12
0.0
 22
0.0
 32
0.0
 14
0.0
 24
0.0
 34
0.0
 15
0.0
 25
0.0
 35
0.0
146
0.0
 13
0.0
 23
0.0
 33
0.0
 16
1.0
 26
0.0
 36
0.0
 17
0.0
 27
1.0
 37
0.0
 76
     0
330
1F
  0
LAYOUT
  5
51
102
{ACAD_XDICTIONARY
360
3CF
102
}
102
{ACAD_REACTORS
330
1A
102
}
330
1A
100
AcDbPlotSettings
  1

  2
None
  4

  6

 40
0.0
 41
0.0
 42
0.0
 43
0.0
 44
0.0
 45
0.0
 46
0.0
 47
0.0
 48
0.0
 49
0.0
140
0.0
141
0.0
142
1.0
143
1.0
 70
   688
 72
     0
 73
     0
 74
     5
  7

 75
    16
147
1.0
148
0.0
149
0.0
100
AcDbLayout
  1
レイアウト1
 70
     1
 71
     1
 10
0.0
 20
0.0
 11
12.0
 21
9.0
 12
0.0
 22
0.0
 32
0.0
 14
0.0
 24
0.0
 34
0.0
 15
0.0
 25
0.0
 35
0.0
146
0.0
 13
0.0
 23
0.0
 33
0.0
 16
1.0
 26
0.0
 36
0.0
 17
0.0
 27
1.0
 37
0.0
 76
     0
330
50
  0
LAYOUT
  5
56
102
{ACAD_XDICTIONARY
360
3D1
102
}
102
{ACAD_REACTORS
330
1A
102
}
330
1A
100
AcDbPlotSettings
  1

  2
None
  4

  6

 40
0.0
 41
0.0
 42
0.0
 43
0.0
 44
0.0
 45
0.0
 46
0.0
 47
0.0
 48
0.0
 49
0.0
140
0.0
141
0.0
142
1.0
143
1.0
 70
   688
 72
     0
 73
     0
 74
     5
  7

 75
    16
147
1.0
148
0.0
149
0.0
100
AcDbLayout
  1
レイアウト2
 70
     1
 71
     2
 10
0.0
 20
0.0
 11
12.0
 21
9.0
 12
0.0
 22
0.0
 32
0.0
 14
0.0
 24
0.0
 34
0.0
 15
0.0
 25
0.0
 35
0.0
146
0.0
 13
0.0
 23
0.0
 33
0.0
 16
1.0
 26
0.0
 36
0.0
 17
0.0
 27
1.0
 37
0.0
 76
     0
330
55
  0
MLINESTYLE
  5
18
102
{ACAD_REACTORS
330
17
102
}
330
17
100
AcDbMlineStyle
  2
STANDARD
 70
     0
  3

 62
   256
 51
90.0
 52
90.0
 71
     2
 49
0.5
 62
   256
  6
BYLAYER
 49
-0.5
 62
   256
  6
BYLAYER
  0
ACDBPLACEHOLDER
  5
F
102
{ACAD_REACTORS
330
E
102
}
330
E
  0
XRECORD
  5
3CC
102
{ACAD_REACTORS
330
3CA
102
}
330
3CA
100
AcDbXrecord
280
     1
340
6B
  0
XRECORD
  5
3CB
102
{ACAD_REACTORS
330
3CA
102
}
330
3CA
100
AcDbXrecord
280
     1
340
6A
  0
DICTIONARYVAR
  5
5F
102
{ACAD_REACTORS
330
5E
102
}
330
5E
100
DictionaryVariables
280
     0
  1
2
  0
DICTIONARYVAR
  5
63
102
{ACAD_REACTORS
330
5E
102
}
330
5E
100
DictionaryVariables
280
     0
  1
1
  0
DICTIONARYVAR
  5
3C8
102
{ACAD_REACTORS
330
5E
102
}
330
5E
100
DictionaryVariables
280
     0
  1

  0
DICTIONARY
  5
3CD
330
22
100
AcDbDictionary
280
     1
281
     1
  3
ACAD_XREC_ROUNDTRIP
360
3CE
  0
DICTIONARY
  5
3CF
330
51
100
AcDbDictionary
280
     1
281
     1
  3
ACAD_XREC_ROUNDTRIP
360
3D0
  0
DICTIONARY
  5
3D1
330
56
100
AcDbDictionary
280
     1
281
     1
  3
ACAD_XREC_ROUNDTRIP
360
3D2
  0
XRECORD
  5
3CE
102
{ACAD_REACTORS
330
3CD
102
}
330
3CD
100
AcDbXrecord
280
     1
102
SHADEPLOT
 70
     0
102
SHADEPLOTRESLEVEL
 70
     2
102
SHADEPLOTCUSTOMDPI
 70
   300
  0
XRECORD
  5
3D0
102
{ACAD_REACTORS
330
3CF
102
}
330
3CF
100
AcDbXrecord
280
     1
102
SHADEPLOT
 70
     0
102
SHADEPLOTRESLEVEL
 70
     2
102
SHADEPLOTCUSTOMDPI
 70
   300
  0
XRECORD
  5
3D2
102
{ACAD_REACTORS
330
3D1
102
}
330
3D1
100
AcDbXrecord
280
     1
102
SHADEPLOT
 70
     0
102
SHADEPLOTRESLEVEL
 70
     2
102
SHADEPLOTCUSTOMDPI
 70
   300
  0
ENDSEC
  0
EOF
