  0
SECTION
  2
HEADER
  9
$ACADVER
  1
AC1015
  9
$ACADMAINTVER
 70
    20
  9
$DWGCODEPAGE
  3
ANSI_932
  9
$INSBASE
 10
0.0
 20
0.0
 30
0.0
  9
$EXTMIN
 10
435.8768953243124
 20
136.7742029105582
 30
-0.0015258207003583
  9
$EXTMAX
 10
1277.971628149089
 20
732.1659404612883
 30
0.0000000349246037
  9
$LIMMIN
 10
0.0
 20
0.0
  9
$LIMMAX
 10
0.0
 20
0.0
  9
$ORTHOMODE
 70
     0
  9
$REGENMODE
 70
     1
  9
$FILLMODE
 70
     1
  9
$QTEXTMODE
 70
     0
  9
$MIRRTEXT
 70
     1
  9
$LTSCALE
 40
1.0
  9
$ATTMODE
 70
     1
  9
$TEXTSIZE
 40
0.0
  9
$TRACEWID
 40
0.05
  9
$TEXTSTYLE
  7
Standard
  9
$CLAYER
  8
0
  9
$CELTYPE
  6
Continuous
  9
$CECOLOR
 62
   256
  9
$CELTSCALE
 40
1.0
  9
$DISPSILH
 70
     0
  9
$DIMSCALE
 40
1.0
  9
$DIMASZ
 40
0.18
  9
$DIMEXO
 40
0.0625
  9
$DIMDLI
 40
0.38
  9
$DIMRND
 40
0.0
  9
$DIMDLE
 40
0.0
  9
$DIMEXE
 40
0.18
  9
$DIMTP
 40
0.0
  9
$DIMTM
 40
0.0
  9
$DIMTXT
 40
0.18
  9
$DIMCEN
 40
0.09
  9
$DIMTSZ
 40
0.0
  9
$DIMTOL
 70
     0
  9
$DIMLIM
 70
     0
  9
$DIMTIH
 70
     1
  9
$DIMTOH
 70
     1
  9
$DIMSE1
 70
     0
  9
$DIMSE2
 70
     0
  9
$DIMTAD
 70
     0
  9
$DIMZIN
 70
     0
  9
$DIMBLK
  1

  9
$DIMASO
 70
     1
  9
$DIMSHO
 70
     1
  9
$DIMPOST
  1

  9
$DIMAPOST
  1

  9
$DIMALT
 70
     0
  9
$DIMALTD
 70
     2
  9
$DIMALTF
 40
25.4
  9
$DIMLFAC
 40
1.0
  9
$DIMTOFL
 70
     0
  9
$DIMTVP
 40
0.0
  9
$DIMTIX
 70
     0
  9
$DIMSOXD
 70
     0
  9
$DIMSAH
 70
     0
  9
$DIMBLK1
  1

  9
$DIMBLK2
  1

  9
$DIMSTYLE
  2
Standard
  9
$DIMCLRD
 70
     0
  9
$DIMCLRE
 70
     0
  9
$DIMCLRT
 70
     0
  9
$DIMTFAC
 40
1.0
  9
$DIMGAP
 40
0.09
  9
$DIMJUST
 70
     0
  9
$DIMSD1
 70
     0
  9
$DIMSD2
 70
     0
  9
$DIMTOLJ
 70
     1
  9
$DIMTZIN
 70
     0
  9
$DIMALTZ
 70
     0
  9
$DIMALTTZ
 70
     0
  9
$DIMUPT
 70
     0
  9
$DIMDEC
 70
     4
  9
$DIMTDEC
 70
     4
  9
$DIMALTU
 70
     2
  9
$DIMALTTD
 70
     2
  9
$DIMTXSTY
  7
Standard
  9
$DIMAUNIT
 70
     0
  9
$DIMADEC
 70
     0
  9
$DIMALTRND
 40
0.0
  9
$DIMAZIN
 70
     0
  9
$DIMDSEP
 70
     0
  9
$DIMATFIT
 70
     3
  9
$DIMFRAC
 70
     0
  9
$DIMLDRBLK
  1

  9
$DIMLUNIT
 70
     2
  9
$DIMLWD
 70
     0
  9
$DIMLWE
 70
     0
  9
$DIMTMOVE
 70
     0
  9
$LUNITS
 70
     2
  9
$LUPREC
 70
     4
  9
$SKETCHINC
 40
0.1
  9
$FILLETRAD
 40
0.0
  9
$AUNITS
 70
     0
  9
$AUPREC
 70
     0
  9
$MENU
  1
acad
  9
$ELEVATION
 40
0.0
  9
$PELEVATION
 40
0.0
  9
$THICKNESS
 40
0.0
  9
$LIMCHECK
 70
     0
  9
$CHAMFERA
 40
0.0
  9
$CHAMFERB
 40
0.0
  9
$CHAMFERC
 40
0.0
  9
$CHAMFERD
 40
0.0
  9
$SKPOLY
 70
     0
  9
$TDCREATE
 40
2456367.447491493
  9
$TDUCREATE
 40
2456367.072491493
  9
$TDUPDATE
 40
2456386.719617326
  9
$TDUUPDATE
 40
2456386.344617326
  9
$TDINDWG
 40
0.0345249306
  9
$TDUSRTIMER
 40
0.0345240278
  9
$USRTIMER
 70
     1
  9
$ANGBASE
 50
0.0
  9
$ANGDIR
 70
     0
  9
$PDMODE
 70
     3
  9
$PDSIZE
 40
-1.0
  9
$PLINEWID
 40
0.0
  9
$SPLFRAME
 70
     0
  9
$SPLINETYPE
 70
     6
  9
$SPLINESEGS
 70
     8
  9
$HANDSEED
  5
A8C
  9
$SURFTAB1
 70
     6
  9
$SURFTAB2
 70
     6
  9
$SURFTYPE
 70
     6
  9
$SURFU
 70
     6
  9
$SURFV
 70
     6
  9
$UCSBASE
  2

  9
$UCSNAME
  2

  9
$UCSORG
 10
0.0
 20
0.0
 30
0.0
  9
$UCSXDIR
 10
1.0
 20
0.0
 30
0.0
  9
$UCSYDIR
 10
0.0
 20
1.0
 30
0.0
  9
$UCSORTHOREF
  2

  9
$UCSORTHOVIEW
 70
     0
  9
$UCSORGTOP
 10
0.0
 20
0.0
 30
0.0
  9
$UCSORGBOTTOM
 10
0.0
 20
0.0
 30
0.0
  9
$UCSORGLEFT
 10
0.0
 20
0.0
 30
0.0
  9
$UCSORGRIGHT
 10
0.0
 20
0.0
 30
0.0
  9
$UCSORGFRONT
 10
0.0
 20
0.0
 30
0.0
  9
$UCSORGBACK
 10
0.0
 20
0.0
 30
0.0
  9
$PUCSBASE
  2

  9
$PUCSNAME
  2

  9
$PUCSORG
 10
0.0
 20
0.0
 30
0.0
  9
$PUCSXDIR
 10
1.0
 20
0.0
 30
0.0
  9
$PUCSYDIR
 10
0.0
 20
1.0
 30
0.0
  9
$PUCSORTHOREF
  2

  9
$PUCSORTHOVIEW
 70
     0
  9
$PUCSORGTOP
 10
0.0
 20
0.0
 30
0.0
  9
$PUCSORGBOTTOM
 10
0.0
 20
0.0
 30
0.0
  9
$PUCSORGLEFT
 10
0.0
 20
0.0
 30
0.0
  9
$PUCSORGRIGHT
 10
0.0
 20
0.0
 30
0.0
  9
$PUCSORGFRONT
 10
0.0
 20
0.0
 30
0.0
  9
$PUCSORGBACK
 10
0.0
 20
0.0
 30
0.0
  9
$USERI1
 70
     0
  9
$USERI2
 70
     0
  9
$USERI3
 70
     0
  9
$USERI4
 70
     0
  9
$USERI5
 70
     0
  9
$USERR1
 40
0.0
  9
$USERR2
 40
0.0
  9
$USERR3
 40
0.0
  9
$USERR4
 40
0.0
  9
$USERR5
 40
0.0
  9
$WORLDVIEW
 70
     1
  9
$SHADEDGE
 70
     3
  9
$SHADEDIF
 70
    70
  9
$TILEMODE
 70
     1
  9
$MAXACTVP
 70
    16
  9
$PINSBASE
 10
0.0
 20
0.0
 30
0.0
  9
$PLIMCHECK
 70
     0
  9
$PEXTMIN
 10
1.000000000000000E+20
 20
1.000000000000000E+20
 30
1.000000000000000E+20
  9
$PEXTMAX
 10
-1.000000000000000E+20
 20
-1.000000000000000E+20
 30
-1.000000000000000E+20
  9
$PLIMMIN
 10
0.0
 20
0.0
  9
$PLIMMAX
 10
12.0
 20
9.0
  9
$UNITMODE
 70
     0
  9
$VISRETAIN
 70
     0
  9
$PLINEGEN
 70
     1
  9
$PSLTSCALE
 70
     0
  9
$TREEDEPTH
 70
  3020
  9
$CMLSTYLE
  2
Standard
  9
$CMLJUST
 70
     0
  9
$CMLSCALE
 40
1.0
  9
$PROXYGRAPHICS
 70
     0
  9
$MEASUREMENT
 70
     0
  9
$CELWEIGHT
370
     0
  9
$ENDCAPS
280
     0
  9
$JOINSTYLE
280
     0
  9
$LWDISPLAY
290
     0
  9
$INSUNITS
 70
     0
  9
$HYPERLINKBASE
  1

  9
$STYLESHEET
  1
MONOCHROME.STB
  9
$XEDIT
290
     1
  9
$CEPSNTYPE
380
     0
  9
$PSTYLEMODE
290
     0
  9
$FINGERPRINTGUID
  2

  9
$VERSIONGUID
  2
{CFE68A36-8CDD-4E87-BE33-0B99A761350E}
  9
$EXTNAMES
290
     1
  9
$PSVPSCALE
 40
0.0
  9
$OLESTARTUP
290
     0
  0
ENDSEC
  0
SECTION
  2
CLASSES
  0
CLASS
  1
IMAGE
  2
AcDbRasterImage
  3
ISM
 90
    32895
280
     0
281
     1
  0
CLASS
  1
DICTIONARYVAR
  2
AcDbDictionaryVar
  3
ObjectDBX Classes
 90
        0
280
     0
281
     0
  0
CLASS
  1
RASTERVARIABLES
  2
AcDbRasterVariables
  3
ISM
 90
    32768
280
     0
281
     0
  0
CLASS
  1
IMAGEDEF
  2
AcDbRasterImageDef
  3
ISM
 90
    32768
280
     0
281
     0
  0
CLASS
  1
IMAGEDEF_REACTOR
  2
AcDbRasterImageDefReactor
  3
ISM
 90
    32769
280
     0
281
     0
  0
CLASS
  1
IDBUFFER
  2
AcDbIdBuffer
  3
ObjectDBX Classes
 90
    32768
280
     0
281
     0
  0
CLASS
  1
SPATIAL_FILTER
  2
AcDbSpatialFilter
  3
ObjectDBX Classes
 90
    32768
280
     0
281
     0
  0
CLASS
  1
SORTENTSTABLE
  2
AcDbSortentsTable
  3
ObjectDBX Classes
 90
    32768
280
     0
281
     0
  0
CLASS
  1
LAYER_INDEX
  2
AcDbLayerIndex
  3
ObjectDBX Classes
 90
    32768
280
     0
281
     0
  0
CLASS
  1
SPATIAL_INDEX
  2
AcDbSpatialIndex
  3
ObjectDBX Classes
 90
    32768
280
     0
281
     0
  0
CLASS
  1
OBJECT_PTR
  2
CAseDLPNTableRecord
  3
ASE-LPNTableRecord
 90
    32769
280
     0
281
     0
  0
CLASS
  1
LAYOUT
  2
AcDbLayout
  3
ObjectDBX Classes
 90
        0
280
     0
281
     0
  0
CLASS
  1
PLOTSETTINGS
  2
AcDbPlotSettings
  3
ObjectDBX Classes
 90
    32768
280
     0
281
     0
  0
CLASS
  1
ACDBDICTIONARYWDFLT
  2
AcDbDictionaryWithDefault
  3
ObjectDBX Classes
 90
        0
280
     0
281
     0
  0
CLASS
  1
ACDBPLACEHOLDER
  2
AcDbPlaceHolder
  3
ObjectDBX Classes
 90
        0
280
     0
281
     0
  0
CLASS
  1
VBA_PROJECT
  2
AcDbVbaProject
  3
acad
 90
    32768
280
     0
281
     0
  0
CLASS
  1
WIPEOUT
  2
AcDbWipeout
  3
"WipeOut|Product Desc: Object Enabler for WipeOut entity^I^I^I^I^I^I|Company: Autodesk, Inc.^I^I^I^I^I^I|WEB Address: www.autodesk.com"
 90
    32895
280
     0
281
     1
  0
CLASS
  1
WIPEOUTVARIABLES
  2
AcDbWipeoutVariables
  3
"WipeOut|Product Desc:     WipeOut Dbx Application|Company:          Autodesk, Inc.|WEB Address:      www.autodesk.com"
 90
        0
280
     0
281
     0
  0
CLASS
  1
RTEXT
  2
RText
  3
RText|AutoCAD Express Tool|expresstools@autodesk.com
 90
    32768
280
     0
281
     1
  0
CLASS
  1
ARCALIGNEDTEXT
  2
AcDbArcAlignedText
  3
ATEXT|AutoCAD Express Tool|expresstools@autodesk.com
 90
    32768
280
     0
281
     1
  0
ENDSEC
  0
SECTION
  2
TABLES
  0
TABLE
  2
VPORT
  5
7
330
0
100
AcDbSymbolTable
 70
     2
  0
VPORT
  5
A84
330
7
100
AcDbSymbolTableRecord
100
AcDbViewportTableRecord
  2
*Active
 70
     0
 10
0.0
 20
0.0
 11
1.0
 21
1.0
 12
856.9242617367006
 22
434.4700716859232
 13
0.0
 23
0.0
 14
1.0
 24
1.0
 15
0.0
 25
0.0
 16
0.0
 26
0.0
 36
1.0
 17
0.0
 27
0.0
 37
0.0
 40
600.7315737619474
 41
2.724550898203592
 42
50.0
 43
0.0
 44
0.0
 50
0.0
 51
0.0
 71
     0
 72
   100
 73
     1
 74
     1
 75
     0
 76
     0
 77
     0
 78
     0
281
     0
 65
     0
110
0.0
120
0.0
130
0.0
111
1.0
121
0.0
131
0.0
112
0.0
122
1.0
132
0.0
 79
     0
146
0.0
  0
ENDTAB
  0
TABLE
  2
LTYPE
  5
4
330
0
100
AcDbSymbolTable
 70
    12
  0
LTYPE
  5
11
330
4
100
AcDbSymbolTableRecord
100
AcDbLinetypeTableRecord
  2
ByBlock
 70
     0
  3

 72
    65
 73
     0
 40
0.0
  0
LTYPE
  5
12
330
4
100
AcDbSymbolTableRecord
100
AcDbLinetypeTableRecord
  2
ByLayer
 70
     0
  3

 72
    65
 73
     0
 40
0.0
  0
LTYPE
  5
13
330
4
100
AcDbSymbolTableRecord
100
AcDbLinetypeTableRecord
  2
Continuous
 70
     0
  3
Solid line
 72
    65
 73
     0
 40
0.0
  0
LTYPE
  5
24
330
4
100
AcDbSymbolTableRecord
100
AcDbLinetypeTableRecord
  2
DOT
 70
     0
  3
. . . . . . . . 
 72
    65
 73
     2
 40
1.0
 49
0.0
 74
     0
 49
-1.0
 74
     0
  0
LTYPE
  5
25
330
4
100
AcDbSymbolTableRecord
100
AcDbLinetypeTableRecord
  2
DASHED
 70
     0
  3
___  ___  ___  ___  
 72
    65
 73
     2
 40
4.0
 49
3.0
 74
     0
 49
-1.0
 74
     0
  0
LTYPE
  5
26
330
4
100
AcDbSymbolTableRecord
100
AcDbLinetypeTableRecord
  2
HIDDEN
 70
     0
  3
__ __ __ __ 
 72
    65
 73
     2
 40
3.0
 49
2.0
 74
     0
 49
-1.0
 74
     0
  0
LTYPE
  5
27
330
4
100
AcDbSymbolTableRecord
100
AcDbLinetypeTableRecord
  2
STITCH
 70
     0
  3
_ _ _ _ 
 72
    65
 73
     2
 40
2.0
 49
1.0
 74
     0
 49
-1.0
 74
     0
  0
LTYPE
  5
28
330
4
100
AcDbSymbolTableRecord
100
AcDbLinetypeTableRecord
  2
CENTER
 70
     0
  3
______  __  ______  __  
 72
    65
 73
     4
 40
43.0
 49
40.0
 74
     0
 49
-1.0
 74
     0
 49
1.0
 74
     0
 49
-1.0
 74
     0
  0
LTYPE
  5
29
330
4
100
AcDbSymbolTableRecord
100
AcDbLinetypeTableRecord
  2
DASHDOT
 70
     0
  3
____ . ____ . 
 72
    65
 73
     4
 40
32.0
 49
30.0
 74
     0
 49
-1.0
 74
     0
 49
0.0
 74
     0
 49
-1.0
 74
     0
  0
LTYPE
  5
2A
330
4
100
AcDbSymbolTableRecord
100
AcDbLinetypeTableRecord
  2
BORDER
 70
     0
  3
__ . __ . 
 72
    65
 73
     4
 40
22.0
 49
20.0
 74
     0
 49
-1.0
 74
     0
 49
0.0
 74
     0
 49
-1.0
 74
     0
  0
LTYPE
  5
2B
330
4
100
AcDbSymbolTableRecord
100
AcDbLinetypeTableRecord
  2
CUTTING
 70
     0
  3
________   ___   ___   
 72
    65
 73
     6
 40
45.0
 49
40.0
 74
     0
 49
-1.0
 74
     0
 49
1.0
 74
     0
 49
-1.0
 74
     0
 49
1.0
 74
     0
 49
-1.0
 74
     0
  0
LTYPE
  5
2C
330
4
100
AcDbSymbolTableRecord
100
AcDbLinetypeTableRecord
  2
PHANTOM
 70
     0
  3
______  __  __  
 72
    65
 73
     6
 40
35.0
 49
30.0
 74
     0
 49
-1.0
 74
     0
 49
1.0
 74
     0
 49
-1.0
 74
     0
 49
1.0
 74
     0
 49
-1.0
 74
     0
  0
LTYPE
  5
2D
330
4
100
AcDbSymbolTableRecord
100
AcDbLinetypeTableRecord
  2
DIVIDE
 70
     0
  3
____ . . ____ . . 
 72
    65
 73
     6
 40
23.0
 49
20.0
 74
     0
 49
-1.0
 74
     0
 49
0.0
 74
     0
 49
-1.0
 74
     0
 49
0.0
 74
     0
 49
-1.0
 74
     0
  0
LTYPE
  5
288
330
4
100
AcDbSymbolTableRecord
100
AcDbLinetypeTableRecord
  2
CENTER2
 70
     0
  3

 72
    65
 73
     4
 40
23.0
 49
20.0
 74
     0
 49
-1.0
 74
     0
 49
1.0
 74
     0
 49
-1.0
 74
     0
  0
ENDTAB
  0
TABLE
  2
LAYER
  5
2
102
{ACAD_XDICTIONARY
360
28C
102
}
330
0
100
AcDbSymbolTable
 70
     6
  0
LAYER
  5
14
330
2
100
AcDbSymbolTableRecord
100
AcDbLayerTableRecord
  2
0
 70
     0
 62
     7
  6
Continuous
370
    -3
390
1D
  0
LAYER
  5
3D
330
2
100
AcDbSymbolTableRecord
100
AcDbLayerTableRecord
  2
寸法線
 70
     0
 62
     7
  6
Continuous
370
    -3
390
1F
  0
LAYER
  5
119
330
2
100
AcDbSymbolTableRecord
100
AcDbLayerTableRecord
  2
ﾚｲﾔｰ1
 70
     0
 62
     7
  6
Continuous
370
    -3
390
1F
  0
LAYER
  5
11B
330
2
100
AcDbSymbolTableRecord
100
AcDbLayerTableRecord
  2
Layer1
 70
     0
 62
     7
  6
Continuous
370
    -3
390
1F
  0
LAYER
  5
289
330
2
100
AcDbSymbolTableRecord
100
AcDbLayerTableRecord
  2
DEFPOINTS
 70
     0
 62
     7
  6
Continuous
290
     0
370
    -3
390
1D
  0
LAYER
  5
28A
330
2
100
AcDbSymbolTableRecord
100
AcDbLayerTableRecord
  2
____1
 70
     0
 62
     3
  6
CENTER2
370
    -3
390
1D
  0
ENDTAB
  0
TABLE
  2
STYLE
  5
3
330
0
100
AcDbSymbolTable
 70
     2
  0
STYLE
  5
17
330
3
100
AcDbSymbolTableRecord
100
AcDbTextStyleTableRecord
  2
Standard
 70
     0
 40
0.0
 41
1.0
 50
0.0
 71
     0
 42
0.0
  3
txt
  4
extfont
  0
STYLE
  5
28B
330
3
100
AcDbSymbolTableRecord
100
AcDbTextStyleTableRecord
  2
STYLE1
 70
     0
 40
0.0
 41
1.0
 50
0.0
 71
     0
 42
0.35
  3
ＭＳ ゴシック
  4

  0
ENDTAB
  0
TABLE
  2
VIEW
  5
5
330
0
100
AcDbSymbolTable
 70
     0
  0
ENDTAB
  0
TABLE
  2
UCS
  5
6
330
0
100
AcDbSymbolTable
 70
     0
  0
ENDTAB
  0
TABLE
  2
APPID
  5
8
330
0
100
AcDbSymbolTable
 70
     2
  0
APPID
  5
16
330
8
100
AcDbSymbolTableRecord
100
AcDbRegAppTableRecord
  2
ACAD
 70
     0
  0
APPID
  5
27F
330
8
100
AcDbSymbolTableRecord
100
AcDbRegAppTableRecord
  2
DCO15
 70
     0
  0
ENDTAB
  0
TABLE
  2
DIMSTYLE
  5
9
330
0
100
AcDbSymbolTable
 70
     4
100
AcDbDimStyleTable
 71
     0
  0
DIMSTYLE
105
18
330
9
100
AcDbSymbolTableRecord
100
AcDbDimStyleTableRecord
  2
Standard
 70
     0
340
17
  0
DIMSTYLE
105
2E
330
9
100
AcDbSymbolTableRecord
100
AcDbDimStyleTableRecord
  2
VELDIM0
 70
     0
 41
6.0
 44
0.5
 46
3.0
 73
     0
 74
     0
 78
     8
140
5.9972220421
271
     3
340
17
  0
DIMSTYLE
105
A8
330
9
100
AcDbSymbolTableRecord
100
AcDbDimStyleTableRecord
  2
VELDIM1
 70
     0
 41
6.0
 44
1.25
 46
5.0
 73
     0
 74
     0
 78
     8
140
5.9972220421
271
     3
340
17
  0
DIMSTYLE
105
189
330
9
100
AcDbSymbolTableRecord
100
AcDbDimStyleTableRecord
  2
VELDIM2
 70
     0
 41
6.0
 44
1.25
 46
5.0
 73
     0
 74
     0
 78
     8
140
5.9972220421
271
     3
340
17
  0
ENDTAB
  0
TABLE
  2
BLOCK_RECORD
  5
1
330
0
100
AcDbSymbolTable
 70
     2
  0
BLOCK_RECORD
  5
A
330
1
100
AcDbSymbolTableRecord
100
AcDbBlockTableRecord
  2
*MODEL_SPACE
340
20
  0
BLOCK_RECORD
  5
B
330
1
100
AcDbSymbolTableRecord
100
AcDbBlockTableRecord
  2
*PAPER_SPACE
340
21
  0
BLOCK_RECORD
  5
1E1
330
1
100
AcDbSymbolTableRecord
100
AcDbBlockTableRecord
  2
CLUMP0
340
0
  0
BLOCK_RECORD
  5
250
330
1
100
AcDbSymbolTableRecord
100
AcDbBlockTableRecord
  2
CLUMP1
340
0
  0
ENDTAB
  0
ENDSEC
  0
SECTION
  2
BLOCKS
  0
BLOCK
  5
D
330
A
100
AcDbEntity
  8
0
100
AcDbBlockBegin
  2
*MODEL_SPACE
 70
     0
 10
0.0
 20
0.0
 30
0.0
  3
*MODEL_SPACE
  1

  0
ENDBLK
  5
E
330
A
100
AcDbEntity
  8
0
100
AcDbBlockEnd
  0
BLOCK
  5
F
330
B
100
AcDbEntity
 67
     1
  8
0
100
AcDbBlockBegin
  2
*PAPER_SPACE
 70
     0
 10
0.0
 20
0.0
 30
0.0
  3
*PAPER_SPACE
  1

  0
ENDBLK
  5
10
330
B
100
AcDbEntity
 67
     1
  8
0
100
AcDbBlockEnd
  0
BLOCK
  5
1E3
330
1E1
100
AcDbEntity
  8
0
100
AcDbBlockBegin
  2
CLUMP0
 70
     0
 10
0.0
 20
0.0
 30
0.0
  3
CLUMP0
  1

  0
LINE
  5
1E4
330
1E1
100
AcDbEntity
  8
Layer1
 62
     5
370
    18
100
AcDbLine
 10
1051.3818551024
 20
-121.0560798201
 30
0.0
 11
1051.3818551024
 21
-151.9995349938
 31
0.0
  0
ARC
  5
1E5
330
1E1
100
AcDbEntity
  8
Layer1
 62
     5
370
    18
100
AcDbCircle
 10
631.6153453555
 20
-712.1745766503997
 30
0.0
 40
725.0
100
AcDbArc
 50
54.62058428189999
 51
68.63458902579998
  0
ARC
  5
1E6
330
1E1
100
AcDbEntity
  8
Layer1
 62
     5
370
    18
100
AcDbCircle
 10
631.6153453555
 20
-712.1745766503997
 30
0.0
 40
700.0
100
AcDbArc
 50
53.15398791729999
 51
72.97014177189999
  0
LINE
  5
1E7
330
1E1
100
AcDbEntity
  8
Layer1
 62
     5
370
    18
100
AcDbLine
 10
834.502968524
 20
-36.99953499380001
 30
0.0
 11
895.7434641236998
 21
-36.99953499380001
 31
0.0
  0
LINE
  5
1E8
330
1E1
100
AcDbEntity
  8
Layer1
 62
     5
370
    18
100
AcDbLine
 10
834.502968524
 20
-39.9995352674
 30
0.0
 11
834.502968524
 21
-36.99953499380001
 31
0.0
  0
ARC
  5
1E9
330
1E1
100
AcDbEntity
  8
Layer1
 62
     5
370
    18
100
AcDbCircle
 10
837.5029685239999
 20
-39.9995349938
 30
0.0
 40
3.0
100
AcDbArc
 50
180.0000052256
 51
252.9701417719
  0
ENDBLK
  5
1EA
330
1E1
100
AcDbEntity
  8
0
100
AcDbBlockEnd
  0
BLOCK
  5
252
330
250
100
AcDbEntity
  8
0
100
AcDbBlockBegin
  2
CLUMP1
 70
     0
 10
0.0
 20
0.0
 30
0.0
  3
CLUMP1
  1

  0
MTEXT
  5
253
330
250
100
AcDbEntity
  8
ﾚｲﾔｰ1
370
     5
100
AcDbMText
 10
815.6513257471997
 20
-276.0345251893
 30
0.0
 40
5.9972220421
 41
18.4230131025
 71
     1
 72
     1
  1
\W0.8;\fＭＳ ゴシック;\W1.0;ＨＬ
 73
     1
 44
1.0
1001
ACAD
1000
MTEXTBEGIN
1070
    73
1070
     1
1070
    44
1040
1.0
1070
    74
1070
     0
1000
MTEXTEND
  0
LINE
  5
254
330
250
100
AcDbEntity
  8
ﾚｲﾔｰ1
370
     5
100
AcDbLine
 10
793.7283664523
 20
-286.9888122294
 30
0.0
 11
853.7283664523
 21
-286.9888122294
 31
0.0
  0
LINE
  5
255
330
250
100
AcDbEntity
  8
ﾚｲﾔｰ1
370
     5
100
AcDbLine
 10
795.7283664522998
 20
-288.9888122294
 30
0.0
 11
855.7283664523
 21
-288.9888122294
 31
0.0
  0
LINE
  5
256
330
250
100
AcDbEntity
  8
ﾚｲﾔｰ1
370
     5
100
AcDbLine
 10
797.7283664523
 20
-290.9888122294
 30
0.0
 11
857.7283664522997
 21
-290.9888122294
 31
0.0
  0
LINE
  5
257
330
250
100
AcDbEntity
  8
ﾚｲﾔｰ1
370
     5
100
AcDbLine
 10
799.7283664522998
 20
-292.9888122294
 30
0.0
 11
859.7283664522999
 21
-292.9888122294
 31
0.0
  0
LINE
  5
258
330
250
100
AcDbEntity
  8
ﾚｲﾔｰ1
370
     5
100
AcDbLine
 10
801.7283664522999
 20
-294.9888122294
 30
0.0
 11
861.7283664522998
 21
-294.9888122294
 31
0.0
  0
LINE
  5
259
330
250
100
AcDbEntity
  8
ﾚｲﾔｰ1
370
     5
100
AcDbLine
 10
803.7283664522998
 20
-296.9888122294
 30
0.0
 11
863.7283664523
 21
-296.9888122294
 31
0.0
  0
LINE
  5
25A
330
250
100
AcDbEntity
  8
ﾚｲﾔｰ1
370
     5
100
AcDbLine
 10
805.7283664523
 20
-298.9888122294
 30
0.0
 11
865.7283664522998
 21
-298.9888122294
 31
0.0
  0
LINE
  5
25B
330
250
100
AcDbEntity
  8
ﾚｲﾔｰ1
370
     5
100
AcDbLine
 10
791.7283664522998
 20
-284.9888122294
 30
0.0
 11
851.7283664522999
 21
-284.9888122294
 31
0.0
  0
ENDBLK
  5
25C
330
250
100
AcDbEntity
  8
0
100
AcDbBlockEnd
  0
ENDSEC
  0
SECTION
  2
ENTITIES
  0
MTEXT
  5
5DF
330
A
100
AcDbEntity
  8
____1
  6
Continuous
 62
     7
100
AcDbMText
 10
1015.937625764881
 20
209.7599872404333
 30
0.0
 40
5.644444274902342
 41
46.0
 71
     2
 72
     1
  1
\W0.8;\fＭＳ ゴシック;\W1.0;SUS304 HL
  7
STYLE1
 73
     1
 44
1.0
1001
ACAD
1000
MTEXTBEGIN
1070
    73
1070
     1
1070
    44
1040
1.0
1070
    74
1070
     0
1000
MTEXTEND
  0
MTEXT
  5
5E0
330
A
100
AcDbEntity
  8
____1
  6
Continuous
 62
     7
100
AcDbMText
 10
1055.93762576488
 20
209.7599872404333
 30
0.0
 40
5.644444274902342
 41
46.0
 71
     2
 72
     1
  1
\W0.8;\fＭＳ ゴシック;\W1.0;5.0t
  7
STYLE1
 73
     1
 44
1.0
1001
ACAD
1000
MTEXTBEGIN
1070
    73
1070
     1
1070
    44
1040
1.0
1070
    74
1070
     0
1000
MTEXTEND
  0
MTEXT
  5
5E1
330
A
100
AcDbEntity
  8
____1
  6
Continuous
 62
     0
100
AcDbMText
 10
955.9376257648803
 20
234.1331764666198
 30
0.0
 40
6.773332977294923
 41
121.977129013
 71
     1
 72
     1
  1
\W0.8;\fＭＳ ゴシック;\W1.0;表面処理：電解研磨仕上げ
  7
STYLE1
 73
     1
 44
1.0
1001
ACAD
1000
MTEXTBEGIN
1070
    73
1070
     1
1070
    44
1040
1.0
1070
    74
1070
     0
1000
MTEXTEND
  0
LINE
  5
5E2
330
A
100
AcDbEntity
  8
____1
  6
Continuous
 62
     0
100
AcDbLine
 10
1049.525042037467
 20
167.4736600820235
 30
0.0
 11
1049.525042037467
 21
166.5136600820235
 31
0.0
  0
LINE
  5
5E3
330
A
100
AcDbEntity
  8
____1
  6
Continuous
 62
     0
100
AcDbLine
 10
1097.290972358534
 20
159.7936600820235
 30
0.0
 11
1091.914972358534
 21
159.7936600820235
 31
0.0
  0
TEXT
  5
5E4
330
A
100
AcDbEntity
  8
____1
  6
Continuous
 62
     7
100
AcDbText
 10
967.1181811085087
 20
203.7333668524113
 30
0.0
 40
5.644444274902342
  1
H14.5
  7
STYLE1
100
AcDbText
  0
TEXT
  5
5E5
330
A
100
AcDbEntity
  8
____1
  6
Continuous
 62
     7
100
AcDbText
 10
998.0479889821353
 20
214.7477015398065
 30
0.0
 40
5.644444274902342
  1
 材　　質
  7
STYLE1
100
AcDbText
  0
TEXT
  5
5E6
330
A
100
AcDbEntity
  8
____1
  6
Continuous
 62
     7
100
AcDbText
 10
1038.047988982135
 20
214.7477015398065
 30
0.0
 40
5.644444274902342
  1
 板　　厚
  7
STYLE1
100
AcDbText
  0
TEXT
  5
5E7
330
A
100
AcDbEntity
  8
____1
  6
Continuous
 62
     7
100
AcDbText
 10
1048.882070421253
 20
181.7333668524113
 30
0.0
 40
5.644444274902342
  1
1：2
  7
STYLE1
100
AcDbText
  0
TEXT
  5
5E8
330
A
100
AcDbEntity
  8
____1
  6
Continuous
 62
     7
100
AcDbText
 10
1038.047988982135
 20
192.7477015398065
 30
0.0
 40
5.644444274902342
  1
 尺　　度
  7
STYLE1
100
AcDbText
  0
LINE
  5
5E9
330
A
100
AcDbEntity
  8
____1
  6
Continuous
 62
     7
100
AcDbLine
 10
955.9376257648803
 20
200.7935955072333
 30
0.0
 11
1075.937625764881
 21
200.7935955072333
 31
0.0
  0
LINE
  5
5EA
330
A
100
AcDbEntity
  8
____1
  6
Continuous
 62
     7
100
AcDbLine
 10
1115.937625764881
 20
200.7935955072333
 30
0.0
 11
1255.937625764881
 21
200.7935955072333
 31
0.0
  0
LINE
  5
5EB
330
A
100
AcDbEntity
  8
____1
  6
Continuous
 62
     7
100
AcDbLine
 10
1075.937625764881
 20
211.7935955072333
 30
0.0
 11
1115.937625764881
 21
211.7935955072333
 31
0.0
  0
TEXT
  5
5EC
330
A
100
AcDbEntity
  8
____1
  6
Continuous
 62
     7
100
AcDbText
 10
1078.047988982135
 20
214.7477015398065
 30
0.0
 40
5.644444274902342
  1
 検　　印
  7
STYLE1
100
AcDbText
  0
LINE
  5
5ED
330
A
100
AcDbEntity
  8
____1
  6
Continuous
 62
     0
100
AcDbLine
 10
1083.850972358534
 20
170.9296600820235
 30
0.0
 11
1083.850972358534
 21
167.4736600820235
 31
0.0
  0
TEXT
  5
5EE
330
A
100
AcDbEntity
  8
____1
  6
Continuous
 62
     7
100
AcDbText
 10
979.9564843150182
 20
161.9578346419959
 30
0.0
 40
10.15999984741211
  1
株式会社
  7
STYLE1
100
AcDbText
  0
LINE
  5
5EF
330
A
100
AcDbEntity
  8
____1
  6
Continuous
 62
     7
100
AcDbLine
 10
955.9376257648803
 20
178.7935955072333
 30
0.0
 11
1255.937625764881
 21
178.7935955072333
 31
0.0
  0
LINE
  5
5F0
330
A
100
AcDbEntity
  8
____1
  6
Continuous
 62
     7
100
AcDbLine
 10
1035.937625764881
 20
222.7935955072333
 30
0.0
 11
1035.937625764881
 21
200.7935955072333
 31
0.0
  0
LINE
  5
5F1
330
A
100
AcDbEntity
  8
____1
  6
Continuous
 62
     7
100
AcDbLine
 10
1075.937625764881
 20
222.7935955072333
 30
0.0
 11
1075.937625764881
 21
178.7935955072333
 31
0.0
  0
LINE
  5
5F2
330
A
100
AcDbEntity
  8
____1
  6
Continuous
 62
     7
100
AcDbLine
 10
1115.937625764881
 20
222.7935955072333
 30
0.0
 11
1115.937625764881
 21
156.7935955072333
 31
0.0
  0
LINE
  5
5F3
330
A
100
AcDbEntity
  8
____1
  6
Continuous
 62
     7
100
AcDbLine
 10
1255.937625764881
 20
222.7935955072333
 30
0.0
 11
955.9376257648803
 21
222.7935955072333
 31
0.0
  0
LINE
  5
5F4
330
A
100
AcDbEntity
  8
____1
  6
Continuous
 62
     0
100
AcDbLine
 10
1054.325042037467
 20
166.5136600820235
 30
0.0
 11
1054.325042037467
 21
167.4736600820235
 31
0.0
  0
ARC
  5
5F5
330
A
100
AcDbEntity
  8
____1
  6
Continuous
 62
     0
100
AcDbCircle
 10
1046.645042037467
 20
166.5136600820235
 30
0.0
 40
2.879999999999999
100
AcDbArc
 50
270.0
 51
0.0
  0
LINE
  5
5F6
330
A
100
AcDbEntity
  8
____1
  6
Continuous
 62
     0
100
AcDbLine
 10
1083.850972358534
 20
162.4816600820235
 30
0.0
 11
1091.126492358535
 21
162.4816600820235
 31
0.0
  0
LINE
  5
5F7
330
A
100
AcDbEntity
  8
____1
  6
Continuous
 62
     0
100
AcDbLine
 10
1040.885042037467
 20
160.7536600820235
 30
0.0
 11
1048.565042037466
 21
160.7536600820235
 31
0.0
  0
ARC
  5
5F8
330
A
100
AcDbEntity
  8
____1
  6
Continuous
 62
     0
100
AcDbCircle
 10
1067.113405673829
 20
171.3136600820235
 30
0.0
 40
10.56
100
AcDbArc
 50
322.4876119796974
 51
0.0
  0
LINE
  5
5F9
330
A
100
AcDbEntity
  8
____1
  6
Continuous
 62
     0
100
AcDbLine
 10
1095.522945635005
 20
165.9376600820234
 30
0.0
 11
1101.130972358534
 21
165.9376600820234
 31
0.0
  0
ARC
  5
5FA
330
A
100
AcDbEntity
  8
____1
  6
Continuous
 62
     0
100
AcDbCircle
 10
1048.565042037466
 20
166.5136600820235
 30
0.0
 40
5.759999999999998
100
AcDbArc
 50
270.0
 51
0.0
  0
LINE
  5
5FB
330
A
100
AcDbEntity
  8
____1
  6
Continuous
 62
     5
100
AcDbLine
 10
1255.937625764881
 20
156.7935955072333
 30
0.0
 11
1255.937625764881
 21
222.7935955072333
 31
0.0
  0
LINE
  5
5FC
330
A
100
AcDbEntity
  8
____1
  6
Continuous
 62
     0
100
AcDbLine
 10
1062.31340567383
 20
174.1936600820235
 30
0.0
 11
1062.31340567383
 21
170.7376600820234
 31
0.0
  0
LINE
  5
5FD
330
A
100
AcDbEntity
  8
____1
  6
Continuous
 62
     0
100
AcDbLine
 10
1057.205042037467
 20
174.1936600820235
 30
0.0
 11
1049.525042037467
 21
174.1936600820235
 31
0.0
  0
LINE
  5
5FE
330
A
100
AcDbEntity
  8
____1
  6
Continuous
 62
     0
100
AcDbLine
 10
1057.205042037467
 20
170.3536600820235
 30
0.0
 11
1057.205042037467
 21
167.4736600820235
 31
0.0
  0
LINE
  5
5FF
330
A
100
AcDbEntity
  8
____1
  6
Continuous
 62
     0
100
AcDbLine
 10
1038.674922719284
 20
170.3536600820235
 30
0.0
 11
1038.674922719284
 21
167.4736600820235
 31
0.0
  0
LINE
  5
600
330
A
100
AcDbEntity
  8
____1
  6
Continuous
 62
     0
100
AcDbLine
 10
1062.31340567383
 20
169.1167566548951
 30
0.0
 11
1062.31340567383
 21
169.7352083684593
 31
0.0
  0
LINE
  5
601
330
A
100
AcDbEntity
  8
____1
  6
Continuous
 62
     0
100
AcDbLine
 10
1069.99340567383
 20
169.7352083684593
 30
0.0
 11
1068.907289657927
 21
168.6490923525568
 31
0.0
  0
ARC
  5
602
330
A
100
AcDbEntity
  8
____1
  6
Continuous
 62
     0
100
AcDbCircle
 10
1064.61740567383
 20
170.9296600820235
 30
0.0
 40
7.29599999999998
100
AcDbArc
 50
270.0
 51
298.0859048152069
  0
LINE
  5
603
330
A
100
AcDbEntity
  8
____1
  6
Continuous
 62
     0
100
AcDbLine
 10
1062.31340567383
 20
169.7352083684593
 30
0.0
 11
1069.99340567383
 21
169.7352083684593
 31
0.0
  0
LINE
  5
604
330
A
100
AcDbEntity
  8
____1
  6
Continuous
 62
     0
100
AcDbLine
 10
1071.023125657868
 20
167.4370439442123
 30
0.0
 11
1070.561181709739
 21
166.9268262919488
 31
0.0
  0
LINE
  5
605
330
A
100
AcDbEntity
  8
____1
  6
Continuous
 62
     5
100
AcDbLine
 10
955.9376257648803
 20
156.7935955072333
 30
0.0
 11
1255.937625764881
 21
156.7935955072333
 31
0.0
  0
LINE
  5
606
330
A
100
AcDbEntity
  8
____1
  6
Continuous
 62
     0
100
AcDbLine
 10
1049.525042037467
 20
174.1936600820235
 30
0.0
 11
1049.525042037467
 21
170.3536600820235
 31
0.0
  0
LINE
  5
607
330
A
100
AcDbEntity
  8
____1
  6
Continuous
 62
     0
100
AcDbLine
 10
1062.31340567383
 20
160.7536600820235
 30
0.0
 11
1067.113405673829
 21
160.7536600820235
 31
0.0
  0
LINE
  5
608
330
A
100
AcDbEntity
  8
____1
  6
Continuous
 62
     0
100
AcDbLine
 10
1095.080938954123
 20
167.4736600820235
 30
0.0
 11
1101.130972358534
 21
167.4736600820235
 31
0.0
  0
LINE
  5
609
330
A
100
AcDbEntity
  8
____1
  6
Continuous
 62
     0
100
AcDbLine
 10
1077.67340567383
 20
171.3136600820235
 30
0.0
 11
1079.59340567383
 21
174.1936600820235
 31
0.0
  0
LINE
  5
60A
330
A
100
AcDbEntity
  8
____1
  6
Continuous
 62
     0
100
AcDbLine
 10
1075.489826829838
 20
164.8833281607943
 30
0.0
 11
1075.147870875037
 21
164.5485221239504
 31
0.0
  0
LINE
  5
60B
330
A
100
AcDbEntity
  8
____1
  6
Continuous
 62
     0
100
AcDbLine
 10
1045.685042037466
 20
170.3536600820235
 30
0.0
 11
1045.685042037466
 21
171.3136600820235
 31
0.0
  0
LINE
  5
60C
330
A
100
AcDbEntity
  8
____1
  6
Continuous
 62
     0
100
AcDbLine
 10
1090.112732358534
 20
165.9376600820234
 30
0.0
 11
1089.662172358534
 21
167.4736600820235
 31
0.0
  0
LINE
  5
60D
330
A
100
AcDbEntity
  8
____1
  6
Continuous
 62
     0
100
AcDbLine
 10
1054.325042037467
 20
171.3136600820235
 30
0.0
 11
1057.205042037467
 21
174.1936600820235
 31
0.0
  0
LINE
  5
60E
330
A
100
AcDbEntity
  8
____1
  6
Continuous
 62
     0
100
AcDbLine
 10
1040.885042037467
 20
164.5936600820235
 30
0.0
 11
1045.685042037466
 21
164.5936600820235
 31
0.0
  0
TEXT
  5
60F
330
A
100
AcDbEntity
  8
____1
  6
Continuous
 62
     7
100
AcDbText
 10
1146.626633268278
 20
186.765818609577
 30
0.0
 40
6.773332977294923
  1
カウンターブラケット
  7
STYLE1
100
AcDbText
  0
TEXT
  5
610
330
A
100
AcDbEntity
  8
____1
  6
Continuous
 62
     0
100
AcDbText
 10
1073.508362207357
 20
235.0205185508232
 30
0.0
 40
6.773332977294923
  1
取付ビス：壁側　　SUS 皿ﾀｯﾋﾟﾝﾈｼﾞ 5x45
  7
STYLE1
100
AcDbText
  0
TEXT
  5
611
330
A
100
AcDbEntity
  8
____1
  6
Continuous
 62
     0
100
AcDbText
 10
1073.508362207357
 20
226.5538523292045
 30
0.0
 40
6.773332977294923
  1
          天板側　SUS 皿ﾀｯﾋﾟﾝﾈｼﾞ 5x16
  7
STYLE1
100
AcDbText
  0
LINE
  5
612
330
A
100
AcDbEntity
  8
____1
  6
Continuous
 62
     7
100
AcDbLine
 10
955.9376257648803
 20
222.7935955072333
 30
0.0
 11
955.9376257648803
 21
156.7935955072333
 31
0.0
  0
LINE
  5
613
330
A
100
AcDbEntity
  8
____1
  6
Continuous
 62
     7
100
AcDbLine
 10
1035.937625764881
 20
200.7935955072333
 30
0.0
 11
1035.937625764881
 21
178.7935955072333
 31
0.0
  0
LINE
  5
614
330
A
100
AcDbEntity
  8
____1
  6
Continuous
 62
     0
100
AcDbLine
 10
1094.086423922139
 20
170.9296600820235
 30
0.0
 11
1101.130972358534
 21
170.9296600820235
 31
0.0
  0
LINE
  5
615
330
A
100
AcDbEntity
  8
____1
  6
Continuous
 62
     0
100
AcDbLine
 10
1088.648412358534
 20
170.9296600820235
 30
0.0
 11
1087.690972358534
 21
174.1936600820235
 31
0.0
  0
LINE
  5
616
330
A
100
AcDbEntity
  8
____1
  6
Continuous
 62
     0
100
AcDbLine
 10
1096.51746066699
 20
162.4816600820235
 30
0.0
 11
1101.130972358534
 21
162.4816600820235
 31
0.0
  0
LINE
  5
617
330
A
100
AcDbEntity
  8
____1
  6
Continuous
 62
     0
100
AcDbLine
 10
1040.885042037467
 20
174.1936600820235
 30
0.0
 11
1040.885042037467
 21
170.3536600820235
 31
0.0
  0
LINE
  5
618
330
A
100
AcDbEntity
  8
____1
  6
Continuous
 62
     0
100
AcDbLine
 10
1045.685042037466
 20
171.3136600820235
 30
0.0
 11
1048.565042037466
 21
174.1936600820235
 31
0.0
  0
LINE
  5
619
330
A
100
AcDbEntity
  8
____1
  6
Continuous
 62
     0
100
AcDbLine
 10
1048.565042037466
 20
174.1936600820235
 30
0.0
 11
1040.885042037467
 21
174.1936600820235
 31
0.0
  0
LINE
  5
61A
330
A
100
AcDbEntity
  8
____1
  6
Continuous
 62
     0
100
AcDbLine
 10
1049.525042037467
 20
170.3536600820235
 30
0.0
 11
1045.685042037466
 21
170.3536600820235
 31
0.0
  0
LINE
  5
61B
330
A
100
AcDbEntity
  8
____1
  6
Continuous
 62
     0
100
AcDbLine
 10
1045.685042037466
 20
164.5936600820235
 30
0.0
 11
1045.685042037466
 21
167.4736600820235
 31
0.0
  0
LINE
  5
61C
330
A
100
AcDbEntity
  8
____1
  6
Continuous
 62
     0
100
AcDbLine
 10
1083.850972358534
 20
165.9376600820234
 30
0.0
 11
1083.850972358534
 21
162.4816600820235
 31
0.0
  0
LINE
  5
61D
330
A
100
AcDbEntity
  8
____1
  6
Continuous
 62
     0
100
AcDbLine
 10
1083.850972358534
 20
167.4736600820235
 30
0.0
 11
1089.662172358534
 21
167.4736600820235
 31
0.0
  0
LINE
  5
61E
330
A
100
AcDbEntity
  8
____1
  6
Continuous
 62
     0
100
AcDbLine
 10
1101.130972358534
 20
170.9296600820235
 30
0.0
 11
1101.130972358534
 21
167.4736600820235
 31
0.0
  0
LINE
  5
61F
330
A
100
AcDbEntity
  8
____1
  6
Continuous
 62
     0
100
AcDbLine
 10
1062.31340567383
 20
170.7376600820234
 30
0.0
 11
1071.913405673829
 21
170.7376600820234
 31
0.0
  0
LINE
  5
620
330
A
100
AcDbEntity
  8
____1
  6
Continuous
 62
     0
100
AcDbLine
 10
1046.645042037467
 20
163.6336600820235
 30
0.0
 11
1040.885042037467
 21
163.6336600820235
 31
0.0
  0
LINE
  5
621
330
A
100
AcDbEntity
  8
____1
  6
Continuous
 62
     0
100
AcDbLine
 10
1091.914972358534
 20
159.7936600820235
 30
0.0
 11
1091.126492358535
 21
162.4816600820235
 31
0.0
  0
LINE
  5
622
330
A
100
AcDbEntity
  8
____1
  6
Continuous
 62
     0
100
AcDbLine
 10
1095.522945635005
 20
165.9376600820234
 30
0.0
 11
1095.080938954123
 21
167.4736600820235
 31
0.0
  0
LINE
  5
623
330
A
100
AcDbEntity
  8
____1
  6
Continuous
 62
     5
100
AcDbLine
 10
1255.937625764881
 20
222.7935955072333
 30
0.0
 11
1255.937625764881
 21
716.7935955072332
 31
0.0
  0
LINE
  5
624
330
A
100
AcDbEntity
  8
____1
  6
Continuous
 62
     5
100
AcDbLine
 10
1255.937625764881
 20
716.7935955072332
 30
0.0
 11
455.9376257648809
 21
716.7935955072332
 31
0.0
  0
LINE
  5
625
330
A
100
AcDbEntity
  8
____1
  6
Continuous
 62
     5
100
AcDbLine
 10
955.9376257648803
 20
156.7935955072333
 30
0.0
 11
455.9376257648811
 21
156.7935955072333
 31
0.0
  0
LINE
  5
626
330
A
100
AcDbEntity
  8
____1
  6
Continuous
 62
     0
100
AcDbLine
 10
1083.850972358534
 20
165.9376600820234
 30
0.0
 11
1090.112732358534
 21
165.9376600820234
 31
0.0
  0
LINE
  5
627
330
A
100
AcDbEntity
  8
____1
  6
Continuous
 62
     0
100
AcDbLine
 10
1038.674922719284
 20
167.4736600820235
 30
0.0
 11
1040.594922719284
 21
167.4736600820235
 31
0.0
  0
LINE
  5
628
330
A
100
AcDbEntity
  8
____1
  6
Continuous
 62
     0
100
AcDbLine
 10
1097.290972358534
 20
159.7936600820235
 30
0.0
 11
1096.51746066699
 21
162.4816600820235
 31
0.0
  0
LINE
  5
629
330
A
100
AcDbEntity
  8
____1
  6
Continuous
 62
     0
100
AcDbLine
 10
1045.685042037466
 20
167.4736600820235
 30
0.0
 11
1049.525042037467
 21
167.4736600820235
 31
0.0
  0
LINE
  5
62A
330
A
100
AcDbEntity
  8
____1
  6
Continuous
 62
     0
100
AcDbLine
 10
1062.31340567383
 20
160.7536600820235
 30
0.0
 11
1062.31340567383
 21
163.6336600820235
 31
0.0
  0
LINE
  5
62B
330
A
100
AcDbEntity
  8
____1
  6
Continuous
 62
     0
100
AcDbLine
 10
1040.885042037467
 20
163.6336600820235
 30
0.0
 11
1040.885042037467
 21
160.7536600820235
 31
0.0
  0
LINE
  5
62C
330
A
100
AcDbEntity
  8
____1
  6
Continuous
 62
     0
100
AcDbLine
 10
1040.885042037467
 20
167.4736600820235
 30
0.0
 11
1040.594922719284
 21
167.4736600820235
 31
0.0
  0
LINE
  5
62D
330
A
100
AcDbEntity
  8
____1
  6
Continuous
 62
     0
100
AcDbLine
 10
1079.59340567383
 20
163.6336600820235
 30
0.0
 11
1079.59340567383
 21
160.7536600820235
 31
0.0
  0
LINE
  5
62E
330
A
100
AcDbEntity
  8
____1
  6
Continuous
 62
     0
100
AcDbLine
 10
1101.130972358534
 20
165.9376600820234
 30
0.0
 11
1101.130972358534
 21
162.4816600820235
 31
0.0
  0
LINE
  5
62F
330
A
100
AcDbEntity
  8
____1
  6
Continuous
 62
     0
100
AcDbLine
 10
1040.885042037467
 20
170.3536600820235
 30
0.0
 11
1038.674922719284
 21
170.3536600820235
 31
0.0
  0
LINE
  5
630
330
A
100
AcDbEntity
  8
____1
  6
Continuous
 62
     0
100
AcDbLine
 10
1087.690972358534
 20
174.1936600820235
 30
0.0
 11
1095.370972358534
 21
174.1936600820235
 31
0.0
  0
LINE
  5
631
330
A
100
AcDbEntity
  8
____1
  6
Continuous
 62
     0
100
AcDbLine
 10
1062.31340567383
 20
163.6336600820235
 30
0.0
 11
1064.61740567383
 21
163.6336600820235
 31
0.0
  0
LINE
  5
632
330
A
100
AcDbEntity
  8
____1
  6
Continuous
 62
     0
100
AcDbLine
 10
1062.31340567383
 20
163.6336600820235
 30
0.0
 11
1062.31340567383
 21
160.7536600820235
 31
0.0
  0
LINE
  5
633
330
A
100
AcDbEntity
  8
____1
  6
Continuous
 62
     0
100
AcDbLine
 10
1077.67340567383
 20
171.3136600820235
 30
0.0
 11
1079.59340567383
 21
174.1936600820235
 31
0.0
  0
POLYLINE
  5
634
330
A
100
AcDbEntity
  8
____1
  6
Continuous
 62
     0
100
AcDb3dPolyline
 66
     1
 10
0.0
 20
0.0
 30
0.0
 70
     8
  0
VERTEX
  5
635
330
634
100
AcDbEntity
  8
____1
 62
     0
100
AcDbVertex
100
AcDb3dPolylineVertex
 10
1072.794276318502
 20
162.4119013390279
 30
0.0
 70
    32
  0
VERTEX
  5
636
330
634
100
AcDbEntity
  8
____1
 62
     0
100
AcDbVertex
100
AcDb3dPolylineVertex
 10
1074.455013037887
 20
161.9251436072716
 30
0.0
 70
    32
  0
VERTEX
  5
637
330
634
100
AcDbEntity
  8
____1
 62
     0
100
AcDbVertex
100
AcDb3dPolylineVertex
 10
1076.149217431084
 20
161.5002693762339
 30
0.0
 70
    32
  0
VERTEX
  5
638
330
634
100
AcDbEntity
  8
____1
 62
     0
100
AcDbVertex
100
AcDb3dPolylineVertex
 10
1079.59340567383
 20
160.7536600820235
 30
0.0
 70
    32
  0
SEQEND
  5
639
330
634
100
AcDbEntity
  8
____1
 62
     0
  0
POLYLINE
  5
63A
330
A
100
AcDbEntity
  8
____1
  6
Continuous
 62
     0
100
AcDb3dPolyline
 66
     1
 10
0.0
 20
0.0
 30
0.0
 70
     8
  0
VERTEX
  5
63B
330
63A
100
AcDbEntity
  8
____1
 62
     0
100
AcDbVertex
100
AcDb3dPolylineVertex
 10
1068.907289657927
 20
168.6490923525568
 30
0.0
 70
    32
  0
VERTEX
  5
63C
330
63A
100
AcDbEntity
  8
____1
 62
     0
100
AcDbVertex
100
AcDb3dPolylineVertex
 10
1069.717470607402
 20
167.7609685897716
 30
0.0
 70
    32
  0
VERTEX
  5
63D
330
63A
100
AcDbEntity
  8
____1
 62
     0
100
AcDbVertex
100
AcDb3dPolylineVertex
 10
1070.561181709739
 20
166.9268262919487
 30
0.0
 70
    32
  0
SEQEND
  5
63E
330
63A
100
AcDbEntity
  8
____1
 62
     0
  0
POLYLINE
  5
63F
330
A
100
AcDbEntity
  8
____1
  6
Continuous
 62
     0
100
AcDb3dPolyline
 66
     1
 10
0.0
 20
0.0
 30
0.0
 70
     8
  0
VERTEX
  5
640
330
63F
100
AcDbEntity
  8
____1
 62
     0
100
AcDbVertex
100
AcDb3dPolylineVertex
 10
1075.147870875037
 20
164.5485221239504
 30
0.0
 70
    32
  0
VERTEX
  5
641
330
63F
100
AcDbEntity
  8
____1
 62
     0
100
AcDbVertex
100
AcDb3dPolylineVertex
 10
1076.228990966393
 20
164.2710840824384
 30
0.0
 70
    32
  0
VERTEX
  5
642
330
63F
100
AcDbEntity
  8
____1
 62
     0
100
AcDbVertex
100
AcDb3dPolylineVertex
 10
1077.336051293472
 20
164.0354082103811
 30
0.0
 70
    32
  0
VERTEX
  5
643
330
63F
100
AcDbEntity
  8
____1
 62
     0
100
AcDbVertex
100
AcDb3dPolylineVertex
 10
1079.59340567383
 20
163.6336600820235
 30
0.0
 70
    32
  0
SEQEND
  5
644
330
63F
100
AcDbEntity
  8
____1
 62
     0
  0
LINE
  5
645
330
A
100
AcDbEntity
  8
____1
  6
Continuous
 62
     0
100
AcDbLine
 10
1079.59340567383
 20
174.1936600820235
 30
0.0
 11
1062.31340567383
 21
174.1936600820235
 31
0.0
  0
LINE
  5
646
330
A
100
AcDbEntity
  8
____1
  6
Continuous
 62
     0
100
AcDbLine
 10
1094.086423922139
 20
170.9296600820235
 30
0.0
 11
1093.805346961708
 21
171.9064195517204
 31
0.0
  0
LINE
  5
647
330
A
100
AcDbEntity
  8
____1
  6
Continuous
 62
     7
100
AcDbLine
 10
995.9376257648806
 20
222.7935955072333
 30
0.0
 11
995.9376257648806
 21
200.7935955072333
 31
0.0
  0
LINE
  5
648
330
A
100
AcDbEntity
  8
____1
  6
Continuous
 62
     7
100
AcDbLine
 10
1040.937625764881
 20
189.7935955072333
 30
0.0
 11
1070.937625764881
 21
189.7935955072333
 31
0.0
  0
LINE
  5
649
330
A
100
AcDbEntity
  8
____1
  6
Continuous
 62
     7
100
AcDbLine
 10
1040.937625764881
 20
211.7935955072333
 30
0.0
 11
1070.937625764881
 21
211.7935955072333
 31
0.0
  0
LINE
  5
64A
330
A
100
AcDbEntity
  8
____1
  6
Continuous
 62
     7
100
AcDbLine
 10
1000.937625764881
 20
211.7935955072333
 30
0.0
 11
1030.937625764881
 21
211.7935955072333
 31
0.0
  0
LINE
  5
64B
330
A
100
AcDbEntity
  8
____1
  6
Continuous
 62
     7
100
AcDbLine
 10
960.9376257648813
 20
211.7935955072333
 30
0.0
 11
990.9376257648814
 21
211.7935955072333
 31
0.0
  0
LINE
  5
64C
330
A
100
AcDbEntity
  8
____1
  6
Continuous
 62
     0
100
AcDbLine
 10
1040.885042037467
 20
167.4736600820235
 30
0.0
 11
1040.885042037467
 21
164.5936600820235
 31
0.0
  0
LINE
  5
64D
330
A
100
AcDbEntity
  8
____1
  6
Continuous
 62
     0
100
AcDbLine
 10
1093.805346961708
 20
171.9064195517204
 30
0.0
 11
1095.370972358534
 21
174.1936600820235
 31
0.0
  0
LINE
  5
64E
330
A
100
AcDbEntity
  8
____1
  6
Continuous
 62
     0
100
AcDbLine
 10
1083.850972358534
 20
170.9296600820235
 30
0.0
 11
1088.648412358534
 21
170.9296600820235
 31
0.0
  0
LINE
  5
64F
330
A
100
AcDbEntity
  8
____1
  6
Continuous
 62
     0
100
AcDbLine
 10
1054.325042037467
 20
170.3536600820235
 30
0.0
 11
1054.325042037467
 21
171.3136600820235
 31
0.0
  0
LINE
  5
650
330
A
100
AcDbEntity
  8
____1
  6
Continuous
 62
     0
100
AcDbLine
 10
1057.205042037467
 20
170.3536600820235
 30
0.0
 11
1054.325042037467
 21
170.3536600820235
 31
0.0
  0
ARC
  5
651
330
A
100
AcDbEntity
  8
____1
  6
Continuous
 62
     0
100
AcDbCircle
 10
1067.113405673829
 20
171.3136600820235
 30
0.0
 40
10.56000000000012
100
AcDbArc
 50
270.0
 51
302.5449588540466
  0
LINE
  5
652
330
A
100
AcDbEntity
  8
____1
  6
Continuous
 62
     0
100
AcDbLine
 10
1054.325042037467
 20
167.4736600820235
 30
0.0
 11
1057.205042037467
 21
167.4736600820235
 31
0.0
  0
ARC
  5
653
330
A
100
AcDbEntity
  8
____1
  6
Continuous
 62
     0
100
AcDbCircle
 10
1064.61740567383
 20
170.9296600820235
 30
0.0
 40
7.296000000000057
100
AcDbArc
 50
331.3992813832578
 51
358.4920422457636
  0
LINE
  5
654
330
A
100
AcDbEntity
  8
____1
  6
Continuous
 62
     5
100
AcDbLine
 10
455.9376257648811
 20
156.7935955072333
 30
0.0
 11
455.9376257648811
 21
716.7935955072332
 31
0.0
  0
TEXT
  5
655
330
A
100
AcDbEntity
  8
____1
  6
Continuous
 62
     7
100
AcDbText
 10
1118.17096943852
 20
170.7465493866477
 30
0.0
 40
5.644444274902342
  1
図番
  7
STYLE1
100
AcDbText
  0
TEXT
  5
656
330
A
100
AcDbEntity
  8
____1
  6
Continuous
 62
     7
100
AcDbText
 10
1118.17096943852
 20
192.7465493866477
 30
0.0
 40
5.644444274902342
  1
品名
  7
STYLE1
100
AcDbText
  0
TEXT
  5
657
330
A
100
AcDbEntity
  8
____1
  6
Continuous
 62
     7
100
AcDbText
 10
1118.17096943852
 20
214.7465493866477
 30
0.0
 40
5.644444274902342
  1
型番
  7
STYLE1
100
AcDbText
  0
TEXT
  5
658
330
A
100
AcDbEntity
  8
____1
  6
Continuous
 62
     7
100
AcDbText
 10
958.0479889821353
 20
214.7477015398065
 30
0.0
 40
5.644444274902342
  1
 日　　付
  7
STYLE1
100
AcDbText
  0
TEXT
  5
659
330
A
100
AcDbEntity
  8
____1
  6
Continuous
 62
     7
100
AcDbText
 10
955.9376257648803
 20
181.7477015398065
 30
0.0
 40
5.644444274902342
  1
 製図　　 岸本
  7
STYLE1
100
AcDbText
  0
TEXT
  5
65A
330
A
100
AcDbEntity
  8
____1
  6
Continuous
 62
     7
100
AcDbText
 10
955.9376257648803
 20
192.7477015398065
 30
0.0
 40
5.644444274902342
  1
 設計　　 岸本
  7
STYLE1
100
AcDbText
  0
LINE
  5
65B
330
A
100
AcDbEntity
  8
____1
  6
Continuous
 62
     7
100
AcDbLine
 10
960.9376257648813
 20
189.7935955072333
 30
0.0
 11
1030.937625764881
 21
189.7935955072333
 31
0.0
  0
POLYLINE
  5
65C
330
A
100
AcDbEntity
  8
____1
  6
Continuous
 62
     0
100
AcDb3dPolyline
 66
     1
 10
0.0
 20
0.0
 30
0.0
 70
     8
  0
VERTEX
  5
65D
330
65C
100
AcDbEntity
  8
____1
 62
     0
100
AcDbVertex
100
AcDb3dPolylineVertex
 10
1062.31340567383
 20
169.1167566548951
 30
0.0
 70
    32
  0
VERTEX
  5
65E
330
65C
100
AcDbEntity
  8
____1
 62
     0
100
AcDbVertex
100
AcDb3dPolylineVertex
 10
1063.691792502101
 20
167.8565906315903
 30
0.0
 70
    32
  0
VERTEX
  5
65F
330
65C
100
AcDbEntity
  8
____1
 62
     0
100
AcDbVertex
100
AcDb3dPolylineVertex
 10
1065.092716526911
 20
166.6380970778464
 30
0.0
 70
    32
  0
VERTEX
  5
660
330
65C
100
AcDbEntity
  8
____1
 62
     0
100
AcDbVertex
100
AcDb3dPolylineVertex
 10
1066.538714944799
 20
165.5029484632246
 30
0.0
 70
    32
  0
VERTEX
  5
661
330
65C
100
AcDbEntity
  8
____1
 62
     0
100
AcDbVertex
100
AcDb3dPolylineVertex
 10
1068.052324952303
 20
164.4928172572857
 30
0.0
 70
    32
  0
VERTEX
  5
662
330
65C
100
AcDbEntity
  8
____1
 62
     0
100
AcDbVertex
100
AcDb3dPolylineVertex
 10
1068.052324956219
 20
164.4928172549336
 30
0.0
 70
    32
  0
SEQEND
  5
663
330
65C
100
AcDbEntity
  8
____1
 62
     0
  0
TEXT
  5
664
330
A
100
AcDbEntity
  8
____1
  6
Continuous
 62
     0
100
AcDbText
 10
1105.354292749439
 20
709.2431834471075
 30
0.0
 40
4.938888740539549
  1
改訂日
  7
STYLE1
100
AcDbText
  0
LINE
  5
665
330
A
100
AcDbEntity
  8
____1
  6
Continuous
 62
     0
100
AcDbLine
 10
1075.937625764882
 20
706.7935955072332
 30
0.0
 11
1255.937625764881
 21
706.7935955072332
 31
0.0
  0
LINE
  5
666
330
A
100
AcDbEntity
  8
____1
  6
Continuous
 62
     0
100
AcDbLine
 10
1075.937625764882
 20
696.7935955072332
 30
0.0
 11
1255.937625764881
 21
696.7935955072332
 31
0.0
  0
LINE
  5
667
330
A
100
AcDbEntity
  8
____1
  6
Continuous
 62
     0
100
AcDbLine
 10
1080.419054992797
 20
707.5551790092398
 30
0.0
 11
1090.319054992797
 21
707.5551790092398
 31
0.0
  0
LINE
  5
668
330
A
100
AcDbEntity
  8
____1
  6
Continuous
 62
     0
100
AcDbLine
 10
1085.369054992796
 20
716.1288305067056
 30
0.0
 11
1090.319054992797
 21
707.5551790092398
 31
0.0
  0
LINE
  5
669
330
A
100
AcDbEntity
  8
____1
  6
Continuous
 62
     0
100
AcDbLine
 10
1085.369054992796
 20
716.1288305067056
 30
0.0
 11
1080.419054992797
 21
707.5551790092398
 31
0.0
  0
LINE
  5
66A
330
A
100
AcDbEntity
  8
____1
  6
Continuous
 62
     0
100
AcDbLine
 10
1075.937625764882
 20
696.7935955072331
 30
0.0
 11
1075.937625764882
 21
716.7935955072332
 31
0.0
  0
LINE
  5
66B
330
A
100
AcDbEntity
  8
____1
  6
Continuous
 62
     0
100
AcDbLine
 10
1095.937625764881
 20
696.7935955072331
 30
0.0
 11
1095.937625764881
 21
716.7935955072332
 31
0.0
  0
LINE
  5
66C
330
A
100
AcDbEntity
  8
____1
  6
Continuous
 62
     0
100
AcDbLine
 10
1135.937625764881
 20
696.7935955072331
 30
0.0
 11
1135.937625764881
 21
716.7935955072332
 31
0.0
  0
LINE
  5
66D
330
A
100
AcDbEntity
  8
____1
  6
Continuous
 62
     0
100
AcDbLine
 10
1135.937625764881
 20
696.7935955072331
 30
0.0
 11
1135.937625764881
 21
716.7935955072332
 31
0.0
  0
TEXT
  5
66E
330
A
100
AcDbEntity
  8
____1
  6
Continuous
 62
     0
100
AcDbText
 10
1171.243183015858
 20
709.2431834471075
 30
0.0
 40
4.938888740539549
  1
改　訂　内　容
  7
STYLE1
100
AcDbText
  0
TEXT
  5
66F
330
A
100
AcDbEntity
  8
____1
  6
Continuous
 62
     7
100
AcDbText
 10
1165.158697321736
 20
209.2067093764468
 30
0.0
 40
6.773332977294923
  1
ＬＳ-７３２
  7
STYLE1
100
AcDbText
  0
LINE
  5
670
330
A
100
AcDbEntity
  8
____1
  6
Continuous
 62
     0
100
AcDbLine
 10
1232.486060365289
 20
217.4626634220885
 30
0.0
 11
1227.536060365289
 21
208.8890119246225
 31
0.0
  0
LINE
  5
671
330
A
100
AcDbEntity
  8
____1
  6
Continuous
 62
     0
100
AcDbLine
 10
1232.486060365289
 20
217.4626634220885
 30
0.0
 11
1237.436060365289
 21
208.8890119246225
 31
0.0
  0
LINE
  5
672
330
A
100
AcDbEntity
  8
____1
  6
Continuous
 62
     0
100
AcDbLine
 10
1227.536060365289
 20
208.8890119246225
 30
0.0
 11
1237.436060365289
 21
208.8890119246225
 31
0.0
  0
TEXT
  5
673
330
A
100
AcDbEntity
  8
____1
  6
Continuous
 62
     0
100
AcDbText
 10
1231.022738546056
 20
209.9889605527383
 30
0.0
 40
4.682630310058592
  1
1
  7
STYLE1
100
AcDbText
  0
TEXT
  5
674
330
A
100
AcDbEntity
  8
____1
  6
Continuous
 62
     0
100
AcDbText
 10
1243.049973811575
 20
233.1554853370452
 30
0.0
 40
4.682630310058592
  1
1
  7
STYLE1
100
AcDbText
  0
LINE
  5
675
330
A
100
AcDbEntity
  8
____1
  6
Continuous
 62
     0
100
AcDbLine
 10
1239.563295630808
 20
232.0555367089294
 30
0.0
 11
1249.463295630808
 21
232.0555367089294
 31
0.0
  0
LINE
  5
676
330
A
100
AcDbEntity
  8
____1
  6
Continuous
 62
     0
100
AcDbLine
 10
1244.513295630808
 20
240.6291882063954
 30
0.0
 11
1249.463295630808
 21
232.0555367089294
 31
0.0
  0
LINE
  5
677
330
A
100
AcDbEntity
  8
____1
  6
Continuous
 62
     0
100
AcDbLine
 10
1244.513295630808
 20
240.6291882063954
 30
0.0
 11
1239.563295630808
 21
232.0555367089294
 31
0.0
  0
TEXT
  5
678
330
A
100
AcDbEntity
  8
____1
  6
Continuous
 62
     0
100
AcDbText
 10
1083.905733173563
 20
698.7551276373554
 30
0.0
 40
4.682630310058592
  1
1
  7
STYLE1
100
AcDbText
  0
LINE
  5
679
330
A
100
AcDbEntity
  8
____1
  6
Continuous
 62
     0
100
AcDbLine
 10
1080.419054992797
 20
697.6551790092397
 30
0.0
 11
1090.319054992797
 21
697.6551790092397
 31
0.0
  0
LINE
  5
67A
330
A
100
AcDbEntity
  8
____1
  6
Continuous
 62
     0
100
AcDbLine
 10
1085.369054992796
 20
706.2288305067057
 30
0.0
 11
1090.319054992797
 21
697.6551790092397
 31
0.0
  0
LINE
  5
67B
330
A
100
AcDbEntity
  8
____1
  6
Continuous
 62
     0
100
AcDbLine
 10
1085.369054992796
 20
706.2288305067057
 30
0.0
 11
1080.419054992797
 21
697.6551790092397
 31
0.0
  0
TEXT
  5
67C
330
A
100
AcDbEntity
  8
____1
  6
Continuous
 62
     0
100
AcDbText
 10
1140.602861727686
 20
699.3140324484332
 30
0.0
 40
4.938888740539549
  1
ﾈｼﾞ仕様変更（木ﾈｼﾞ ⇒ 皿ﾀｯﾋﾟﾝﾈｼﾞ）
  7
STYLE1
100
AcDbText
  0
TEXT
  5
67D
330
A
100
AcDbEntity
  8
____1
  6
Continuous
 62
     0
100
AcDbText
 10
1105.354292749439
 20
699.3140324484332
 30
0.0
 40
4.938888740539549
  1
H25.03
  7
STYLE1
100
AcDbText
  0
LWPOLYLINE
  5
67E
330
A
100
AcDbEntity
  8
DEFPOINTS
100
AcDbPolyline
 90
        4
 70
     1
 43
0.0
 10
1277.932625764879
 20
732.1435955072334
 10
435.9376257648809
 20
732.1435955072334
 10
435.9376257648809
 20
136.7935955072332
 10
1277.932625764879
 20
136.7935955072332
  0
TEXT
  5
8FB
330
A
100
AcDbEntity
  8
0
  6
Continuous
370
     0
100
AcDbText
 10
836.117252659681
 20
373.4718699960331
 30
0.0
 40
5.9972220421
  1
ＨＬ
100
AcDbText
  0
SOLID
  5
8FC
330
A
100
AcDbEntity
  8
寸法線
100
AcDbTrace
 10
1097.811712293981
 20
326.2332837566332
 30
0.0
 11
1099.311712293981
 21
320.2332837566332
 31
0.0
 12
1096.311712293981
 22
320.2332837566332
 32
0.0
 13
1097.811712293981
 23
321.7332837566332
 33
0.0
  0
LINE
  5
8FD
330
A
100
AcDbEntity
  8
寸法線
100
AcDbLine
 10
1097.811712293981
 20
326.2332837566332
 30
0.0
 11
1097.811712293981
 21
323.2332837566332
 31
0.0
  0
SOLID
  5
8FE
330
A
100
AcDbEntity
  8
寸法線
100
AcDbTrace
 10
1097.811712293981
 20
331.2332837566332
 30
0.0
 11
1096.311712293981
 21
337.2332837566332
 31
0.0
 12
1099.311712293981
 22
337.2332837566332
 32
0.0
 13
1097.811712293981
 23
335.7332837566332
 33
0.0
  0
LINE
  5
8FF
330
A
100
AcDbEntity
  8
寸法線
100
AcDbLine
 10
1097.811712293981
 20
331.2332837566332
 30
0.0
 11
1097.811712293981
 21
334.2332837566332
 31
0.0
  0
LINE
  5
900
330
A
100
AcDbEntity
  8
寸法線
100
AcDbLine
 10
1097.811712293981
 20
331.2332837566332
 30
0.0
 11
1097.811712293981
 21
331.2332837566332
 31
0.0
  0
LINE
  5
901
330
A
100
AcDbEntity
  8
寸法線
100
AcDbLine
 10
1097.811712293981
 20
331.2332837566332
 30
0.0
 11
1097.811712293981
 21
326.2332837566332
 31
0.0
  0
LINE
  5
902
330
A
100
AcDbEntity
  8
寸法線
100
AcDbLine
 10
1097.811712293981
 20
326.2332837566332
 30
0.0
 11
1097.811712293981
 21
331.2332837566332
 31
0.0
  0
LINE
  5
903
330
A
100
AcDbEntity
  8
寸法線
100
AcDbLine
 10
1097.811712293981
 20
326.2332837566332
 30
0.0
 11
1097.811712293981
 21
326.2332837566332
 31
0.0
  0
LINE
  5
904
330
A
100
AcDbEntity
  8
寸法線
100
AcDbLine
 10
1072.847782014881
 20
331.2332837566332
 30
0.0
 11
1098.311712293981
 21
331.2332837566332
 31
0.0
  0
LINE
  5
905
330
A
100
AcDbEntity
  8
寸法線
100
AcDbLine
 10
1072.847782014881
 20
326.2332837566332
 30
0.0
 11
1098.311712293981
 21
326.2332837566332
 31
0.0
  0
TEXT
  5
906
330
A
100
AcDbEntity
  8
寸法線
100
AcDbText
 10
1095.753378992381
 20
326.9693949207332
 30
0.0
 40
5.9972220421
  1
5
 50
90.0
100
AcDbText
  0
SOLID
  5
907
330
A
100
AcDbEntity
  8
寸法線
100
AcDbTrace
 10
657.0528601398811
 20
664.9327464516332
 30
0.0
 11
651.0528601398808
 21
663.4327464516331
 31
0.0
 12
651.0528601398808
 22
666.4327464516332
 32
0.0
 13
652.5528601398811
 23
664.9327464516332
 33
0.0
  0
LINE
  5
908
330
A
100
AcDbEntity
  8
寸法線
100
AcDbLine
 10
657.0528601398811
 20
664.9327464516332
 30
0.0
 11
654.0528601398809
 21
664.9327464516332
 31
0.0
  0
SOLID
  5
909
330
A
100
AcDbEntity
  8
寸法線
100
AcDbTrace
 10
619.0528601398811
 20
664.9327464516332
 30
0.0
 11
625.0528601398809
 21
666.4327464516332
 31
0.0
 12
625.0528601398809
 22
663.4327464516331
 32
0.0
 13
623.5528601398811
 23
664.9327464516332
 33
0.0
  0
LINE
  5
90A
330
A
100
AcDbEntity
  8
寸法線
100
AcDbLine
 10
619.0528601398811
 20
664.9327464516332
 30
0.0
 11
622.0528601398811
 21
664.9327464516332
 31
0.0
  0
LINE
  5
90B
330
A
100
AcDbEntity
  8
寸法線
100
AcDbLine
 10
619.0528601398811
 20
664.9327464516332
 30
0.0
 11
630.997304796181
 21
664.9327464516332
 31
0.0
  0
LINE
  5
90C
330
A
100
AcDbEntity
  8
寸法線
100
AcDbLine
 10
619.0528601398811
 20
664.9327464516332
 30
0.0
 11
645.1084154834809
 21
664.9327464516332
 31
0.0
  0
LINE
  5
90D
330
A
100
AcDbEntity
  8
寸法線
100
AcDbLine
 10
657.0528601398811
 20
664.9327464516332
 30
0.0
 11
630.997304796181
 21
664.9327464516332
 31
0.0
  0
LINE
  5
90E
330
A
100
AcDbEntity
  8
寸法線
100
AcDbLine
 10
657.0528601398811
 20
664.9327464516332
 30
0.0
 11
645.1084154834809
 21
664.9327464516332
 31
0.0
  0
LINE
  5
90F
330
A
100
AcDbEntity
  8
寸法線
100
AcDbLine
 10
619.0528601398811
 20
624.504082233633
 30
0.0
 11
619.0528601398811
 21
665.4327464516332
 31
0.0
  0
LINE
  5
910
330
A
100
AcDbEntity
  8
寸法線
100
AcDbLine
 10
657.0528601398811
 20
624.504082233633
 30
0.0
 11
657.0528601398811
 21
665.4327464516332
 31
0.0
  0
TEXT
  5
911
330
A
100
AcDbEntity
  8
寸法線
100
AcDbText
 10
634.525082467981
 20
666.9910797531332
 30
0.0
 40
5.9972220421
  1
38
100
AcDbText
  0
SOLID
  5
912
330
A
100
AcDbEntity
  8
寸法線
100
AcDbTrace
 10
1036.847782014881
 20
289.9962041362332
 30
0.0
 11
1030.847782014881
 21
288.4962041362332
 31
0.0
 12
1030.847782014881
 22
291.4962041362332
 32
0.0
 13
1032.347782014881
 23
289.9962041362332
 33
0.0
  0
LINE
  5
913
330
A
100
AcDbEntity
  8
寸法線
100
AcDbLine
 10
1036.847782014881
 20
289.9962041362332
 30
0.0
 11
1033.847782014881
 21
289.9962041362332
 31
0.0
  0
SOLID
  5
914
330
A
100
AcDbEntity
  8
寸法線
100
AcDbTrace
 10
916.8477820148813
 20
289.9962041362332
 30
0.0
 11
922.8477820148812
 21
291.4962041362332
 31
0.0
 12
922.8477820148812
 22
288.4962041362332
 32
0.0
 13
921.3477820148813
 23
289.9962041362332
 33
0.0
  0
LINE
  5
915
330
A
100
AcDbEntity
  8
寸法線
100
AcDbLine
 10
916.8477820148813
 20
289.9962041362332
 30
0.0
 11
919.8477820148813
 21
289.9962041362332
 31
0.0
  0
LINE
  5
916
330
A
100
AcDbEntity
  8
寸法線
100
AcDbLine
 10
916.8477820148813
 20
289.9962041362332
 30
0.0
 11
968.0283378352813
 21
289.9962041362332
 31
0.0
  0
LINE
  5
917
330
A
100
AcDbEntity
  8
寸法線
100
AcDbLine
 10
916.8477820148813
 20
289.9962041362332
 30
0.0
 11
985.6672261943812
 21
289.9962041362332
 31
0.0
  0
LINE
  5
918
330
A
100
AcDbEntity
  8
寸法線
100
AcDbLine
 10
1036.847782014881
 20
289.9962041362332
 30
0.0
 11
968.0283378352813
 21
289.9962041362332
 31
0.0
  0
LINE
  5
919
330
A
100
AcDbEntity
  8
寸法線
100
AcDbLine
 10
1036.847782014881
 20
289.9962041362332
 30
0.0
 11
985.6672261943812
 21
289.9962041362332
 31
0.0
  0
LINE
  5
91A
330
A
100
AcDbEntity
  8
寸法線
100
AcDbLine
 10
916.8477820148813
 20
309.2332837566332
 30
0.0
 11
916.8477820148813
 21
289.4962041362332
 31
0.0
  0
LINE
  5
91B
330
A
100
AcDbEntity
  8
寸法線
100
AcDbLine
 10
1036.847782014881
 20
331.2332837566332
 30
0.0
 11
1036.847782014881
 21
289.4962041362332
 31
0.0
  0
TEXT
  5
91C
330
A
100
AcDbEntity
  8
寸法線
100
AcDbText
 10
971.5561155070812
 20
292.0545374377332
 30
0.0
 40
5.9972220421
  1
120
100
AcDbText
  0
SOLID
  5
91D
330
A
100
AcDbEntity
  8
寸法線
100
AcDbTrace
 10
1076.847782014881
 20
289.9962035551332
 30
0.0
 11
1070.847782014881
 21
288.4962035551331
 31
0.0
 12
1070.847782014881
 22
291.4962035551332
 32
0.0
 13
1072.347782014881
 23
289.9962035551332
 33
0.0
  0
LINE
  5
91E
330
A
100
AcDbEntity
  8
寸法線
100
AcDbLine
 10
1076.847782014881
 20
289.9962035551332
 30
0.0
 11
1073.847782014881
 21
289.9962035551332
 31
0.0
  0
SOLID
  5
91F
330
A
100
AcDbEntity
  8
寸法線
100
AcDbTrace
 10
1036.847782014881
 20
289.9962035551332
 30
0.0
 11
1042.847782014881
 21
291.4962035551332
 31
0.0
 12
1042.847782014881
 22
288.4962035551331
 32
0.0
 13
1041.347782014881
 23
289.9962035551332
 33
0.0
  0
LINE
  5
920
330
A
100
AcDbEntity
  8
寸法線
100
AcDbLine
 10
1036.847782014881
 20
289.9962035551332
 30
0.0
 11
1039.847782014881
 21
289.9962035551332
 31
0.0
  0
LINE
  5
921
330
A
100
AcDbEntity
  8
寸法線
100
AcDbLine
 10
1036.847782014881
 20
289.9962035551332
 30
0.0
 11
1049.792226671181
 21
289.9962035551332
 31
0.0
  0
LINE
  5
922
330
A
100
AcDbEntity
  8
寸法線
100
AcDbLine
 10
1036.847782014881
 20
289.9962035551332
 30
0.0
 11
1063.903337358481
 21
289.9962035551332
 31
0.0
  0
LINE
  5
923
330
A
100
AcDbEntity
  8
寸法線
100
AcDbLine
 10
1076.847782014881
 20
289.9962035551332
 30
0.0
 11
1049.792226671181
 21
289.9962035551332
 31
0.0
  0
LINE
  5
924
330
A
100
AcDbEntity
  8
寸法線
100
AcDbLine
 10
1076.847782014881
 20
289.9962035551332
 30
0.0
 11
1063.903337358481
 21
289.9962035551332
 31
0.0
  0
LINE
  5
925
330
A
100
AcDbEntity
  8
寸法線
100
AcDbLine
 10
1036.847782014881
 20
331.2332837566332
 30
0.0
 11
1036.847782014881
 21
289.4962035551332
 31
0.0
  0
LINE
  5
926
330
A
100
AcDbEntity
  8
寸法線
100
AcDbLine
 10
1076.847782014881
 20
308.7332837566332
 30
0.0
 11
1076.847782014881
 21
289.4962035551332
 31
0.0
  0
TEXT
  5
927
330
A
100
AcDbEntity
  8
寸法線
100
AcDbText
 10
1053.320004343081
 20
292.0545368566332
 30
0.0
 40
5.9972220421
  1
40
100
AcDbText
  0
SOLID
  5
928
330
A
100
AcDbEntity
  8
寸法線
100
AcDbTrace
 10
796.8477820148813
 20
289.9962041362332
 30
0.0
 11
802.8477820148811
 21
291.4962041362332
 31
0.0
 12
802.8477820148811
 22
288.4962041362332
 32
0.0
 13
801.3477820148812
 23
289.9962041362332
 33
0.0
  0
LINE
  5
929
330
A
100
AcDbEntity
  8
寸法線
100
AcDbLine
 10
796.8477820148813
 20
289.9962041362332
 30
0.0
 11
799.8477820148813
 21
289.9962041362332
 31
0.0
  0
SOLID
  5
92A
330
A
100
AcDbEntity
  8
寸法線
100
AcDbTrace
 10
776.847782014881
 20
289.9962041362332
 30
0.0
 11
770.8477820148813
 21
288.4962041362332
 31
0.0
 12
770.8477820148813
 22
291.4962041362332
 32
0.0
 13
772.3477820148811
 23
289.9962041362332
 33
0.0
  0
LINE
  5
92B
330
A
100
AcDbEntity
  8
寸法線
100
AcDbLine
 10
776.847782014881
 20
289.9962041362332
 30
0.0
 11
773.8477820148813
 21
289.9962041362332
 31
0.0
  0
LINE
  5
92C
330
A
100
AcDbEntity
  8
寸法線
100
AcDbLine
 10
776.847782014881
 20
289.9962041362332
 30
0.0
 11
779.792226671181
 21
289.9962041362332
 31
0.0
  0
LINE
  5
92D
330
A
100
AcDbEntity
  8
寸法線
100
AcDbLine
 10
776.847782014881
 20
289.9962041362332
 30
0.0
 11
793.9033373584813
 21
289.9962041362332
 31
0.0
  0
LINE
  5
92E
330
A
100
AcDbEntity
  8
寸法線
100
AcDbLine
 10
796.8477820148813
 20
289.9962041362332
 30
0.0
 11
779.792226671181
 21
289.9962041362332
 31
0.0
  0
LINE
  5
92F
330
A
100
AcDbEntity
  8
寸法線
100
AcDbLine
 10
796.8477820148813
 20
289.9962041362332
 30
0.0
 11
793.9033373584813
 21
289.9962041362332
 31
0.0
  0
LINE
  5
930
330
A
100
AcDbEntity
  8
寸法線
100
AcDbLine
 10
776.847782014881
 20
327.7332837566332
 30
0.0
 11
776.847782014881
 21
289.4962041362332
 31
0.0
  0
LINE
  5
931
330
A
100
AcDbEntity
  8
寸法線
100
AcDbLine
 10
796.8477820148813
 20
320.2332837566332
 30
0.0
 11
796.8477820148813
 21
289.4962041362332
 31
0.0
  0
TEXT
  5
932
330
A
100
AcDbEntity
  8
寸法線
100
AcDbText
 10
783.3200043430811
 20
292.0545374377332
 30
0.0
 40
5.9972220421
  1
20
100
AcDbText
  0
SOLID
  5
933
330
A
100
AcDbEntity
  8
寸法線
100
AcDbTrace
 10
1111.192903119281
 20
309.7332837566332
 30
0.0
 11
1112.692903119281
 21
303.7332837566332
 31
0.0
 12
1109.692903119281
 22
303.7332837566332
 32
0.0
 13
1111.192903119281
 23
305.2332837566332
 33
0.0
  0
LINE
  5
934
330
A
100
AcDbEntity
  8
寸法線
100
AcDbLine
 10
1111.192903119281
 20
309.7332837566332
 30
0.0
 11
1111.192903119281
 21
306.7332837566332
 31
0.0
  0
SOLID
  5
935
330
A
100
AcDbEntity
  8
寸法線
100
AcDbTrace
 10
1111.192903119281
 20
317.7332837566332
 30
0.0
 11
1109.692903119281
 21
323.7332837566332
 31
0.0
 12
1112.692903119281
 22
323.7332837566332
 32
0.0
 13
1111.192903119281
 23
322.2332837566332
 33
0.0
  0
LINE
  5
936
330
A
100
AcDbEntity
  8
寸法線
100
AcDbLine
 10
1111.192903119281
 20
317.7332837566332
 30
0.0
 11
1111.192903119281
 21
320.7332837566332
 31
0.0
  0
LINE
  5
937
330
A
100
AcDbEntity
  8
寸法線
100
AcDbLine
 10
1111.192903119281
 20
317.7332837566332
 30
0.0
 11
1111.192903119281
 21
317.7332837566332
 31
0.0
  0
LINE
  5
938
330
A
100
AcDbEntity
  8
寸法線
100
AcDbLine
 10
1111.192903119281
 20
317.7332837566332
 30
0.0
 11
1111.192903119281
 21
309.7332837566332
 31
0.0
  0
LINE
  5
939
330
A
100
AcDbEntity
  8
寸法線
100
AcDbLine
 10
1111.192903119281
 20
309.7332837566332
 30
0.0
 11
1111.192903119281
 21
317.7332837566332
 31
0.0
  0
LINE
  5
93A
330
A
100
AcDbEntity
  8
寸法線
100
AcDbLine
 10
1111.192903119281
 20
309.7332837566332
 30
0.0
 11
1111.192903119281
 21
309.7332837566332
 31
0.0
  0
LINE
  5
93B
330
A
100
AcDbEntity
  8
寸法線
100
AcDbLine
 10
925.3477820148813
 20
317.7332837566332
 30
0.0
 11
1111.692903119281
 21
317.7332837566332
 31
0.0
  0
LINE
  5
93C
330
A
100
AcDbEntity
  8
寸法線
100
AcDbLine
 10
1077.847782014881
 20
309.7332837566332
 30
0.0
 11
1111.692903119281
 21
309.7332837566332
 31
0.0
  0
TEXT
  5
93D
330
A
100
AcDbEntity
  8
寸法線
100
AcDbText
 10
1109.134569817681
 20
311.9693949207333
 30
0.0
 40
5.9972220421
  1
8
 50
90.0
100
AcDbText
  0
SOLID
  5
93E
330
A
100
AcDbEntity
  8
寸法線
100
AcDbTrace
 10
1111.192903119281
 20
317.7332837566332
 30
0.0
 11
1112.692903119281
 21
311.7332837566332
 31
0.0
 12
1109.692903119281
 22
311.7332837566332
 32
0.0
 13
1111.192903119281
 23
313.2332837566332
 33
0.0
  0
LINE
  5
93F
330
A
100
AcDbEntity
  8
寸法線
100
AcDbLine
 10
1111.192903119281
 20
317.7332837566332
 30
0.0
 11
1111.192903119281
 21
314.7332837566332
 31
0.0
  0
SOLID
  5
940
330
A
100
AcDbEntity
  8
寸法線
100
AcDbTrace
 10
1111.192903119281
 20
339.7332837566332
 30
0.0
 11
1109.692903119281
 21
345.7332837566332
 31
0.0
 12
1112.692903119281
 22
345.7332837566332
 32
0.0
 13
1111.192903119281
 23
344.2332837566332
 33
0.0
  0
LINE
  5
941
330
A
100
AcDbEntity
  8
寸法線
100
AcDbLine
 10
1111.192903119281
 20
339.7332837566332
 30
0.0
 11
1111.192903119281
 21
342.7332837566332
 31
0.0
  0
LINE
  5
942
330
A
100
AcDbEntity
  8
寸法線
100
AcDbLine
 10
1111.192903119281
 20
339.7332837566332
 30
0.0
 11
1111.192903119281
 21
321.6777284129332
 31
0.0
  0
LINE
  5
943
330
A
100
AcDbEntity
  8
寸法線
100
AcDbLine
 10
1111.192903119281
 20
339.7332837566332
 30
0.0
 11
1111.192903119281
 21
335.7888391002332
 31
0.0
  0
LINE
  5
944
330
A
100
AcDbEntity
  8
寸法線
100
AcDbLine
 10
1111.192903119281
 20
317.7332837566332
 30
0.0
 11
1111.192903119281
 21
321.6777284129332
 31
0.0
  0
LINE
  5
945
330
A
100
AcDbEntity
  8
寸法線
100
AcDbLine
 10
1111.192903119281
 20
317.7332837566332
 30
0.0
 11
1111.192903119281
 21
335.7888391002332
 31
0.0
  0
LINE
  5
946
330
A
100
AcDbEntity
  8
寸法線
100
AcDbLine
 10
1045.347782014881
 20
339.7332837566332
 30
0.0
 11
1111.692903119281
 21
339.7332837566332
 31
0.0
  0
LINE
  5
947
330
A
100
AcDbEntity
  8
寸法線
100
AcDbLine
 10
925.3477820148813
 20
317.7332837566332
 30
0.0
 11
1111.692903119281
 21
317.7332837566332
 31
0.0
  0
TEXT
  5
948
330
A
100
AcDbEntity
  8
寸法線
100
AcDbText
 10
1109.134569817681
 20
325.2055060847332
 30
0.0
 40
5.9972220421
  1
22
 50
90.0
100
AcDbText
  0
SOLID
  5
949
330
A
100
AcDbEntity
  8
寸法線
100
AcDbTrace
 10
1111.192903119281
 20
339.7332837566332
 30
0.0
 11
1112.692903119281
 21
333.7332837566332
 31
0.0
 12
1109.692903119281
 22
333.7332837566332
 32
0.0
 13
1111.192903119281
 23
335.2332837566332
 33
0.0
  0
LINE
  5
94A
330
A
100
AcDbEntity
  8
寸法線
100
AcDbLine
 10
1111.192903119281
 20
339.7332837566332
 30
0.0
 11
1111.192903119281
 21
336.7332837566332
 31
0.0
  0
SOLID
  5
94B
330
A
100
AcDbEntity
  8
寸法線
100
AcDbTrace
 10
1111.192903119281
 20
347.7332837566332
 30
0.0
 11
1109.692903119281
 21
353.7332837566332
 31
0.0
 12
1112.692903119281
 22
353.7332837566332
 32
0.0
 13
1111.192903119281
 23
352.2332837566332
 33
0.0
  0
LINE
  5
94C
330
A
100
AcDbEntity
  8
寸法線
100
AcDbLine
 10
1111.192903119281
 20
347.7332837566332
 30
0.0
 11
1111.192903119281
 21
350.7332837566332
 31
0.0
  0
LINE
  5
94D
330
A
100
AcDbEntity
  8
寸法線
100
AcDbLine
 10
1111.192903119281
 20
347.7332837566332
 30
0.0
 11
1111.192903119281
 21
347.7332837566332
 31
0.0
  0
LINE
  5
94E
330
A
100
AcDbEntity
  8
寸法線
100
AcDbLine
 10
1111.192903119281
 20
347.7332837566332
 30
0.0
 11
1111.192903119281
 21
339.7332837566332
 31
0.0
  0
LINE
  5
94F
330
A
100
AcDbEntity
  8
寸法線
100
AcDbLine
 10
1111.192903119281
 20
339.7332837566332
 30
0.0
 11
1111.192903119281
 21
347.7332837566332
 31
0.0
  0
LINE
  5
950
330
A
100
AcDbEntity
  8
寸法線
100
AcDbLine
 10
1111.192903119281
 20
339.7332837566332
 30
0.0
 11
1111.192903119281
 21
339.7332837566332
 31
0.0
  0
LINE
  5
951
330
A
100
AcDbEntity
  8
寸法線
100
AcDbLine
 10
1077.847782014881
 20
347.7332837566332
 30
0.0
 11
1111.692903119281
 21
347.7332837566332
 31
0.0
  0
LINE
  5
952
330
A
100
AcDbEntity
  8
寸法線
100
AcDbLine
 10
1045.347782014881
 20
339.7332837566332
 30
0.0
 11
1111.692903119281
 21
339.7332837566332
 31
0.0
  0
TEXT
  5
953
330
A
100
AcDbEntity
  8
寸法線
100
AcDbText
 10
1109.134569817681
 20
341.9693949207332
 30
0.0
 40
5.9972220421
  1
8
 50
90.0
100
AcDbText
  0
SOLID
  5
954
330
A
100
AcDbEntity
  8
寸法線
100
AcDbTrace
 10
1002.081272267981
 20
549.5468232261331
 30
0.0
 11
1000.380310373681
 21
543.6006708034331
 31
0.0
 12
997.7822341622808
 22
545.1006708034331
 32
0.0
 13
999.8312722679813
 23
545.6497089091332
 33
0.0
  0
LINE
  5
955
330
A
100
AcDbEntity
  8
寸法線
100
AcDbLine
 10
1002.081272267981
 20
549.5468232261331
 30
0.0
 11
979.9638055784813
 21
511.2382471852331
 31
0.0
  0
TEXT
  5
956
330
A
100
AcDbEntity
  8
寸法線
100
AcDbText
 10
977.825204020581
 20
512.4729693703332
 30
0.0
 40
5.9972220421
  1
(R700)
 50
60.0
100
AcDbText
  0
SOLID
  5
957
330
A
100
AcDbEntity
  8
寸法線
100
AcDbTrace
 10
916.8477820148813
 20
289.9962041362332
 30
0.0
 11
910.8477820148813
 21
288.4962041362332
 31
0.0
 12
910.8477820148813
 22
291.4962041362332
 32
0.0
 13
912.3477820148814
 23
289.9962041362332
 33
0.0
  0
LINE
  5
958
330
A
100
AcDbEntity
  8
寸法線
100
AcDbLine
 10
916.8477820148813
 20
289.9962041362332
 30
0.0
 11
913.8477820148812
 21
289.9962041362332
 31
0.0
  0
SOLID
  5
959
330
A
100
AcDbEntity
  8
寸法線
100
AcDbTrace
 10
796.8477820148813
 20
289.9962041362332
 30
0.0
 11
802.8477820148811
 21
291.4962041362332
 31
0.0
 12
802.8477820148811
 22
288.4962041362332
 32
0.0
 13
801.3477820148812
 23
289.9962041362332
 33
0.0
  0
LINE
  5
95A
330
A
100
AcDbEntity
  8
寸法線
100
AcDbLine
 10
796.8477820148813
 20
289.9962041362332
 30
0.0
 11
799.8477820148813
 21
289.9962041362332
 31
0.0
  0
LINE
  5
95B
330
A
100
AcDbEntity
  8
寸法線
100
AcDbLine
 10
796.8477820148813
 20
289.9962041362332
 30
0.0
 11
848.0283378352812
 21
289.9962041362332
 31
0.0
  0
LINE
  5
95C
330
A
100
AcDbEntity
  8
寸法線
100
AcDbLine
 10
796.8477820148813
 20
289.9962041362332
 30
0.0
 11
865.6672261943811
 21
289.9962041362332
 31
0.0
  0
LINE
  5
95D
330
A
100
AcDbEntity
  8
寸法線
100
AcDbLine
 10
916.8477820148813
 20
289.9962041362332
 30
0.0
 11
848.0283378352812
 21
289.9962041362332
 31
0.0
  0
LINE
  5
95E
330
A
100
AcDbEntity
  8
寸法線
100
AcDbLine
 10
916.8477820148813
 20
289.9962041362332
 30
0.0
 11
865.6672261943811
 21
289.9962041362332
 31
0.0
  0
LINE
  5
95F
330
A
100
AcDbEntity
  8
寸法線
100
AcDbLine
 10
796.8477820148813
 20
320.2332837566332
 30
0.0
 11
796.8477820148813
 21
289.4962041362332
 31
0.0
  0
LINE
  5
960
330
A
100
AcDbEntity
  8
寸法線
100
AcDbLine
 10
916.8477820148813
 20
309.2332837566332
 30
0.0
 11
916.8477820148813
 21
289.4962041362332
 31
0.0
  0
TEXT
  5
961
330
A
100
AcDbEntity
  8
寸法線
100
AcDbText
 10
851.5561155070811
 20
292.0545374377332
 30
0.0
 40
5.9972220421
  1
120
100
AcDbText
  0
SOLID
  5
962
330
A
100
AcDbEntity
  8
寸法線
100
AcDbTrace
 10
1076.847782014881
 20
651.454163721833
 30
0.0
 11
1070.847782014881
 21
649.9541637218333
 31
0.0
 12
1070.847782014881
 22
652.9541637218333
 32
0.0
 13
1072.347782014881
 23
651.454163721833
 33
0.0
  0
LINE
  5
963
330
A
100
AcDbEntity
  8
寸法線
100
AcDbLine
 10
1076.847782014881
 20
651.454163721833
 30
0.0
 11
1073.847782014881
 21
651.454163721833
 31
0.0
  0
SOLID
  5
964
330
A
100
AcDbEntity
  8
寸法線
100
AcDbTrace
 10
776.847782014881
 20
651.454163721833
 30
0.0
 11
782.8477820148813
 21
652.9541637218333
 31
0.0
 12
782.8477820148813
 22
649.9541637218333
 32
0.0
 13
781.3477820148813
 23
651.454163721833
 33
0.0
  0
LINE
  5
965
330
A
100
AcDbEntity
  8
寸法線
100
AcDbLine
 10
776.847782014881
 20
651.454163721833
 30
0.0
 11
779.8477820148812
 21
651.454163721833
 31
0.0
  0
LINE
  5
966
330
A
100
AcDbEntity
  8
寸法線
100
AcDbLine
 10
776.847782014881
 20
651.454163721833
 30
0.0
 11
900.3894494762811
 21
651.454163721833
 31
0.0
  0
LINE
  5
967
330
A
100
AcDbEntity
  8
寸法線
100
AcDbLine
 10
776.847782014881
 20
651.454163721833
 30
0.0
 11
953.3061145534812
 21
651.454163721833
 31
0.0
  0
LINE
  5
968
330
A
100
AcDbEntity
  8
寸法線
100
AcDbLine
 10
1076.847782014881
 20
651.454163721833
 30
0.0
 11
900.3894494762811
 21
651.454163721833
 31
0.0
  0
LINE
  5
969
330
A
100
AcDbEntity
  8
寸法線
100
AcDbLine
 10
1076.847782014881
 20
651.454163721833
 30
0.0
 11
953.3061145534812
 21
651.454163721833
 31
0.0
  0
LINE
  5
96A
330
A
100
AcDbEntity
  8
寸法線
100
AcDbLine
 10
776.847782014881
 20
624.504082233633
 30
0.0
 11
776.847782014881
 21
651.9541637218329
 31
0.0
  0
LINE
  5
96B
330
A
100
AcDbEntity
  8
寸法線
100
AcDbLine
 10
1076.847782014881
 20
620.0040822336331
 30
0.0
 11
1076.847782014881
 21
651.9541637218329
 31
0.0
  0
TEXT
  5
96C
330
A
100
AcDbEntity
  8
寸法線
100
AcDbText
 10
903.9172271480811
 20
653.5124970234331
 30
0.0
 40
5.9972220421
  1
300（天板側）
100
AcDbText
  0
SOLID
  5
96D
330
A
100
AcDbEntity
  8
寸法線
100
AcDbTrace
 10
1103.692572420481
 20
473.5040822336332
 30
0.0
 11
1102.192572420481
 21
479.5040822336331
 31
0.0
 12
1105.192572420481
 22
479.5040822336331
 32
0.0
 13
1103.692572420481
 23
478.0040822336331
 33
0.0
  0
LINE
  5
96E
330
A
100
AcDbEntity
  8
寸法線
100
AcDbLine
 10
1103.692572420481
 20
473.5040822336332
 30
0.0
 11
1103.692572420481
 21
476.5040822336332
 31
0.0
  0
SOLID
  5
96F
330
A
100
AcDbEntity
  8
寸法線
100
AcDbTrace
 10
1103.692572420481
 20
623.5040822336332
 30
0.0
 11
1105.192572420481
 21
617.5040822336333
 31
0.0
 12
1102.192572420481
 22
617.5040822336333
 32
0.0
 13
1103.692572420481
 23
619.0040822336333
 33
0.0
  0
LINE
  5
970
330
A
100
AcDbEntity
  8
寸法線
100
AcDbLine
 10
1103.692572420481
 20
623.5040822336332
 30
0.0
 11
1103.692572420481
 21
620.504082233633
 31
0.0
  0
LINE
  5
971
330
A
100
AcDbEntity
  8
寸法線
100
AcDbLine
 10
1103.692572420481
 20
623.5040822336332
 30
0.0
 11
1103.692572420481
 21
525.5735273668332
 31
0.0
  0
LINE
  5
972
330
A
100
AcDbEntity
  8
寸法線
100
AcDbLine
 10
1103.692572420481
 20
623.5040822336332
 30
0.0
 11
1103.692572420481
 21
571.4346371004332
 31
0.0
  0
LINE
  5
973
330
A
100
AcDbEntity
  8
寸法線
100
AcDbLine
 10
1103.692572420481
 20
473.5040822336332
 30
0.0
 11
1103.692572420481
 21
525.5735273668332
 31
0.0
  0
LINE
  5
974
330
A
100
AcDbEntity
  8
寸法線
100
AcDbLine
 10
1103.692572420481
 20
473.5040822336332
 30
0.0
 11
1103.692572420481
 21
571.4346371004332
 31
0.0
  0
LINE
  5
975
330
A
100
AcDbEntity
  8
寸法線
100
AcDbLine
 10
1073.347782014881
 20
623.5040822336332
 30
0.0
 11
1104.192572420481
 21
623.5040822336332
 31
0.0
  0
LINE
  5
976
330
A
100
AcDbEntity
  8
寸法線
100
AcDbLine
 10
1078.276386735281
 20
473.5040822336332
 30
0.0
 11
1104.192572420481
 21
473.5040822336332
 31
0.0
  0
TEXT
  5
977
330
A
100
AcDbEntity
  8
寸法線
100
AcDbText
 10
1101.634239118981
 20
529.1013050386331
 30
0.0
 40
5.9972220421
  1
150（壁側）
 50
90.0
100
AcDbText
  0
SOLID
  5
978
330
A
100
AcDbEntity
  8
寸法線
100
AcDbTrace
 10
677.0528601398811
 20
593.5040822336333
 30
0.0
 11
675.5528601398808
 21
599.504082233633
 31
0.0
 12
678.552860139881
 22
599.504082233633
 32
0.0
 13
677.0528601398811
 23
598.0040822336333
 33
0.0
  0
LINE
  5
979
330
A
100
AcDbEntity
  8
寸法線
100
AcDbLine
 10
677.0528601398811
 20
593.5040822336333
 30
0.0
 11
677.0528601398811
 21
596.5040822336333
 31
0.0
  0
SOLID
  5
97A
330
A
100
AcDbEntity
  8
寸法線
100
AcDbTrace
 10
677.0528601398811
 20
623.5040822336332
 30
0.0
 11
678.552860139881
 21
617.5040822336333
 31
0.0
 12
675.5528601398808
 22
617.5040822336333
 32
0.0
 13
677.0528601398811
 23
619.0040822336333
 33
0.0
  0
LINE
  5
97B
330
A
100
AcDbEntity
  8
寸法線
100
AcDbLine
 10
677.0528601398811
 20
623.5040822336332
 30
0.0
 11
677.0528601398811
 21
620.504082233633
 31
0.0
  0
LINE
  5
97C
330
A
100
AcDbEntity
  8
寸法線
100
AcDbLine
 10
677.0528601398811
 20
623.5040822336332
 30
0.0
 11
677.0528601398811
 21
601.4485268899329
 31
0.0
  0
LINE
  5
97D
330
A
100
AcDbEntity
  8
寸法線
100
AcDbLine
 10
677.0528601398811
 20
623.5040822336332
 30
0.0
 11
677.0528601398811
 21
615.5596375772331
 31
0.0
  0
LINE
  5
97E
330
A
100
AcDbEntity
  8
寸法線
100
AcDbLine
 10
677.0528601398811
 20
593.5040822336333
 30
0.0
 11
677.0528601398811
 21
601.4485268899329
 31
0.0
  0
LINE
  5
97F
330
A
100
AcDbEntity
  8
寸法線
100
AcDbLine
 10
677.0528601398811
 20
593.5040822336333
 30
0.0
 11
677.0528601398811
 21
615.5596375772331
 31
0.0
  0
LINE
  5
980
330
A
100
AcDbEntity
  8
寸法線
100
AcDbLine
 10
658.052860139881
 20
623.5040822336332
 30
0.0
 11
677.5528601398811
 21
623.5040822336332
 31
0.0
  0
LINE
  5
981
330
A
100
AcDbEntity
  8
寸法線
100
AcDbLine
 10
635.5528601398811
 20
593.5040822336333
 30
0.0
 11
677.5528601398811
 21
593.5040822336333
 31
0.0
  0
TEXT
  5
982
330
A
100
AcDbEntity
  8
寸法線
100
AcDbText
 10
674.9945268382811
 20
604.9763045618332
 30
0.0
 40
5.9972220421
  1
30
 50
90.0
100
AcDbText
  0
SOLID
  5
983
330
A
100
AcDbEntity
  8
寸法線
100
AcDbTrace
 10
854.968895436481
 20
453.5040822336331
 30
0.0
 11
860.9688954364811
 21
455.0040822336332
 31
0.0
 12
860.9688954364811
 22
452.0040822336332
 32
0.0
 13
859.468895436481
 23
453.5040822336331
 33
0.0
  0
LINE
  5
984
330
A
100
AcDbEntity
  8
寸法線
100
AcDbLine
 10
854.968895436481
 20
453.5040822336331
 30
0.0
 11
857.968895436481
 21
453.5040822336331
 31
0.0
  0
SOLID
  5
985
330
A
100
AcDbEntity
  8
寸法線
100
AcDbTrace
 10
1071.847782014881
 20
453.5040822336331
 30
0.0
 11
1065.847782014881
 21
452.0040822336332
 31
0.0
 12
1065.847782014881
 22
455.0040822336332
 32
0.0
 13
1067.347782014881
 23
453.5040822336331
 33
0.0
  0
LINE
  5
986
330
A
100
AcDbEntity
  8
寸法線
100
AcDbLine
 10
1071.847782014881
 20
453.5040822336331
 30
0.0
 11
1068.847782014881
 21
453.5040822336331
 31
0.0
  0
LINE
  5
987
330
A
100
AcDbEntity
  8
寸法線
100
AcDbLine
 10
1071.847782014881
 20
453.5040822336331
 30
0.0
 11
944.0055615306814
 21
453.5040822336331
 31
0.0
  0
LINE
  5
988
330
A
100
AcDbEntity
  8
寸法線
100
AcDbLine
 10
1071.847782014881
 20
453.5040822336331
 30
0.0
 11
982.8111159206812
 21
453.5040822336331
 31
0.0
  0
LINE
  5
989
330
A
100
AcDbEntity
  8
寸法線
100
AcDbLine
 10
854.968895436481
 20
453.5040822336331
 30
0.0
 11
944.0055615306814
 21
453.5040822336331
 31
0.0
  0
LINE
  5
98A
330
A
100
AcDbEntity
  8
寸法線
100
AcDbLine
 10
854.968895436481
 20
453.5040822336331
 30
0.0
 11
982.8111159206812
 21
453.5040822336331
 31
0.0
  0
LINE
  5
98B
330
A
100
AcDbEntity
  8
寸法線
100
AcDbLine
 10
1071.847782014881
 20
472.5040822336332
 30
0.0
 11
1071.847782014881
 21
453.0040822336331
 31
0.0
  0
LINE
  5
98C
330
A
100
AcDbEntity
  8
寸法線
100
AcDbLine
 10
854.968895436481
 20
617.5040822336333
 30
0.0
 11
854.968895436481
 21
453.0040822336331
 31
0.0
  0
TEXT
  5
98D
330
A
100
AcDbEntity
  8
寸法線
100
AcDbText
 10
947.5333392024811
 20
455.5624155351331
 30
0.0
 40
5.9972220421
  1
補強(215)
100
AcDbText
  0
SOLID
  5
98E
330
A
100
AcDbEntity
  8
寸法線
100
AcDbTrace
 10
1123.560719418381
 20
309.7332837566332
 30
0.0
 11
1122.060719418381
 21
315.7332837566332
 31
0.0
 12
1125.060719418381
 22
315.7332837566332
 32
0.0
 13
1123.560719418381
 23
314.2332837566332
 33
0.0
  0
LINE
  5
98F
330
A
100
AcDbEntity
  8
寸法線
100
AcDbLine
 10
1123.560719418381
 20
309.7332837566332
 30
0.0
 11
1123.560719418381
 21
312.7332837566332
 31
0.0
  0
SOLID
  5
990
330
A
100
AcDbEntity
  8
寸法線
100
AcDbTrace
 10
1123.560719418381
 20
347.7332837566332
 30
0.0
 11
1125.060719418381
 21
341.7332837566332
 31
0.0
 12
1122.060719418381
 22
341.7332837566332
 32
0.0
 13
1123.560719418381
 23
343.2332837566332
 33
0.0
  0
LINE
  5
991
330
A
100
AcDbEntity
  8
寸法線
100
AcDbLine
 10
1123.560719418381
 20
347.7332837566332
 30
0.0
 11
1123.560719418381
 21
344.7332837566332
 31
0.0
  0
LINE
  5
992
330
A
100
AcDbEntity
  8
寸法線
100
AcDbLine
 10
1123.560719418381
 20
347.7332837566332
 30
0.0
 11
1123.560719418381
 21
321.6777284129332
 31
0.0
  0
LINE
  5
993
330
A
100
AcDbEntity
  8
寸法線
100
AcDbLine
 10
1123.560719418381
 20
347.7332837566332
 30
0.0
 11
1123.560719418381
 21
335.7888391002332
 31
0.0
  0
LINE
  5
994
330
A
100
AcDbEntity
  8
寸法線
100
AcDbLine
 10
1123.560719418381
 20
309.7332837566332
 30
0.0
 11
1123.560719418381
 21
321.6777284129332
 31
0.0
  0
LINE
  5
995
330
A
100
AcDbEntity
  8
寸法線
100
AcDbLine
 10
1123.560719418381
 20
309.7332837566332
 30
0.0
 11
1123.560719418381
 21
335.7888391002332
 31
0.0
  0
LINE
  5
996
330
A
100
AcDbEntity
  8
寸法線
100
AcDbLine
 10
1077.847782014881
 20
347.7332837566332
 30
0.0
 11
1124.060719418381
 21
347.7332837566332
 31
0.0
  0
LINE
  5
997
330
A
100
AcDbEntity
  8
寸法線
100
AcDbLine
 10
1077.847782014881
 20
309.7332837566332
 30
0.0
 11
1124.060719418381
 21
309.7332837566332
 31
0.0
  0
TEXT
  5
998
330
A
100
AcDbEntity
  8
寸法線
100
AcDbText
 10
1121.502386116881
 20
325.2055060847332
 30
0.0
 40
5.9972220421
  1
38
 50
90.0
100
AcDbText
  0
SOLID
  5
999
330
A
100
AcDbEntity
  8
寸法線
100
AcDbTrace
 10
995.478785543681
 20
581.8720799959331
 30
0.0
 11
997.0477327883811
 21
587.8544210547331
 31
0.0
 12
999.6783700813812
 22
586.4122881091332
 32
0.0
 13
997.6419849620812
 23
585.8180359354332
 33
0.0
  0
LINE
  5
99A
330
A
100
AcDbEntity
  8
寸法線
100
AcDbLine
 10
995.478785543681
 20
581.8720799959331
 30
0.0
 11
996.9209184892806
 21
584.5027172889332
 31
0.0
  0
SOLID
  5
99B
330
A
100
AcDbEntity
  8
寸法線
100
AcDbTrace
 10
983.4610109970812
 20
559.9501025544332
 30
0.0
 11
981.8920637523813
 21
553.9677614956331
 31
0.0
 12
979.261426459481
 22
555.4098944412332
 32
0.0
 13
981.297811578681
 23
556.0041466149331
 33
0.0
  0
LINE
  5
99C
330
A
100
AcDbEntity
  8
寸法線
100
AcDbLine
 10
983.4610109970812
 20
559.9501025544332
 30
0.0
 11
982.018878051481
 21
557.3194652614331
 31
0.0
  0
LINE
  5
99D
330
A
100
AcDbEntity
  8
寸法線
100
AcDbLine
 10
983.4610109970812
 20
559.9501025544332
 30
0.0
 11
986.7743371639813
 21
565.9940386596332
 31
0.0
  0
LINE
  5
99E
330
A
100
AcDbEntity
  8
寸法線
100
AcDbLine
 10
983.4610109970812
 20
559.9501025544332
 30
0.0
 11
993.557703037581
 21
578.3677766660332
 31
0.0
  0
LINE
  5
99F
330
A
100
AcDbEntity
  8
寸法線
100
AcDbLine
 10
995.478785543681
 20
581.8720799959331
 30
0.0
 11
986.7743371639813
 21
565.9940386596332
 31
0.0
  0
LINE
  5
9A0
330
A
100
AcDbEntity
  8
寸法線
100
AcDbLine
 10
995.478785543681
 20
581.8720799959331
 30
0.0
 11
993.557703037581
 21
578.3677766660332
 31
0.0
  0
LINE
  5
9A1
330
A
100
AcDbEntity
  8
寸法線
100
AcDbLine
 10
987.7020804746813
 20
557.6251199220331
 30
0.0
 11
983.0225714482812
 21
560.1904580453332
 31
0.0
  0
LINE
  5
9A2
330
A
100
AcDbEntity
  8
寸法線
100
AcDbLine
 10
999.7198550212813
 20
579.5470973636331
 30
0.0
 11
995.0403459948812
 21
582.1124354868333
 31
0.0
  0
TEXT
  5
9A3
330
A
100
AcDbEntity
  8
寸法線
100
AcDbText
 10
986.665269184181
 20
570.0769365836332
 30
0.0
 40
5.9972220421
  1
25
 50
61.2681523411
100
AcDbText
  0
SOLID
  5
9A4
330
A
100
AcDbEntity
  8
寸法線
100
AcDbTrace
 10
657.0528601398811
 20
652.1956184747332
 30
0.0
 11
663.0528601398808
 21
653.6956184747332
 31
0.0
 12
663.0528601398808
 22
650.6956184747332
 32
0.0
 13
661.5528601398811
 23
652.1956184747332
 33
0.0
  0
LINE
  5
9A5
330
A
100
AcDbEntity
  8
寸法線
100
AcDbLine
 10
657.0528601398811
 20
652.1956184747332
 30
0.0
 11
660.0528601398811
 21
652.1956184747332
 31
0.0
  0
SOLID
  5
9A6
330
A
100
AcDbEntity
  8
寸法線
100
AcDbTrace
 10
649.0528601398811
 20
652.1956184747332
 30
0.0
 11
643.0528601398811
 21
650.6956184747332
 31
0.0
 12
643.0528601398811
 22
653.6956184747332
 32
0.0
 13
644.5528601398811
 23
652.1956184747332
 33
0.0
  0
LINE
  5
9A7
330
A
100
AcDbEntity
  8
寸法線
100
AcDbLine
 10
649.0528601398811
 20
652.1956184747332
 30
0.0
 11
646.0528601398809
 21
652.1956184747332
 31
0.0
  0
LINE
  5
9A8
330
A
100
AcDbEntity
  8
寸法線
100
AcDbLine
 10
649.0528601398811
 20
652.1956184747332
 30
0.0
 11
649.0528601398811
 21
652.1956184747332
 31
0.0
  0
LINE
  5
9A9
330
A
100
AcDbEntity
  8
寸法線
100
AcDbLine
 10
649.0528601398811
 20
652.1956184747332
 30
0.0
 11
657.0528601398811
 21
652.1956184747332
 31
0.0
  0
LINE
  5
9AA
330
A
100
AcDbEntity
  8
寸法線
100
AcDbLine
 10
657.0528601398811
 20
652.1956184747332
 30
0.0
 11
649.0528601398811
 21
652.1956184747332
 31
0.0
  0
LINE
  5
9AB
330
A
100
AcDbEntity
  8
寸法線
100
AcDbLine
 10
657.0528601398811
 20
652.1956184747332
 30
0.0
 11
657.0528601398811
 21
652.1956184747332
 31
0.0
  0
LINE
  5
9AC
330
A
100
AcDbEntity
  8
寸法線
100
AcDbLine
 10
649.0528601398811
 20
592.0040822336329
 30
0.0
 11
649.0528601398811
 21
652.6956184747332
 31
0.0
  0
LINE
  5
9AD
330
A
100
AcDbEntity
  8
寸法線
100
AcDbLine
 10
657.0528601398811
 20
624.504082233633
 30
0.0
 11
657.0528601398811
 21
652.6956184747332
 31
0.0
  0
TEXT
  5
9AE
330
A
100
AcDbEntity
  8
寸法線
100
AcDbText
 10
651.288971303981
 20
654.2539517763332
 30
0.0
 40
5.9972220421
  1
8
100
AcDbText
  0
SOLID
  5
9AF
330
A
100
AcDbEntity
  8
寸法線
100
AcDbTrace
 10
649.0528601398811
 20
652.1956184747332
 30
0.0
 11
655.0528601398808
 21
653.6956184747332
 31
0.0
 12
655.0528601398808
 22
650.6956184747332
 32
0.0
 13
653.552860139881
 23
652.1956184747332
 33
0.0
  0
LINE
  5
9B0
330
A
100
AcDbEntity
  8
寸法線
100
AcDbLine
 10
649.0528601398811
 20
652.1956184747332
 30
0.0
 11
652.0528601398811
 21
652.1956184747332
 31
0.0
  0
SOLID
  5
9B1
330
A
100
AcDbEntity
  8
寸法線
100
AcDbTrace
 10
627.0528601398811
 20
652.1956184747332
 30
0.0
 11
621.0528601398809
 21
650.6956184747332
 31
0.0
 12
621.0528601398809
 22
653.6956184747332
 32
0.0
 13
622.5528601398811
 23
652.1956184747332
 33
0.0
  0
LINE
  5
9B2
330
A
100
AcDbEntity
  8
寸法線
100
AcDbLine
 10
627.0528601398811
 20
652.1956184747332
 30
0.0
 11
624.0528601398811
 21
652.1956184747332
 31
0.0
  0
LINE
  5
9B3
330
A
100
AcDbEntity
  8
寸法線
100
AcDbLine
 10
627.0528601398811
 20
652.1956184747332
 30
0.0
 11
630.997304796181
 21
652.1956184747332
 31
0.0
  0
LINE
  5
9B4
330
A
100
AcDbEntity
  8
寸法線
100
AcDbLine
 10
627.0528601398811
 20
652.1956184747332
 30
0.0
 11
645.1084154834809
 21
652.1956184747332
 31
0.0
  0
LINE
  5
9B5
330
A
100
AcDbEntity
  8
寸法線
100
AcDbLine
 10
649.0528601398811
 20
652.1956184747332
 30
0.0
 11
630.997304796181
 21
652.1956184747332
 31
0.0
  0
LINE
  5
9B6
330
A
100
AcDbEntity
  8
寸法線
100
AcDbLine
 10
649.0528601398811
 20
652.1956184747332
 30
0.0
 11
645.1084154834809
 21
652.1956184747332
 31
0.0
  0
LINE
  5
9B7
330
A
100
AcDbEntity
  8
寸法線
100
AcDbLine
 10
627.0528601398811
 20
602.0040822336333
 30
0.0
 11
627.0528601398811
 21
652.6956184747332
 31
0.0
  0
LINE
  5
9B8
330
A
100
AcDbEntity
  8
寸法線
100
AcDbLine
 10
649.0528601398811
 20
592.0040822336329
 30
0.0
 11
649.0528601398811
 21
652.6956184747332
 31
0.0
  0
TEXT
  5
9B9
330
A
100
AcDbEntity
  8
寸法線
100
AcDbText
 10
634.525082467981
 20
654.2539517763332
 30
0.0
 40
5.9972220421
  1
22
100
AcDbText
  0
SOLID
  5
9BA
330
A
100
AcDbEntity
  8
寸法線
100
AcDbTrace
 10
677.0528601398811
 20
583.5040822336329
 30
0.0
 11
678.552860139881
 21
577.5040822336332
 31
0.0
 12
675.5528601398808
 22
577.5040822336332
 32
0.0
 13
677.0528601398811
 23
579.0040822336329
 33
0.0
  0
LINE
  5
9BB
330
A
100
AcDbEntity
  8
寸法線
100
AcDbLine
 10
677.0528601398811
 20
583.5040822336329
 30
0.0
 11
677.0528601398811
 21
580.5040822336333
 31
0.0
  0
SOLID
  5
9BC
330
A
100
AcDbEntity
  8
寸法線
100
AcDbTrace
 10
677.0528601398811
 20
593.5040822336333
 30
0.0
 11
675.5528601398808
 21
599.504082233633
 31
0.0
 12
678.552860139881
 22
599.504082233633
 32
0.0
 13
677.0528601398811
 23
598.0040822336333
 33
0.0
  0
LINE
  5
9BD
330
A
100
AcDbEntity
  8
寸法線
100
AcDbLine
 10
677.0528601398811
 20
593.5040822336333
 30
0.0
 11
677.0528601398811
 21
596.5040822336333
 31
0.0
  0
LINE
  5
9BE
330
A
100
AcDbEntity
  8
寸法線
100
AcDbLine
 10
677.0528601398811
 20
593.5040822336333
 30
0.0
 11
677.0528601398811
 21
593.5040822336333
 31
0.0
  0
LINE
  5
9BF
330
A
100
AcDbEntity
  8
寸法線
100
AcDbLine
 10
677.0528601398811
 20
593.5040822336333
 30
0.0
 11
677.0528601398811
 21
583.5040822336329
 31
0.0
  0
LINE
  5
9C0
330
A
100
AcDbEntity
  8
寸法線
100
AcDbLine
 10
677.0528601398811
 20
583.5040822336329
 30
0.0
 11
677.0528601398811
 21
593.5040822336333
 31
0.0
  0
LINE
  5
9C1
330
A
100
AcDbEntity
  8
寸法線
100
AcDbLine
 10
677.0528601398811
 20
583.5040822336329
 30
0.0
 11
677.0528601398811
 21
583.5040822336329
 31
0.0
  0
LINE
  5
9C2
330
A
100
AcDbEntity
  8
寸法線
100
AcDbLine
 10
635.5528601398811
 20
593.5040822336333
 30
0.0
 11
677.5528601398811
 21
593.5040822336333
 31
0.0
  0
LINE
  5
9C3
330
A
100
AcDbEntity
  8
寸法線
100
AcDbLine
 10
657.5528601398811
 20
583.5040822336329
 30
0.0
 11
677.5528601398811
 21
583.5040822336329
 31
0.0
  0
TEXT
  5
9C4
330
A
100
AcDbEntity
  8
寸法線
100
AcDbText
 10
674.9945268382811
 20
584.9763045618332
 30
0.0
 40
5.9972220421
  1
10
 50
90.0
100
AcDbText
  0
SOLID
  5
9C5
330
A
100
AcDbEntity
  8
寸法線
100
AcDbTrace
 10
778.5514907003807
 20
341.6742360117333
 30
0.0
 11
772.6053382776813
 21
343.3751979060332
 31
0.0
 12
774.1053382776811
 22
345.9732741174331
 32
0.0
 13
774.6543763833812
 23
343.9242360117332
 33
0.0
  0
LINE
  5
9C6
330
A
100
AcDbEntity
  8
寸法線
100
AcDbLine
 10
778.5514907003807
 20
341.6742360117333
 30
0.0
 11
746.7790841773811
 21
360.0180434706332
 31
0.0
  0
TEXT
  5
9C7
330
A
100
AcDbEntity
  8
寸法線
100
AcDbText
 10
748.0138063624811
 20
362.1566450284332
 30
0.0
 40
5.9972220421
  1
R50
 50
330.0
100
AcDbText
  0
SOLID
  5
9C8
330
A
100
AcDbEntity
  8
寸法線
100
AcDbTrace
 10
677.0528601398811
 20
483.5040822336331
 30
0.0
 11
675.5528601398808
 21
489.5040822336332
 31
0.0
 12
678.552860139881
 22
489.5040822336332
 32
0.0
 13
677.0528601398811
 23
488.0040822336332
 33
0.0
  0
LINE
  5
9C9
330
A
100
AcDbEntity
  8
寸法線
100
AcDbLine
 10
677.0528601398811
 20
483.5040822336331
 30
0.0
 11
677.0528601398811
 21
486.5040822336331
 31
0.0
  0
SOLID
  5
9CA
330
A
100
AcDbEntity
  8
寸法線
100
AcDbTrace
 10
677.0528601398811
 20
583.5040822336329
 30
0.0
 11
678.552860139881
 21
577.5040822336332
 31
0.0
 12
675.5528601398808
 22
577.5040822336332
 32
0.0
 13
677.0528601398811
 23
579.0040822336329
 33
0.0
  0
LINE
  5
9CB
330
A
100
AcDbEntity
  8
寸法線
100
AcDbLine
 10
677.0528601398811
 20
583.5040822336329
 30
0.0
 11
677.0528601398811
 21
580.5040822336333
 31
0.0
  0
LINE
  5
9CC
330
A
100
AcDbEntity
  8
寸法線
100
AcDbLine
 10
677.0528601398811
 20
583.5040822336329
 30
0.0
 11
677.0528601398811
 21
524.6846380540332
 31
0.0
  0
LINE
  5
9CD
330
A
100
AcDbEntity
  8
寸法線
100
AcDbLine
 10
677.0528601398811
 20
583.5040822336329
 30
0.0
 11
677.0528601398811
 21
542.3235264131331
 31
0.0
  0
LINE
  5
9CE
330
A
100
AcDbEntity
  8
寸法線
100
AcDbLine
 10
677.0528601398811
 20
483.5040822336331
 30
0.0
 11
677.0528601398811
 21
524.6846380540332
 31
0.0
  0
LINE
  5
9CF
330
A
100
AcDbEntity
  8
寸法線
100
AcDbLine
 10
677.0528601398811
 20
483.5040822336331
 30
0.0
 11
677.0528601398811
 21
542.3235264131331
 31
0.0
  0
LINE
  5
9D0
330
A
100
AcDbEntity
  8
寸法線
100
AcDbLine
 10
657.5528601398811
 20
583.5040822336329
 30
0.0
 11
677.5528601398811
 21
583.5040822336329
 31
0.0
  0
LINE
  5
9D1
330
A
100
AcDbEntity
  8
寸法線
100
AcDbLine
 10
646.5528601398808
 20
483.5040822336331
 30
0.0
 11
677.5528601398811
 21
483.5040822336331
 31
0.0
  0
TEXT
  5
9D2
330
A
100
AcDbEntity
  8
寸法線
100
AcDbText
 10
674.9945268382811
 20
528.2124157259331
 30
0.0
 40
5.9972220421
  1
100
 50
90.0
100
AcDbText
  0
SOLID
  5
9D3
330
A
100
AcDbEntity
  8
寸法線
100
AcDbTrace
 10
640.5528601398811
 20
638.5040822336333
 30
0.0
 11
646.5528601398808
 21
640.0040822336332
 31
0.0
 12
646.5528601398808
 22
637.004082233633
 32
0.0
 13
645.0528601398811
 23
638.5040822336333
 33
0.0
  0
LINE
  5
9D4
330
A
100
AcDbEntity
  8
寸法線
100
AcDbLine
 10
640.5528601398811
 20
638.5040822336333
 30
0.0
 11
643.5528601398811
 21
638.5040822336333
 31
0.0
  0
SOLID
  5
9D5
330
A
100
AcDbEntity
  8
寸法線
100
AcDbTrace
 10
635.5528601398811
 20
638.5040822336333
 30
0.0
 11
629.5528601398808
 21
637.004082233633
 31
0.0
 12
629.5528601398808
 22
640.0040822336332
 32
0.0
 13
631.0528601398811
 23
638.5040822336333
 33
0.0
  0
LINE
  5
9D6
330
A
100
AcDbEntity
  8
寸法線
100
AcDbLine
 10
635.5528601398811
 20
638.5040822336333
 30
0.0
 11
632.5528601398811
 21
638.5040822336333
 31
0.0
  0
LINE
  5
9D7
330
A
100
AcDbEntity
  8
寸法線
100
AcDbLine
 10
635.5528601398811
 20
638.5040822336333
 30
0.0
 11
635.5528601398811
 21
638.5040822336333
 31
0.0
  0
LINE
  5
9D8
330
A
100
AcDbEntity
  8
寸法線
100
AcDbLine
 10
635.5528601398811
 20
638.5040822336333
 30
0.0
 11
640.5528601398811
 21
638.5040822336333
 31
0.0
  0
LINE
  5
9D9
330
A
100
AcDbEntity
  8
寸法線
100
AcDbLine
 10
640.5528601398811
 20
638.5040822336333
 30
0.0
 11
635.5528601398811
 21
638.5040822336333
 31
0.0
  0
LINE
  5
9DA
330
A
100
AcDbEntity
  8
寸法線
100
AcDbLine
 10
640.5528601398811
 20
638.5040822336333
 30
0.0
 11
640.5528601398811
 21
638.5040822336333
 31
0.0
  0
LINE
  5
9DB
330
A
100
AcDbEntity
  8
寸法線
100
AcDbLine
 10
635.5528601398811
 20
619.5040822336332
 30
0.0
 11
635.5528601398811
 21
639.0040822336333
 31
0.0
  0
LINE
  5
9DC
330
A
100
AcDbEntity
  8
寸法線
100
AcDbLine
 10
640.5528601398811
 20
619.5040822336332
 30
0.0
 11
640.5528601398811
 21
639.0040822336333
 31
0.0
  0
TEXT
  5
9DD
330
A
100
AcDbEntity
  8
寸法線
100
AcDbText
 10
636.2889713039812
 20
640.5624155351333
 30
0.0
 40
5.9972220421
  1
5
100
AcDbText
  0
SOLID
  5
9DE
330
A
100
AcDbEntity
  8
寸法線
100
AcDbTrace
 10
677.0528601398811
 20
473.5040822336332
 30
0.0
 11
678.552860139881
 21
467.5040822336332
 31
0.0
 12
675.5528601398808
 22
467.5040822336332
 32
0.0
 13
677.0528601398811
 23
469.0040822336332
 33
0.0
  0
LINE
  5
9DF
330
A
100
AcDbEntity
  8
寸法線
100
AcDbLine
 10
677.0528601398811
 20
473.5040822336332
 30
0.0
 11
677.0528601398811
 21
470.5040822336331
 31
0.0
  0
SOLID
  5
9E0
330
A
100
AcDbEntity
  8
寸法線
100
AcDbTrace
 10
677.0528601398811
 20
483.5040822336331
 30
0.0
 11
675.5528601398808
 21
489.5040822336332
 31
0.0
 12
678.552860139881
 22
489.5040822336332
 32
0.0
 13
677.0528601398811
 23
488.0040822336332
 33
0.0
  0
LINE
  5
9E1
330
A
100
AcDbEntity
  8
寸法線
100
AcDbLine
 10
677.0528601398811
 20
483.5040822336331
 30
0.0
 11
677.0528601398811
 21
486.5040822336331
 31
0.0
  0
LINE
  5
9E2
330
A
100
AcDbEntity
  8
寸法線
100
AcDbLine
 10
677.0528601398811
 20
483.5040822336331
 30
0.0
 11
677.0528601398811
 21
483.5040822336331
 31
0.0
  0
LINE
  5
9E3
330
A
100
AcDbEntity
  8
寸法線
100
AcDbLine
 10
677.0528601398811
 20
483.5040822336331
 30
0.0
 11
677.0528601398811
 21
473.5040822336332
 31
0.0
  0
LINE
  5
9E4
330
A
100
AcDbEntity
  8
寸法線
100
AcDbLine
 10
677.0528601398811
 20
473.5040822336332
 30
0.0
 11
677.0528601398811
 21
483.5040822336331
 31
0.0
  0
LINE
  5
9E5
330
A
100
AcDbEntity
  8
寸法線
100
AcDbLine
 10
677.0528601398811
 20
473.5040822336332
 30
0.0
 11
677.0528601398811
 21
473.5040822336332
 31
0.0
  0
LINE
  5
9E6
330
A
100
AcDbEntity
  8
寸法線
100
AcDbLine
 10
646.5528601398808
 20
483.5040822336331
 30
0.0
 11
677.5528601398811
 21
483.5040822336331
 31
0.0
  0
LINE
  5
9E7
330
A
100
AcDbEntity
  8
寸法線
100
AcDbLine
 10
639.0528601398811
 20
473.5040822336332
 30
0.0
 11
677.5528601398811
 21
473.5040822336332
 31
0.0
  0
TEXT
  5
9E8
330
A
100
AcDbEntity
  8
寸法線
100
AcDbText
 10
674.9945268382811
 20
474.9763045618331
 30
0.0
 40
5.9972220421
  1
10
 50
90.0
100
AcDbText
  0
SOLID
  5
9E9
330
A
100
AcDbEntity
  8
寸法線
100
AcDbTrace
 10
626.4750454885811
 20
474.8630069175332
 30
0.0
 11
624.2623149368811
 21
469.0877299973331
 31
0.0
 12
621.8048588040812
 22
470.8084593063331
 32
0.0
 13
623.8939515249811
 23
471.176822718233
 33
0.0
  0
LINE
  5
9EA
330
A
100
AcDbEntity
  8
寸法線
100
AcDbLine
 10
626.4750454885811
 20
474.8630069175332
 30
0.0
 11
607.6034535998809
 21
447.9115805776332
 31
0.0
  0
TEXT
  5
9EB
330
A
100
AcDbEntity
  8
寸法線
100
AcDbText
 10
605.580603195681
 20
449.327995679233
 30
0.0
 40
5.9972220421
  1
R50
 50
55.0
100
AcDbText
  0
SOLID
  5
9EC
330
A
100
AcDbEntity
  8
寸法線
100
AcDbTrace
 10
627.0528601398811
 20
652.1956184747332
 30
0.0
 11
633.052860139881
 21
653.6956184747332
 31
0.0
 12
633.052860139881
 22
650.6956184747332
 32
0.0
 13
631.5528601398811
 23
652.1956184747332
 33
0.0
  0
LINE
  5
9ED
330
A
100
AcDbEntity
  8
寸法線
100
AcDbLine
 10
627.0528601398811
 20
652.1956184747332
 30
0.0
 11
630.0528601398808
 21
652.1956184747332
 31
0.0
  0
SOLID
  5
9EE
330
A
100
AcDbEntity
  8
寸法線
100
AcDbTrace
 10
619.0528601398811
 20
652.1956184747332
 30
0.0
 11
613.0528601398808
 21
650.6956184747332
 31
0.0
 12
613.0528601398808
 22
653.6956184747332
 32
0.0
 13
614.5528601398811
 23
652.1956184747332
 33
0.0
  0
LINE
  5
9EF
330
A
100
AcDbEntity
  8
寸法線
100
AcDbLine
 10
619.0528601398811
 20
652.1956184747332
 30
0.0
 11
616.052860139881
 21
652.1956184747332
 31
0.0
  0
LINE
  5
9F0
330
A
100
AcDbEntity
  8
寸法線
100
AcDbLine
 10
619.0528601398811
 20
652.1956184747332
 30
0.0
 11
619.0528601398811
 21
652.1956184747332
 31
0.0
  0
LINE
  5
9F1
330
A
100
AcDbEntity
  8
寸法線
100
AcDbLine
 10
619.0528601398811
 20
652.1956184747332
 30
0.0
 11
627.0528601398811
 21
652.1956184747332
 31
0.0
  0
LINE
  5
9F2
330
A
100
AcDbEntity
  8
寸法線
100
AcDbLine
 10
627.0528601398811
 20
652.1956184747332
 30
0.0
 11
619.0528601398811
 21
652.1956184747332
 31
0.0
  0
LINE
  5
9F3
330
A
100
AcDbEntity
  8
寸法線
100
AcDbLine
 10
627.0528601398811
 20
652.1956184747332
 30
0.0
 11
627.0528601398811
 21
652.1956184747332
 31
0.0
  0
LINE
  5
9F4
330
A
100
AcDbEntity
  8
寸法線
100
AcDbLine
 10
619.0528601398811
 20
624.504082233633
 30
0.0
 11
619.0528601398811
 21
652.6956184747332
 31
0.0
  0
LINE
  5
9F5
330
A
100
AcDbEntity
  8
寸法線
100
AcDbLine
 10
627.0528601398811
 20
602.0040822336333
 30
0.0
 11
627.0528601398811
 21
652.6956184747332
 31
0.0
  0
TEXT
  5
9F6
330
A
100
AcDbEntity
  8
寸法線
100
AcDbText
 10
621.288971303981
 20
654.2539517763332
 30
0.0
 40
5.9972220421
  1
8
100
AcDbText
  0
SOLID
  5
9F7
330
A
100
AcDbEntity
  8
寸法線
100
AcDbTrace
 10
634.367552825681
 20
487.5867908933332
 30
0.0
 11
628.5922759053811
 21
489.7995214450332
 31
0.0
 12
630.3130052144811
 22
492.2569775778332
 32
0.0
 13
630.6813686263812
 23
490.1678848569331
 33
0.0
  0
LINE
  5
9F8
330
A
100
AcDbEntity
  8
寸法線
100
AcDbLine
 10
634.367552825681
 20
487.5867908933332
 30
0.0
 11
557.3153846402808
 21
541.5392998921332
 31
0.0
  0
TEXT
  5
9F9
330
A
100
AcDbEntity
  8
寸法線
100
AcDbText
 10
558.7317997419809
 20
543.5621502963331
 30
0.0
 40
5.9972220421
  1
3-Φ6穴　皿%%c11
 50
325.0
100
AcDbText
  0
LINE
  5
9FA
330
A
100
AcDbEntity
  8
寸法線
100
AcDbLine
 10
780.847782014881
 20
618.5040822336333
 30
0.0
 11
1044.120397918181
 21
618.5040822336333
 31
0.0
  0
LINE
  5
9FB
330
A
100
AcDbEntity
  8
寸法線
100
AcDbLine
 10
1071.847782014881
 20
477.5040822336332
 30
0.0
 11
1071.847782014881
 21
590.7766981369332
 31
0.0
  0
ARC
  5
9FC
330
A
100
AcDbEntity
  8
寸法線
100
AcDbCircle
 10
1071.847782014881
 20
618.5040822336333
 30
0.0
 40
31.7273840967
100
AcDbArc
 50
180.0
 51
206.8666061218
  0
ARC
  5
9FD
330
A
100
AcDbEntity
  8
寸法線
100
AcDbCircle
 10
1071.847782014881
 20
618.5040822336333
 30
0.0
 40
31.7273840967
100
AcDbArc
 50
256.6032984977
 51
270.0
  0
SOLID
  5
9FE
330
A
100
AcDbEntity
  8
寸法線
100
AcDbTrace
 10
1040.120397918181
 20
618.5040822336333
 30
0.0
 11
1041.620397918181
 21
612.5040822336329
 31
0.0
 12
1038.620397918181
 22
612.5040822336329
 32
0.0
 13
1040.120397918181
 23
614.0040822336333
 33
0.0
  0
SOLID
  5
9FF
330
A
100
AcDbEntity
  8
寸法線
100
AcDbTrace
 10
1071.847782014881
 20
586.7766981369332
 30
0.0
 11
1065.847782014881
 21
585.2766981369332
 31
0.0
 12
1065.847782014881
 22
588.2766981369331
 32
0.0
 13
1067.347782014881
 23
586.7766981369332
 33
0.0
  0
ARC
  5
A00
330
A
100
AcDbEntity
  8
寸法線
100
AcDbCircle
 10
1071.847782014881
 20
618.5040822336333
 30
0.0
 40
31.7273840967
100
AcDbArc
 50
252.7908251509
 51
270.0
  0
ARC
  5
A01
330
A
100
AcDbEntity
  8
寸法線
100
AcDbCircle
 10
1071.847782014881
 20
618.5040822336333
 30
0.0
 40
31.7273840967
100
AcDbArc
 50
180.0
 51
197.2091748491
  0
TEXT
  5
A02
330
A
100
AcDbEntity
  8
寸法線
100
AcDbText
 10
1050.010510661781
 20
599.3631847276333
 30
0.0
 40
5.9972220421
  1
90%%d
 50
321.7349523097001
100
AcDbText
  0
SOLID
  5
A03
330
A
100
AcDbEntity
  8
寸法線
100
AcDbTrace
 10
756.8477820148813
 20
618.5040822336333
 30
0.0
 11
758.3477820148813
 21
612.5040822336329
 31
0.0
 12
755.3477820148811
 22
612.5040822336329
 32
0.0
 13
756.8477820148813
 23
614.0040822336333
 33
0.0
  0
LINE
  5
A04
330
A
100
AcDbEntity
  8
寸法線
100
AcDbLine
 10
756.8477820148813
 20
618.5040822336333
 30
0.0
 11
756.8477820148813
 21
615.5040822336331
 31
0.0
  0
SOLID
  5
A05
330
A
100
AcDbEntity
  8
寸法線
100
AcDbTrace
 10
756.8477820148813
 20
503.5040822336331
 30
0.0
 11
755.3477820148811
 21
509.5040822336332
 31
0.0
 12
758.3477820148813
 22
509.5040822336332
 32
0.0
 13
756.8477820148813
 23
508.0040822336331
 33
0.0
  0
LINE
  5
A06
330
A
100
AcDbEntity
  8
寸法線
100
AcDbLine
 10
756.8477820148813
 20
503.5040822336331
 30
0.0
 11
756.8477820148813
 21
506.5040822336332
 31
0.0
  0
LINE
  5
A07
330
A
100
AcDbEntity
  8
寸法線
100
AcDbLine
 10
756.8477820148813
 20
503.5040822336331
 30
0.0
 11
756.8477820148813
 21
541.6013050386331
 31
0.0
  0
LINE
  5
A08
330
A
100
AcDbEntity
  8
寸法線
100
AcDbLine
 10
756.8477820148813
 20
503.5040822336331
 30
0.0
 11
756.8477820148813
 21
580.4068594286333
 31
0.0
  0
LINE
  5
A09
330
A
100
AcDbEntity
  8
寸法線
100
AcDbLine
 10
756.8477820148813
 20
618.5040822336333
 30
0.0
 11
756.8477820148813
 21
541.6013050386331
 31
0.0
  0
LINE
  5
A0A
330
A
100
AcDbEntity
  8
寸法線
100
AcDbLine
 10
756.8477820148813
 20
618.5040822336333
 30
0.0
 11
756.8477820148813
 21
580.4068594286333
 31
0.0
  0
LINE
  5
A0B
330
A
100
AcDbEntity
  8
寸法線
100
AcDbLine
 10
1070.847782014881
 20
503.5040822336331
 30
0.0
 11
756.3477820148809
 21
503.5040822336331
 31
0.0
  0
LINE
  5
A0C
330
A
100
AcDbEntity
  8
寸法線
100
AcDbLine
 10
775.8477820148812
 20
618.5040822336333
 30
0.0
 11
756.3477820148809
 21
618.5040822336333
 31
0.0
  0
TEXT
  5
A0D
330
A
100
AcDbEntity
  8
寸法線
100
AcDbText
 10
754.7894487132809
 20
545.1290827104329
 30
0.0
 40
5.9972220421
  1
補強(115)
 50
90.0
100
AcDbText
  0
SOLID
  5
A0E
330
A
100
AcDbEntity
  8
寸法線
100
AcDbTrace
 10
1032.338156016581
 20
342.8818188692332
 30
0.0
 11
1026.562879096281
 21
345.0945494209332
 31
0.0
 12
1028.283608405381
 22
347.5520055538332
 32
0.0
 13
1028.651971817281
 23
345.4629128328333
 33
0.0
  0
LINE
  5
A0F
330
A
100
AcDbEntity
  8
寸法線
100
AcDbLine
 10
1032.338156016581
 20
342.8818188692332
 30
0.0
 11
956.492415075381
 21
395.9895784174332
 31
0.0
  0
TEXT
  5
A10
330
A
100
AcDbEntity
  8
寸法線
100
AcDbText
 10
957.9088301769811
 20
398.0124288215332
 30
0.0
 40
5.9972220421
  1
3-Φ6穴　皿%%c11
 50
325.0
100
AcDbText
  0
ARC
  5
A11
330
A
100
AcDbEntity
  8
Layer1
 62
     5
370
    18
100
AcDbCircle
 10
857.968895436481
 20
615.5040822336331
 30
0.0
 40
3.0
100
AcDbArc
 50
180.0000052256
 51
252.9701417719
  0
LINE
  5
A12
330
A
100
AcDbEntity
  8
Layer1
 62
     5
370
    18
100
AcDbLine
 10
854.968895436481
 20
615.5040819600333
 30
0.0
 11
854.968895436481
 21
618.5040822336333
 31
0.0
  0
LINE
  5
A13
330
A
100
AcDbEntity
  8
Layer1
 62
     5
370
    18
100
AcDbLine
 10
854.968895436481
 20
618.5040822336333
 30
0.0
 11
916.2093910361811
 21
618.5040822336333
 31
0.0
  0
ARC
  5
A14
330
A
100
AcDbEntity
  8
Layer1
 62
     5
370
    18
100
AcDbCircle
 10
652.0812722679811
 20
-56.67095942296668
 30
0.0
 40
700.0
100
AcDbArc
 50
53.15398791729998
 51
72.97014177189999
  0
ARC
  5
A15
330
A
100
AcDbEntity
  8
Layer1
 62
     5
370
    18
100
AcDbCircle
 10
652.0812722679811
 20
-56.67095942296668
 30
0.0
 40
725.0
100
AcDbArc
 50
54.62058428189999
 51
68.63458902579998
  0
LINE
  5
A16
330
A
100
AcDbEntity
  8
Layer1
 62
     5
370
    18
100
AcDbLine
 10
1071.847782014881
 20
534.4475374073332
 30
0.0
 11
1071.847782014881
 21
503.5040822336331
 31
0.0
  0
LINE
  5
A17
330
A
100
AcDbEntity
  8
ﾚｲﾔｰ1
370
     5
100
AcDbLine
 10
812.194293364781
 20
370.5148049980333
 30
0.0
 11
872.194293364781
 21
370.5148049980333
 31
0.0
  0
LINE
  5
A18
330
A
100
AcDbEntity
  8
ﾚｲﾔｰ1
370
     5
100
AcDbLine
 10
826.194293364781
 20
356.5148049980332
 30
0.0
 11
886.194293364781
 21
356.5148049980332
 31
0.0
  0
LINE
  5
A19
330
A
100
AcDbEntity
  8
ﾚｲﾔｰ1
370
     5
100
AcDbLine
 10
824.1942933647811
 20
358.5148049980332
 30
0.0
 11
884.1942933647812
 21
358.5148049980332
 31
0.0
  0
LINE
  5
A1A
330
A
100
AcDbEntity
  8
ﾚｲﾔｰ1
370
     5
100
AcDbLine
 10
822.194293364781
 20
360.5148049980333
 30
0.0
 11
882.1942933647811
 21
360.5148049980333
 31
0.0
  0
LINE
  5
A1B
330
A
100
AcDbEntity
  8
ﾚｲﾔｰ1
370
     5
100
AcDbLine
 10
820.194293364781
 20
362.5148049980333
 30
0.0
 11
880.194293364781
 21
362.5148049980333
 31
0.0
  0
LINE
  5
A1C
330
A
100
AcDbEntity
  8
ﾚｲﾔｰ1
370
     5
100
AcDbLine
 10
818.194293364781
 20
364.5148049980333
 30
0.0
 11
878.194293364781
 21
364.5148049980333
 31
0.0
  0
LINE
  5
A1D
330
A
100
AcDbEntity
  8
ﾚｲﾔｰ1
370
     5
100
AcDbLine
 10
816.1942933647811
 20
366.5148049980333
 30
0.0
 11
876.194293364781
 21
366.5148049980333
 31
0.0
  0
LINE
  5
A1E
330
A
100
AcDbEntity
  8
ﾚｲﾔｰ1
370
     5
100
AcDbLine
 10
814.1942933647808
 20
368.5148049980333
 30
0.0
 11
874.1942933647811
 21
368.5148049980333
 31
0.0
  0
CIRCLE
  5
A1F
330
A
100
AcDbEntity
  8
Layer1
 62
     5
370
    18
100
AcDbCircle
 10
796.8477820148813
 20
328.7332837566332
 30
0.0
 40
5.5
  0
CIRCLE
  5
A20
330
A
100
AcDbEntity
  8
Layer1
 62
     5
370
    18
100
AcDbCircle
 10
796.8477820148813
 20
328.7332837566332
 30
0.0
 40
3.0
  0
CIRCLE
  5
A21
330
A
100
AcDbEntity
  8
Layer1
 62
     5
370
    18
100
AcDbCircle
 10
1036.847782014881
 20
339.7332837566332
 30
0.0
 40
5.5
  0
CIRCLE
  5
A22
330
A
100
AcDbEntity
  8
Layer1
 62
     5
370
    18
100
AcDbCircle
 10
1036.847782014881
 20
339.7332837566332
 30
0.0
 40
3.0
  0
CIRCLE
  5
A23
330
A
100
AcDbEntity
  8
Layer1
 62
     5
370
    18
100
AcDbCircle
 10
916.8477820148813
 20
317.7332837566332
 30
0.0
 40
5.5
  0
CIRCLE
  5
A24
330
A
100
AcDbEntity
  8
Layer1
 62
     5
370
    18
100
AcDbCircle
 10
916.8477820148813
 20
317.7332837566332
 30
0.0
 40
3.0
  0
LINE
  5
A25
330
A
100
AcDbEntity
  8
Layer1
  6
DASHDOT
 62
     3
370
    18
100
AcDbLine
 10
909.3477820148812
 20
317.7332837566332
 30
0.0
 11
924.3477820148813
 21
317.7332837566332
 31
0.0
  0
LINE
  5
A26
330
A
100
AcDbEntity
  8
Layer1
  6
DASHDOT
 62
     3
370
    18
100
AcDbLine
 10
916.8477820148813
 20
325.2332837566332
 30
0.0
 11
916.8477820148813
 21
310.2332837566332
 31
0.0
  0
LINE
  5
A27
330
A
100
AcDbEntity
  8
Layer1
  6
DASHDOT
 62
     3
370
    18
100
AcDbLine
 10
1029.347782014881
 20
339.7332837566332
 30
0.0
 11
1044.347782014881
 21
339.7332837566332
 31
0.0
  0
LINE
  5
A28
330
A
100
AcDbEntity
  8
Layer1
  6
DASHDOT
 62
     3
370
    18
100
AcDbLine
 10
1036.847782014881
 20
347.2332837566332
 30
0.0
 11
1036.847782014881
 21
332.2332837566332
 31
0.0
  0
LINE
  5
A29
330
A
100
AcDbEntity
  8
Layer1
  6
DASHDOT
 62
     3
370
    18
100
AcDbLine
 10
796.8477820148813
 20
336.2332837566332
 30
0.0
 11
796.8477820148813
 21
321.2332837566332
 31
0.0
  0
LINE
  5
A2A
330
A
100
AcDbEntity
  8
Layer1
  6
DASHDOT
 62
     3
370
    18
100
AcDbLine
 10
641.5528601398809
 20
583.5040822336329
 30
0.0
 11
656.5528601398811
 21
583.5040822336329
 31
0.0
  0
LINE
  5
A2B
330
A
100
AcDbEntity
  8
Layer1
  6
DASHDOT
 62
     3
370
    18
100
AcDbLine
 10
1081.847782014881
 20
328.7332837566332
 30
0.0
 11
771.8477820148813
 21
328.7332837566332
 31
0.0
  0
LINE
  5
A2C
330
A
100
AcDbEntity
  8
Layer1
 62
     5
370
    18
100
AcDbLine
 10
776.847782014881
 20
623.5040822336332
 30
0.0
 11
776.847782014881
 21
618.5040822336333
 31
0.0
  0
ARC
  5
A2D
330
A
100
AcDbEntity
  8
Layer1
 62
     5
370
    18
100
AcDbCircle
 10
1066.847782014881
 20
613.5040822336333
 30
0.0
 40
10.0
100
AcDbArc
 50
0.0
 51
90.0
  0
LINE
  5
A2E
330
A
100
AcDbEntity
  8
Layer1
 62
     5
370
    18
100
AcDbLine
 10
1076.847782014881
 20
613.5040822336333
 30
0.0
 11
1076.847782014881
 21
473.5040822336332
 31
0.0
  0
ARC
  5
A2F
330
A
100
AcDbEntity
  8
Layer1
 62
     5
370
    18
100
AcDbCircle
 10
1066.847782014881
 20
613.5040822336333
 30
0.0
 40
5.0
100
AcDbArc
 50
0.0
 51
90.0
  0
LINE
  5
A30
330
A
100
AcDbEntity
  8
Layer1
 62
     5
370
    18
100
AcDbLine
 10
1071.847782014881
 20
613.5040822336333
 30
0.0
 11
1071.847782014881
 21
473.5040822336332
 31
0.0
  0
LINE
  5
A31
330
A
100
AcDbEntity
  8
Layer1
 62
     5
370
    18
100
AcDbLine
 10
1076.847782014881
 20
347.7332837566332
 30
0.0
 11
1076.847782014881
 21
309.7332837566332
 31
0.0
  0
LINE
  5
A32
330
A
100
AcDbEntity
  8
Layer1
 62
     5
370
    18
100
AcDbLine
 10
1071.847782014881
 20
473.5040822336332
 30
0.0
 11
1076.847782014881
 21
473.5040822336332
 31
0.0
  0
LINE
  5
A33
330
A
100
AcDbEntity
  8
Layer1
 62
     5
370
    18
100
AcDbLine
 10
1071.847782014881
 20
347.7332837566332
 30
0.0
 11
1071.847782014881
 21
309.7332837566332
 31
0.0
  0
LINE
  5
A34
330
A
100
AcDbEntity
  8
Layer1
 62
     5
370
    18
100
AcDbLine
 10
1071.847782014881
 20
331.2332837566332
 30
0.0
 11
854.968895436481
 21
331.2332837566332
 31
0.0
  0
LINE
  5
A35
330
A
100
AcDbEntity
  8
Layer1
 62
     5
370
    18
100
AcDbLine
 10
854.968895436481
 20
331.2332837566332
 30
0.0
 11
854.968895436481
 21
326.2332837566332
 31
0.0
  0
LINE
  5
A36
330
A
100
AcDbEntity
  8
Layer1
 62
     5
370
    18
100
AcDbLine
 10
1071.847782014881
 20
326.2332837566332
 30
0.0
 11
854.968895436481
 21
326.2332837566332
 31
0.0
  0
LINE
  5
A37
330
A
100
AcDbEntity
  8
Layer1
  6
DASHDOT
 62
     3
370
    18
100
AcDbLine
 10
649.0528601398811
 20
591.004082233633
 30
0.0
 11
649.0528601398811
 21
576.0040822336333
 31
0.0
  0
CIRCLE
  5
A38
330
A
100
AcDbEntity
  8
Layer1
 62
     5
370
    18
100
AcDbCircle
 10
638.0528601398808
 20
483.5040822336331
 30
0.0
 40
5.5
  0
LINE
  5
A39
330
A
100
AcDbEntity
  8
Layer1
  6
DASHDOT
 62
     3
370
    18
100
AcDbLine
 10
630.5528601398811
 20
483.5040822336331
 30
0.0
 11
645.552860139881
 21
483.5040822336331
 31
0.0
  0
LINE
  5
A3A
330
A
100
AcDbEntity
  8
Layer1
 62
     5
370
    18
100
AcDbLine
 10
657.0528601398811
 20
623.5040822336332
 30
0.0
 11
619.0528601398811
 21
623.5040822336332
 31
0.0
  0
ARC
  5
A3B
330
A
100
AcDbEntity
  8
Layer1
 62
     5
370
    18
100
AcDbCircle
 10
826.8477820148811
 20
328.7332837566332
 30
0.0
 40
50.0
100
AcDbArc
 50
157.6663173422
 51
202.3336826578
  0
ARC
  5
A3C
330
A
100
AcDbEntity
  8
Layer1
 62
     5
370
    18
100
AcDbCircle
 10
638.0528601398808
 20
523.5040822336332
 30
0.0
 40
50.0
100
AcDbArc
 50
247.6663173422
 51
292.3336826578
  0
LINE
  5
A3D
330
A
100
AcDbEntity
  8
Layer1
 62
     5
370
    18
100
AcDbLine
 10
657.0528601398811
 20
618.5040822336333
 30
0.0
 11
619.0528601398811
 21
618.5040822336333
 31
0.0
  0
LINE
  5
A3E
330
A
100
AcDbEntity
  8
Layer1
 62
     5
370
    18
100
AcDbLine
 10
776.847782014881
 20
623.5040822336332
 30
0.0
 11
1066.847782014881
 21
623.5040822336332
 31
0.0
  0
LINE
  5
A3F
330
A
100
AcDbEntity
  8
Layer1
 62
     5
370
    18
100
AcDbLine
 10
776.847782014881
 20
618.5040822336333
 30
0.0
 11
1066.847782014881
 21
618.5040822336333
 31
0.0
  0
LINE
  5
A40
330
A
100
AcDbEntity
  8
Layer1
 62
     5
370
    18
100
AcDbLine
 10
1076.847782014881
 20
309.7332837566332
 30
0.0
 11
780.5984576954811
 21
309.7332837566332
 31
0.0
  0
LINE
  5
A41
330
A
100
AcDbEntity
  8
Layer1
 62
     5
370
    18
100
AcDbLine
 10
1076.847782014881
 20
347.7332837566332
 30
0.0
 11
780.5984576954811
 21
347.7332837566332
 31
0.0
  0
CIRCLE
  5
A42
330
A
100
AcDbEntity
  8
Layer1
 62
     5
370
    18
100
AcDbCircle
 10
649.0528601398811
 20
583.5040822336329
 30
0.0
 40
5.5
  0
CIRCLE
  5
A43
330
A
100
AcDbEntity
  8
Layer1
 62
     5
370
    18
100
AcDbCircle
 10
649.0528601398811
 20
583.5040822336329
 30
0.0
 40
3.0
  0
LINE
  5
A44
330
A
100
AcDbEntity
  8
Layer1
  6
DASHDOT
 62
     3
370
    18
100
AcDbLine
 10
638.0528601398808
 20
628.504082233633
 30
0.0
 11
638.0528601398808
 21
468.5040822336332
 31
0.0
  0
LINE
  5
A45
330
A
100
AcDbEntity
  8
Layer1
 62
     5
370
    18
100
AcDbLine
 10
635.5528601398811
 20
618.5040822336333
 30
0.0
 11
635.5528601398811
 21
503.5040822336331
 31
0.0
  0
LINE
  5
A46
330
A
100
AcDbEntity
  8
Layer1
 62
     5
370
    18
100
AcDbLine
 10
619.0528601398811
 20
623.5040822336332
 30
0.0
 11
619.0528601398811
 21
477.254757914233
 31
0.0
  0
LINE
  5
A47
330
A
100
AcDbEntity
  8
Layer1
 62
     5
370
    18
100
AcDbLine
 10
640.5528601398811
 20
503.5040822336331
 30
0.0
 11
635.5528601398811
 21
503.5040822336331
 31
0.0
  0
LINE
  5
A48
330
A
100
AcDbEntity
  8
Layer1
 62
     5
370
    18
100
AcDbLine
 10
640.5528601398811
 20
618.5040822336333
 30
0.0
 11
640.5528601398811
 21
503.5040822336331
 31
0.0
  0
CIRCLE
  5
A49
330
A
100
AcDbEntity
  8
Layer1
 62
     5
370
    18
100
AcDbCircle
 10
638.0528601398808
 20
483.5040822336331
 30
0.0
 40
3.0
  0
CIRCLE
  5
A4A
330
A
100
AcDbEntity
  8
Layer1
 62
     5
370
    18
100
AcDbCircle
 10
627.0528601398811
 20
593.5040822336333
 30
0.0
 40
5.5
  0
CIRCLE
  5
A4B
330
A
100
AcDbEntity
  8
Layer1
 62
     5
370
    18
100
AcDbCircle
 10
627.0528601398811
 20
593.5040822336333
 30
0.0
 40
3.0
  0
LINE
  5
A4C
330
A
100
AcDbEntity
  8
Layer1
  6
DASHDOT
 62
     3
370
    18
100
AcDbLine
 10
619.5528601398811
 20
593.5040822336333
 30
0.0
 11
634.5528601398811
 21
593.5040822336333
 31
0.0
  0
LINE
  5
A4D
330
A
100
AcDbEntity
  8
Layer1
  6
DASHDOT
 62
     3
370
    18
100
AcDbLine
 10
627.0528601398811
 20
601.0040822336333
 30
0.0
 11
627.0528601398811
 21
586.0040822336332
 31
0.0
  0
LINE
  5
A4E
330
A
100
AcDbEntity
  8
Layer1
  6
DASHDOT
 62
     3
370
    18
100
AcDbLine
 10
638.0528601398808
 20
491.0040822336331
 30
0.0
 11
638.0528601398808
 21
476.0040822336332
 31
0.0
  0
LINE
  5
A4F
330
A
100
AcDbEntity
  8
Layer1
 62
     5
370
    18
100
AcDbLine
 10
657.0528601398811
 20
623.5040822336332
 30
0.0
 11
657.0528601398811
 21
477.254757914233
 31
0.0
  0
ENDSEC
  0
SECTION
  2
OBJECTS
  0
DICTIONARY
  5
19
330
0
100
AcDbDictionary
281
     1
  3
ACAD_COLOR
350
27A
  3
ACAD_GROUP
350
1A
  3
ACAD_LAYOUT
350
1E
  3
ACAD_MATERIAL
350
279
  3
ACAD_MLINESTYLE
350
1B
  3
ACAD_PLOTSETTINGS
350
22
  3
ACAD_PLOTSTYLENAME
350
1F
  3
ACAD_WIPEOUT_VARS
350
23
  3
ACDBHEADERROUNDTRIPXREC
350
A85
  3
AcDbVariableDictionary
350
A63
  3
ASE_INDEX_DICTIONARY
350
A61
  0
DICTIONARY
  5
28C
330
2
100
AcDbDictionary
280
     1
281
     1
  3
ACAD_LAYERSTATES
360
28D
  0
DICTIONARY
  5
27A
102
{ACAD_REACTORS
330
19
102
}
330
19
100
AcDbDictionary
281
     1
  0
DICTIONARY
  5
1A
102
{ACAD_REACTORS
330
19
102
}
330
19
100
AcDbDictionary
281
     1
  0
DICTIONARY
  5
1E
102
{ACAD_REACTORS
330
19
102
}
330
19
100
AcDbDictionary
281
     1
  3
Layout1
350
21
  3
Model
350
20
  0
DICTIONARY
  5
279
102
{ACAD_REACTORS
330
19
102
}
330
19
100
AcDbDictionary
281
     1
  0
DICTIONARY
  5
1B
102
{ACAD_REACTORS
330
19
102
}
330
19
100
AcDbDictionary
281
     1
  3
Standard
350
1C
  0
DICTIONARY
  5
22
102
{ACAD_REACTORS
330
19
102
}
330
19
100
AcDbDictionary
281
     1
  0
ACDBDICTIONARYWDFLT
  5
1F
102
{ACAD_REACTORS
330
19
102
}
330
19
100
AcDbDictionary
281
     1
  3
Normal
350
1D
100
AcDbDictionaryWithDefault
340
1D
  0
WIPEOUTVARIABLES
  5
23
330
19
100
AcDbWipeoutVariables
 70
     1
  0
DICTIONARY
  5
A85
102
{ACAD_REACTORS
330
19
102
}
330
19
100
AcDbDictionary
281
     1
  3
COLORDICT
350
A87
  3
MATERIALDICT
350
A86
  0
DICTIONARY
  5
A63
102
{ACAD_REACTORS
330
19
102
}
330
19
100
AcDbDictionary
281
     1
  3
DIMASSOC
350
A64
  3
PROJECTNAME
350
A65
  0
DICTIONARY
  5
A61
102
{ACAD_REACTORS
330
19
102
}
330
19
100
AcDbDictionary
281
     1
  3
ASEBlockHierarchyIndexRecord
350
A62
1001
DCO15
1040
1776759188.64
  0
DICTIONARY
  5
28D
102
{ACAD_REACTORS
330
28C
102
}
330
28C
100
AcDbDictionary
281
     1
  0
LAYOUT
  5
21
102
{ACAD_XDICTIONARY
360
A8A
102
}
102
{ACAD_REACTORS
330
1E
102
}
330
1E
100
AcDbPlotSettings
  1

  2

  4

  6

 40
0.0
 41
0.0
 42
0.0
 43
0.0
 44
0.0
 45
0.0
 46
0.0
 47
0.0
 48
0.0
 49
0.0
140
0.0
141
0.0
142
1.0
143
1.0
 70
     0
 72
     0
 73
     0
 74
     0
  7

 75
     0
147
1.0
148
0.0
149
0.0
100
AcDbLayout
  1
Layout1
 70
     0
 71
     1
 10
0.0
 20
0.0
 11
12.0
 21
9.0
 12
0.0
 22
0.0
 32
0.0
 14
1.000000000000000E+20
 24
1.000000000000000E+20
 34
1.000000000000000E+20
 15
-1.000000000000000E+20
 25
-1.000000000000000E+20
 35
-1.000000000000000E+20
146
0.0
 13
0.0
 23
0.0
 33
0.0
 16
1.0
 26
0.0
 36
0.0
 17
0.0
 27
1.0
 37
0.0
 76
     0
330
B
  0
LAYOUT
  5
20
102
{ACAD_XDICTIONARY
360
A88
102
}
102
{ACAD_REACTORS
330
1E
102
}
330
1E
100
AcDbPlotSettings
  1

  2
クセロPDF2.pc3
  4
A3
  6

 40
3.174999952316282
 41
3.174999952316282
 42
3.17498779296875
 43
3.17498779296875
 44
419.9466552734373
 45
296.9259948730469
 46
0.0
 47
0.0
 48
435.9376257648809
 49
136.7935955072332
140
1277.932625764879
141
732.1435955072334
142
1.0
143
2.048861521241269
 70
 14512
 72
     1
 73
     0
 74
     4
  7
monochrome.stb
 75
     0
147
0.4880759336991046
148
-435.9376257648809
149
-136.7935955072332
100
AcDbLayout
  1
Model
 70
     0
 71
     0
 10
0.0
 20
0.0
 11
0.0
 21
0.0
 12
0.0
 22
0.0
 32
0.0
 14
0.0
 24
0.0
 34
0.0
 15
0.0
 25
0.0
 35
0.0
146
0.0
 13
0.0
 23
0.0
 33
0.0
 16
0.0
 26
0.0
 36
0.0
 17
0.0
 27
0.0
 37
0.0
 76
     0
330
A
  0
MLINESTYLE
  5
1C
102
{ACAD_REACTORS
330
1B
102
}
330
1B
100
AcDbMlineStyle
  2
STANDARD
 70
     0
  3

 62
     0
 51
90.0
 52
90.0
 71
     2
 49
0.5
 62
   256
  6
BYLAYER
 49
-0.5
 62
   256
  6
BYLAYER
  0
ACDBPLACEHOLDER
  5
1D
102
{ACAD_REACTORS
330
1F
102
}
330
1F
  0
XRECORD
  5
A87
102
{ACAD_REACTORS
330
A85
102
}
330
A85
100
AcDbXrecord
280
     1
340
27A
  0
XRECORD
  5
A86
102
{ACAD_REACTORS
330
A85
102
}
330
A85
100
AcDbXrecord
280
     1
340
279
  0
DICTIONARYVAR
  5
A64
102
{ACAD_REACTORS
330
A63
102
}
330
A63
100
DictionaryVariables
280
     0
  1
1
  0
DICTIONARYVAR
  5
A65
102
{ACAD_REACTORS
330
A63
102
}
330
A63
100
DictionaryVariables
280
     0
  1

  0
XRECORD
  5
A62
102
{ACAD_REACTORS
330
A61
102
}
330
A61
100
AcDbXrecord
280
     1
  0
DICTIONARY
  5
A8A
330
21
100
AcDbDictionary
280
     1
281
     1
  3
ACAD_XREC_ROUNDTRIP
360
A8B
  0
DICTIONARY
  5
A88
330
20
100
AcDbDictionary
280
     1
281
     1
  3
ACAD_XREC_ROUNDTRIP
360
A89
  0
XRECORD
  5
A8B
102
{ACAD_REACTORS
330
A8A
102
}
330
A8A
100
AcDbXrecord
280
     1
102
SHADEPLOT
 70
     0
102
SHADEPLOTRESLEVEL
 70
     2
102
SHADEPLOTCUSTOMDPI
 70
   300
  0
XRECORD
  5
A89
102
{ACAD_REACTORS
330
A88
102
}
330
A88
100
AcDbXrecord
280
     1
102
SHADEPLOT
 70
     0
102
SHADEPLOTRESLEVEL
 70
     2
102
SHADEPLOTCUSTOMDPI
 70
   150
  0
ENDSEC
  0
EOF
