  0
SECTION
  2
HEADER
  9
$ACADVER
  1
AC1015
  9
$ACADMAINTVER
 70
    20
  9
$DWGCODEPAGE
  3
ANSI_932
  9
$INSBASE
 10
0.0
 20
0.0
 30
0.0
  9
$EXTMIN
 10
417.7686474914885
 20
179.6760903900792
 30
-0.0015258207003583
  9
$EXTMAX
 10
1259.822457043976
 20
775.0682226964514
 30
0.0000000349246037
  9
$LIMMIN
 10
0.0
 20
0.0
  9
$LIMMAX
 10
0.0
 20
0.0
  9
$ORTHOMODE
 70
     1
  9
$REGENMODE
 70
     1
  9
$FILLMODE
 70
     1
  9
$QTEXTMODE
 70
     0
  9
$MIRRTEXT
 70
     1
  9
$LTSCALE
 40
1.0
  9
$ATTMODE
 70
     1
  9
$TEXTSIZE
 40
0.0
  9
$TRACEWID
 40
0.05
  9
$TEXTSTYLE
  7
Standard
  9
$CLAYER
  8
0
  9
$CELTYPE
  6
Continuous
  9
$CECOLOR
 62
   256
  9
$CELTSCALE
 40
1.0
  9
$DISPSILH
 70
     0
  9
$DIMSCALE
 40
1.0
  9
$DIMASZ
 40
0.18
  9
$DIMEXO
 40
0.0625
  9
$DIMDLI
 40
0.38
  9
$DIMRND
 40
0.0
  9
$DIMDLE
 40
0.0
  9
$DIMEXE
 40
0.18
  9
$DIMTP
 40
0.0
  9
$DIMTM
 40
0.0
  9
$DIMTXT
 40
0.18
  9
$DIMCEN
 40
0.09
  9
$DIMTSZ
 40
0.0
  9
$DIMTOL
 70
     0
  9
$DIMLIM
 70
     0
  9
$DIMTIH
 70
     1
  9
$DIMTOH
 70
     1
  9
$DIMSE1
 70
     0
  9
$DIMSE2
 70
     0
  9
$DIMTAD
 70
     0
  9
$DIMZIN
 70
     0
  9
$DIMBLK
  1

  9
$DIMASO
 70
     1
  9
$DIMSHO
 70
     1
  9
$DIMPOST
  1

  9
$DIMAPOST
  1

  9
$DIMALT
 70
     0
  9
$DIMALTD
 70
     2
  9
$DIMALTF
 40
25.4
  9
$DIMLFAC
 40
1.0
  9
$DIMTOFL
 70
     0
  9
$DIMTVP
 40
0.0
  9
$DIMTIX
 70
     0
  9
$DIMSOXD
 70
     0
  9
$DIMSAH
 70
     0
  9
$DIMBLK1
  1

  9
$DIMBLK2
  1

  9
$DIMSTYLE
  2
Standard
  9
$DIMCLRD
 70
     0
  9
$DIMCLRE
 70
     0
  9
$DIMCLRT
 70
     0
  9
$DIMTFAC
 40
1.0
  9
$DIMGAP
 40
0.09
  9
$DIMJUST
 70
     0
  9
$DIMSD1
 70
     0
  9
$DIMSD2
 70
     0
  9
$DIMTOLJ
 70
     1
  9
$DIMTZIN
 70
     0
  9
$DIMALTZ
 70
     0
  9
$DIMALTTZ
 70
     0
  9
$DIMUPT
 70
     0
  9
$DIMDEC
 70
     4
  9
$DIMTDEC
 70
     4
  9
$DIMALTU
 70
     2
  9
$DIMALTTD
 70
     2
  9
$DIMTXSTY
  7
Standard
  9
$DIMAUNIT
 70
     0
  9
$DIMADEC
 70
     0
  9
$DIMALTRND
 40
0.0
  9
$DIMAZIN
 70
     0
  9
$DIMDSEP
 70
     0
  9
$DIMATFIT
 70
     3
  9
$DIMFRAC
 70
     0
  9
$DIMLDRBLK
  1

  9
$DIMLUNIT
 70
     2
  9
$DIMLWD
 70
     0
  9
$DIMLWE
 70
     0
  9
$DIMTMOVE
 70
     0
  9
$LUNITS
 70
     2
  9
$LUPREC
 70
     4
  9
$SKETCHINC
 40
0.1
  9
$FILLETRAD
 40
0.0
  9
$AUNITS
 70
     0
  9
$AUPREC
 70
     0
  9
$MENU
  1
acad
  9
$ELEVATION
 40
0.0
  9
$PELEVATION
 40
0.0
  9
$THICKNESS
 40
0.0
  9
$LIMCHECK
 70
     0
  9
$CHAMFERA
 40
0.0
  9
$CHAMFERB
 40
0.0
  9
$CHAMFERC
 40
0.0
  9
$CHAMFERD
 40
0.0
  9
$SKPOLY
 70
     0
  9
$TDCREATE
 40
2456367.447679398
  9
$TDUCREATE
 40
2456367.072679398
  9
$TDUPDATE
 40
2456386.719804317
  9
$TDUUPDATE
 40
2456386.344804317
  9
$TDINDWG
 40
0.0064794792
  9
$TDUSRTIMER
 40
0.0064783912
  9
$USRTIMER
 70
     1
  9
$ANGBASE
 50
0.0
  9
$ANGDIR
 70
     0
  9
$PDMODE
 70
     3
  9
$PDSIZE
 40
-1.0
  9
$PLINEWID
 40
0.0
  9
$SPLFRAME
 70
     0
  9
$SPLINETYPE
 70
     6
  9
$SPLINESEGS
 70
     8
  9
$HANDSEED
  5
98A
  9
$SURFTAB1
 70
     6
  9
$SURFTAB2
 70
     6
  9
$SURFTYPE
 70
     6
  9
$SURFU
 70
     6
  9
$SURFV
 70
     6
  9
$UCSBASE
  2

  9
$UCSNAME
  2

  9
$UCSORG
 10
0.0
 20
0.0
 30
0.0
  9
$UCSXDIR
 10
1.0
 20
0.0
 30
0.0
  9
$UCSYDIR
 10
0.0
 20
1.0
 30
0.0
  9
$UCSORTHOREF
  2

  9
$UCSORTHOVIEW
 70
     0
  9
$UCSORGTOP
 10
0.0
 20
0.0
 30
0.0
  9
$UCSORGBOTTOM
 10
0.0
 20
0.0
 30
0.0
  9
$UCSORGLEFT
 10
0.0
 20
0.0
 30
0.0
  9
$UCSORGRIGHT
 10
0.0
 20
0.0
 30
0.0
  9
$UCSORGFRONT
 10
0.0
 20
0.0
 30
0.0
  9
$UCSORGBACK
 10
0.0
 20
0.0
 30
0.0
  9
$PUCSBASE
  2

  9
$PUCSNAME
  2

  9
$PUCSORG
 10
0.0
 20
0.0
 30
0.0
  9
$PUCSXDIR
 10
1.0
 20
0.0
 30
0.0
  9
$PUCSYDIR
 10
0.0
 20
1.0
 30
0.0
  9
$PUCSORTHOREF
  2

  9
$PUCSORTHOVIEW
 70
     0
  9
$PUCSORGTOP
 10
0.0
 20
0.0
 30
0.0
  9
$PUCSORGBOTTOM
 10
0.0
 20
0.0
 30
0.0
  9
$PUCSORGLEFT
 10
0.0
 20
0.0
 30
0.0
  9
$PUCSORGRIGHT
 10
0.0
 20
0.0
 30
0.0
  9
$PUCSORGFRONT
 10
0.0
 20
0.0
 30
0.0
  9
$PUCSORGBACK
 10
0.0
 20
0.0
 30
0.0
  9
$USERI1
 70
     0
  9
$USERI2
 70
     0
  9
$USERI3
 70
     0
  9
$USERI4
 70
     0
  9
$USERI5
 70
     0
  9
$USERR1
 40
0.0
  9
$USERR2
 40
0.0
  9
$USERR3
 40
0.0
  9
$USERR4
 40
0.0
  9
$USERR5
 40
0.0
  9
$WORLDVIEW
 70
     1
  9
$SHADEDGE
 70
     3
  9
$SHADEDIF
 70
    70
  9
$TILEMODE
 70
     1
  9
$MAXACTVP
 70
    16
  9
$PINSBASE
 10
0.0
 20
0.0
 30
0.0
  9
$PLIMCHECK
 70
     0
  9
$PEXTMIN
 10
1.000000000000000E+20
 20
1.000000000000000E+20
 30
1.000000000000000E+20
  9
$PEXTMAX
 10
-1.000000000000000E+20
 20
-1.000000000000000E+20
 30
-1.000000000000000E+20
  9
$PLIMMIN
 10
0.0
 20
0.0
  9
$PLIMMAX
 10
12.0
 20
9.0
  9
$UNITMODE
 70
     0
  9
$VISRETAIN
 70
     0
  9
$PLINEGEN
 70
     1
  9
$PSLTSCALE
 70
     0
  9
$TREEDEPTH
 70
  3020
  9
$CMLSTYLE
  2
Standard
  9
$CMLJUST
 70
     0
  9
$CMLSCALE
 40
1.0
  9
$PROXYGRAPHICS
 70
     0
  9
$MEASUREMENT
 70
     0
  9
$CELWEIGHT
370
     0
  9
$ENDCAPS
280
     0
  9
$JOINSTYLE
280
     0
  9
$LWDISPLAY
290
     0
  9
$INSUNITS
 70
     0
  9
$HYPERLINKBASE
  1

  9
$STYLESHEET
  1
MONOCHROME.STB
  9
$XEDIT
290
     1
  9
$CEPSNTYPE
380
     0
  9
$PSTYLEMODE
290
     0
  9
$FINGERPRINTGUID
  2

  9
$VERSIONGUID
  2
{070CA51F-ABB5-4047-AF05-2A8F2133255B}
  9
$EXTNAMES
290
     1
  9
$PSVPSCALE
 40
0.0
  9
$OLESTARTUP
290
     0
  0
ENDSEC
  0
SECTION
  2
CLASSES
  0
CLASS
  1
IMAGE
  2
AcDbRasterImage
  3
ISM
 90
    32895
280
     0
281
     1
  0
CLASS
  1
DICTIONARYVAR
  2
AcDbDictionaryVar
  3
ObjectDBX Classes
 90
        0
280
     0
281
     0
  0
CLASS
  1
RASTERVARIABLES
  2
AcDbRasterVariables
  3
ISM
 90
    32768
280
     0
281
     0
  0
CLASS
  1
IMAGEDEF
  2
AcDbRasterImageDef
  3
ISM
 90
    32768
280
     0
281
     0
  0
CLASS
  1
IMAGEDEF_REACTOR
  2
AcDbRasterImageDefReactor
  3
ISM
 90
    32769
280
     0
281
     0
  0
CLASS
  1
IDBUFFER
  2
AcDbIdBuffer
  3
ObjectDBX Classes
 90
    32768
280
     0
281
     0
  0
CLASS
  1
SPATIAL_FILTER
  2
AcDbSpatialFilter
  3
ObjectDBX Classes
 90
    32768
280
     0
281
     0
  0
CLASS
  1
SORTENTSTABLE
  2
AcDbSortentsTable
  3
ObjectDBX Classes
 90
    32768
280
     0
281
     0
  0
CLASS
  1
LAYER_INDEX
  2
AcDbLayerIndex
  3
ObjectDBX Classes
 90
    32768
280
     0
281
     0
  0
CLASS
  1
SPATIAL_INDEX
  2
AcDbSpatialIndex
  3
ObjectDBX Classes
 90
    32768
280
     0
281
     0
  0
CLASS
  1
OBJECT_PTR
  2
CAseDLPNTableRecord
  3
ASE-LPNTableRecord
 90
    32769
280
     0
281
     0
  0
CLASS
  1
LAYOUT
  2
AcDbLayout
  3
ObjectDBX Classes
 90
        0
280
     0
281
     0
  0
CLASS
  1
PLOTSETTINGS
  2
AcDbPlotSettings
  3
ObjectDBX Classes
 90
    32768
280
     0
281
     0
  0
CLASS
  1
ACDBDICTIONARYWDFLT
  2
AcDbDictionaryWithDefault
  3
ObjectDBX Classes
 90
        0
280
     0
281
     0
  0
CLASS
  1
ACDBPLACEHOLDER
  2
AcDbPlaceHolder
  3
ObjectDBX Classes
 90
        0
280
     0
281
     0
  0
CLASS
  1
VBA_PROJECT
  2
AcDbVbaProject
  3
acad
 90
    32768
280
     0
281
     0
  0
CLASS
  1
WIPEOUT
  2
AcDbWipeout
  3
"WipeOut|Product Desc: Object Enabler for WipeOut entity^I^I^I^I^I^I|Company: Autodesk, Inc.^I^I^I^I^I^I|WEB Address: www.autodesk.com"
 90
    32895
280
     0
281
     1
  0
CLASS
  1
WIPEOUTVARIABLES
  2
AcDbWipeoutVariables
  3
"WipeOut|Product Desc:     WipeOut Dbx Application|Company:          Autodesk, Inc.|WEB Address:      www.autodesk.com"
 90
        0
280
     0
281
     0
  0
CLASS
  1
RTEXT
  2
RText
  3
RText|AutoCAD Express Tool|expresstools@autodesk.com
 90
    32768
280
     0
281
     1
  0
CLASS
  1
ARCALIGNEDTEXT
  2
AcDbArcAlignedText
  3
ATEXT|AutoCAD Express Tool|expresstools@autodesk.com
 90
    32768
280
     0
281
     1
  0
ENDSEC
  0
SECTION
  2
TABLES
  0
TABLE
  2
VPORT
  5
7
330
0
100
AcDbSymbolTable
 70
     2
  0
VPORT
  5
982
330
7
100
AcDbSymbolTableRecord
100
AcDbViewportTableRecord
  2
*Active
 70
     0
 10
0.0
 20
0.0
 11
1.0
 21
1.0
 12
838.7955522677323
 22
477.3721565432652
 13
0.0
 23
0.0
 14
1.0
 24
1.0
 15
0.0
 25
0.0
 16
0.0
 26
0.0
 36
1.0
 17
0.0
 27
0.0
 37
0.0
 40
600.7319720579987
 41
2.724550898203592
 42
50.0
 43
0.0
 44
0.0
 50
0.0
 51
0.0
 71
     0
 72
   100
 73
     1
 74
     1
 75
     0
 76
     0
 77
     0
 78
     0
281
     0
 65
     0
110
0.0
120
0.0
130
0.0
111
1.0
121
0.0
131
0.0
112
0.0
122
1.0
132
0.0
 79
     0
146
0.0
  0
ENDTAB
  0
TABLE
  2
LTYPE
  5
4
330
0
100
AcDbSymbolTable
 70
    12
  0
LTYPE
  5
11
330
4
100
AcDbSymbolTableRecord
100
AcDbLinetypeTableRecord
  2
ByBlock
 70
     0
  3

 72
    65
 73
     0
 40
0.0
  0
LTYPE
  5
12
330
4
100
AcDbSymbolTableRecord
100
AcDbLinetypeTableRecord
  2
ByLayer
 70
     0
  3

 72
    65
 73
     0
 40
0.0
  0
LTYPE
  5
13
330
4
100
AcDbSymbolTableRecord
100
AcDbLinetypeTableRecord
  2
Continuous
 70
     0
  3
Solid line
 72
    65
 73
     0
 40
0.0
  0
LTYPE
  5
24
330
4
100
AcDbSymbolTableRecord
100
AcDbLinetypeTableRecord
  2
DOT
 70
     0
  3
. . . . . . . . 
 72
    65
 73
     2
 40
1.0
 49
0.0
 74
     0
 49
-1.0
 74
     0
  0
LTYPE
  5
25
330
4
100
AcDbSymbolTableRecord
100
AcDbLinetypeTableRecord
  2
DASHED
 70
     0
  3
___  ___  ___  ___  
 72
    65
 73
     2
 40
4.0
 49
3.0
 74
     0
 49
-1.0
 74
     0
  0
LTYPE
  5
26
330
4
100
AcDbSymbolTableRecord
100
AcDbLinetypeTableRecord
  2
HIDDEN
 70
     0
  3
__ __ __ __ 
 72
    65
 73
     2
 40
3.0
 49
2.0
 74
     0
 49
-1.0
 74
     0
  0
LTYPE
  5
27
330
4
100
AcDbSymbolTableRecord
100
AcDbLinetypeTableRecord
  2
STITCH
 70
     0
  3
_ _ _ _ 
 72
    65
 73
     2
 40
2.0
 49
1.0
 74
     0
 49
-1.0
 74
     0
  0
LTYPE
  5
28
330
4
100
AcDbSymbolTableRecord
100
AcDbLinetypeTableRecord
  2
CENTER
 70
     0
  3
______  __  ______  __  
 72
    65
 73
     4
 40
43.0
 49
40.0
 74
     0
 49
-1.0
 74
     0
 49
1.0
 74
     0
 49
-1.0
 74
     0
  0
LTYPE
  5
29
330
4
100
AcDbSymbolTableRecord
100
AcDbLinetypeTableRecord
  2
DASHDOT
 70
     0
  3
____ . ____ . 
 72
    65
 73
     4
 40
32.0
 49
30.0
 74
     0
 49
-1.0
 74
     0
 49
0.0
 74
     0
 49
-1.0
 74
     0
  0
LTYPE
  5
2A
330
4
100
AcDbSymbolTableRecord
100
AcDbLinetypeTableRecord
  2
BORDER
 70
     0
  3
__ . __ . 
 72
    65
 73
     4
 40
22.0
 49
20.0
 74
     0
 49
-1.0
 74
     0
 49
0.0
 74
     0
 49
-1.0
 74
     0
  0
LTYPE
  5
2B
330
4
100
AcDbSymbolTableRecord
100
AcDbLinetypeTableRecord
  2
CUTTING
 70
     0
  3
________   ___   ___   
 72
    65
 73
     6
 40
45.0
 49
40.0
 74
     0
 49
-1.0
 74
     0
 49
1.0
 74
     0
 49
-1.0
 74
     0
 49
1.0
 74
     0
 49
-1.0
 74
     0
  0
LTYPE
  5
2C
330
4
100
AcDbSymbolTableRecord
100
AcDbLinetypeTableRecord
  2
PHANTOM
 70
     0
  3
______  __  __  
 72
    65
 73
     6
 40
35.0
 49
30.0
 74
     0
 49
-1.0
 74
     0
 49
1.0
 74
     0
 49
-1.0
 74
     0
 49
1.0
 74
     0
 49
-1.0
 74
     0
  0
LTYPE
  5
2D
330
4
100
AcDbSymbolTableRecord
100
AcDbLinetypeTableRecord
  2
DIVIDE
 70
     0
  3
____ . . ____ . . 
 72
    65
 73
     6
 40
23.0
 49
20.0
 74
     0
 49
-1.0
 74
     0
 49
0.0
 74
     0
 49
-1.0
 74
     0
 49
0.0
 74
     0
 49
-1.0
 74
     0
  0
LTYPE
  5
2B0
330
4
100
AcDbSymbolTableRecord
100
AcDbLinetypeTableRecord
  2
CENTER2
 70
     0
  3

 72
    65
 73
     4
 40
23.0
 49
20.0
 74
     0
 49
-1.0
 74
     0
 49
1.0
 74
     0
 49
-1.0
 74
     0
  0
ENDTAB
  0
TABLE
  2
LAYER
  5
2
102
{ACAD_XDICTIONARY
360
2B4
102
}
330
0
100
AcDbSymbolTable
 70
     6
  0
LAYER
  5
14
330
2
100
AcDbSymbolTableRecord
100
AcDbLayerTableRecord
  2
0
 70
     0
 62
     7
  6
Continuous
370
    -3
390
1D
  0
LAYER
  5
3D
330
2
100
AcDbSymbolTableRecord
100
AcDbLayerTableRecord
  2
寸法線
 70
     0
 62
     7
  6
Continuous
370
    -3
390
1F
  0
LAYER
  5
4E
330
2
100
AcDbSymbolTableRecord
100
AcDbLayerTableRecord
  2
ﾚｲﾔｰ1
 70
     0
 62
     7
  6
Continuous
370
    -3
390
1F
  0
LAYER
  5
19F
330
2
100
AcDbSymbolTableRecord
100
AcDbLayerTableRecord
  2
Layer1
 70
     0
 62
     7
  6
Continuous
370
    -3
390
1F
  0
LAYER
  5
2B1
330
2
100
AcDbSymbolTableRecord
100
AcDbLayerTableRecord
  2
DEFPOINTS
 70
     0
 62
     7
  6
Continuous
290
     0
370
    -3
390
1D
  0
LAYER
  5
2B2
330
2
100
AcDbSymbolTableRecord
100
AcDbLayerTableRecord
  2
____1
 70
     0
 62
     3
  6
CENTER2
370
    -3
390
1D
  0
ENDTAB
  0
TABLE
  2
STYLE
  5
3
330
0
100
AcDbSymbolTable
 70
     2
  0
STYLE
  5
17
330
3
100
AcDbSymbolTableRecord
100
AcDbTextStyleTableRecord
  2
Standard
 70
     0
 40
0.0
 41
1.0
 50
0.0
 71
     0
 42
0.0
  3
txt
  4
extfont
  0
STYLE
  5
2B3
330
3
100
AcDbSymbolTableRecord
100
AcDbTextStyleTableRecord
  2
STYLE1
 70
     0
 40
0.0
 41
1.0
 50
0.0
 71
     0
 42
0.35
  3
ＭＳ ゴシック
  4

  0
ENDTAB
  0
TABLE
  2
VIEW
  5
5
330
0
100
AcDbSymbolTable
 70
     0
  0
ENDTAB
  0
TABLE
  2
UCS
  5
6
330
0
100
AcDbSymbolTable
 70
     0
  0
ENDTAB
  0
TABLE
  2
APPID
  5
8
330
0
100
AcDbSymbolTable
 70
     2
  0
APPID
  5
16
330
8
100
AcDbSymbolTableRecord
100
AcDbRegAppTableRecord
  2
ACAD
 70
     0
  0
APPID
  5
2A7
330
8
100
AcDbSymbolTableRecord
100
AcDbRegAppTableRecord
  2
DCO15
 70
     0
  0
ENDTAB
  0
TABLE
  2
DIMSTYLE
  5
9
330
0
100
AcDbSymbolTable
 70
     5
100
AcDbDimStyleTable
 71
     0
  0
DIMSTYLE
105
18
330
9
100
AcDbSymbolTableRecord
100
AcDbDimStyleTableRecord
  2
Standard
 70
     0
340
17
  0
DIMSTYLE
105
2E
330
9
100
AcDbSymbolTableRecord
100
AcDbDimStyleTableRecord
  2
VELDIM0
 70
     0
 41
6.0
 44
0.5
 46
3.0
 73
     0
 74
     0
 78
     8
140
5.9972220421
271
     3
340
17
  0
DIMSTYLE
105
5F
330
9
100
AcDbSymbolTableRecord
100
AcDbDimStyleTableRecord
  2
VELDIM1
 70
     0
 41
6.0
 44
1.25
 46
5.0
 73
     0
 74
     0
 78
     8
140
5.9972220421
271
     3
340
17
  0
DIMSTYLE
105
85
330
9
100
AcDbSymbolTableRecord
100
AcDbDimStyleTableRecord
  2
VELDIM2
 70
     0
 41
6.0
 44
1.25
 46
5.0
 73
     0
 74
     0
 78
     8
140
5.9972220421
271
     3
340
17
  0
DIMSTYLE
105
1D3
330
9
100
AcDbSymbolTableRecord
100
AcDbDimStyleTableRecord
  2
VELDIM3
 70
     0
 41
6.0
 44
0.5
 46
3.0
 73
     0
 74
     0
 78
     8
140
5.9972220421
271
     3
340
17
  0
ENDTAB
  0
TABLE
  2
BLOCK_RECORD
  5
1
330
0
100
AcDbSymbolTable
 70
     2
  0
BLOCK_RECORD
  5
A
330
1
100
AcDbSymbolTableRecord
100
AcDbBlockTableRecord
  2
*MODEL_SPACE
340
20
  0
BLOCK_RECORD
  5
B
330
1
100
AcDbSymbolTableRecord
100
AcDbBlockTableRecord
  2
*PAPER_SPACE
340
21
  0
BLOCK_RECORD
  5
1FA
330
1
100
AcDbSymbolTableRecord
100
AcDbBlockTableRecord
  2
CLUMP0
340
0
  0
BLOCK_RECORD
  5
278
330
1
100
AcDbSymbolTableRecord
100
AcDbBlockTableRecord
  2
CLUMP1
340
0
  0
ENDTAB
  0
ENDSEC
  0
SECTION
  2
BLOCKS
  0
BLOCK
  5
D
330
A
100
AcDbEntity
  8
0
100
AcDbBlockBegin
  2
*MODEL_SPACE
 70
     0
 10
0.0
 20
0.0
 30
0.0
  3
*MODEL_SPACE
  1

  0
ENDBLK
  5
E
330
A
100
AcDbEntity
  8
0
100
AcDbBlockEnd
  0
BLOCK
  5
F
330
B
100
AcDbEntity
 67
     1
  8
0
100
AcDbBlockBegin
  2
*PAPER_SPACE
 70
     0
 10
0.0
 20
0.0
 30
0.0
  3
*PAPER_SPACE
  1

  0
ENDBLK
  5
10
330
B
100
AcDbEntity
 67
     1
  8
0
100
AcDbBlockEnd
  0
BLOCK
  5
1FC
330
1FA
100
AcDbEntity
  8
0
100
AcDbBlockBegin
  2
CLUMP0
 70
     0
 10
0.0
 20
0.0
 30
0.0
  3
CLUMP0
  1

  0
ARC
  5
1FD
330
1FA
100
AcDbEntity
  8
Layer1
 62
     5
370
    18
100
AcDbCircle
 10
528.2390936489997
 20
-979.6943233803999
 30
0.0
 40
1000.0
100
AcDbArc
 50
53.6900978674
 51
72.7386287741
  0
ARC
  5
1FE
330
1FA
100
AcDbEntity
  8
Layer1
 62
     5
370
    18
100
AcDbCircle
 10
528.2390936489997
 20
-979.6943233803999
 30
0.0
 40
1032.0
100
AcDbArc
 50
54.9849812684
 51
68.5964022947
  0
LINE
  5
1FF
330
1FA
100
AcDbEntity
  8
Layer1
 62
     5
370
    18
100
AcDbLine
 10
1120.3915480136
 20
-134.484603376
 30
0.0
 11
1120.3915480136
 21
-173.8683677361
 31
0.0
  0
LINE
  5
200
330
1FA
100
AcDbEntity
  8
Layer1
 62
     5
370
    18
100
AcDbLine
 10
822.8603944561999
 20
-18.86836773609999
 30
0.0
 11
904.8522678216
 21
-18.86836773609999
 31
0.0
  0
LINE
  5
201
330
1FA
100
AcDbEntity
  8
Layer1
 62
     5
370
    18
100
AcDbLine
 10
822.8603944561999
 20
-21.8683682016
 30
0.0
 11
822.8603944561999
 21
-18.86836773609999
 31
0.0
  0
ARC
  5
202
330
1FA
100
AcDbEntity
  8
Layer1
 62
     5
370
    18
100
AcDbCircle
 10
825.8603944561999
 20
-21.8683677361
 30
0.0
 40
3.0
100
AcDbArc
 50
180.0000088888
 51
252.7386287741
  0
ENDBLK
  5
203
330
1FA
100
AcDbEntity
  8
0
100
AcDbBlockEnd
  0
BLOCK
  5
27A
330
278
100
AcDbEntity
  8
0
100
AcDbBlockBegin
  2
CLUMP1
 70
     0
 10
0.0
 20
0.0
 30
0.0
  3
CLUMP1
  1

  0
MTEXT
  5
27B
330
278
100
AcDbEntity
  8
ﾚｲﾔｰ1
370
     5
100
AcDbMText
 10
784.6610186583998
 20
-282.8942249375
 30
0.0
 40
5.9972220421
 41
18.4230131025
 71
     1
 72
     1
  1
\W0.8;\fＭＳ ゴシック;\W1.0;ＨＬ
 73
     1
 44
1.0
1001
ACAD
1000
MTEXTBEGIN
1070
    73
1070
     1
1070
    44
1040
1.0
1070
    74
1070
     0
1000
MTEXTEND
  0
LINE
  5
27C
330
278
100
AcDbEntity
  8
ﾚｲﾔｰ1
370
     5
100
AcDbLine
 10
762.7380593635997
 20
-293.8485119777
 30
0.0
 11
822.7380593635999
 21
-293.8485119777
 31
0.0
  0
LINE
  5
27D
330
278
100
AcDbEntity
  8
ﾚｲﾔｰ1
370
     5
100
AcDbLine
 10
764.7380593635999
 20
-295.8485119777
 30
0.0
 11
824.7380593636
 21
-295.8485119777
 31
0.0
  0
LINE
  5
27E
330
278
100
AcDbEntity
  8
ﾚｲﾔｰ1
370
     5
100
AcDbLine
 10
766.7380593635997
 20
-297.8485119777
 30
0.0
 11
826.7380593636
 21
-297.8485119777
 31
0.0
  0
LINE
  5
27F
330
278
100
AcDbEntity
  8
ﾚｲﾔｰ1
370
     5
100
AcDbLine
 10
768.7380593636
 20
-299.8485119777
 30
0.0
 11
828.7380593635997
 21
-299.8485119777
 31
0.0
  0
LINE
  5
280
330
278
100
AcDbEntity
  8
ﾚｲﾔｰ1
370
     5
100
AcDbLine
 10
770.7380593635997
 20
-301.8485119777
 30
0.0
 11
830.7380593635999
 21
-301.8485119777
 31
0.0
  0
LINE
  5
281
330
278
100
AcDbEntity
  8
ﾚｲﾔｰ1
370
     5
100
AcDbLine
 10
772.7380593636
 20
-303.8485119777
 30
0.0
 11
832.7380593636
 21
-303.8485119777
 31
0.0
  0
LINE
  5
282
330
278
100
AcDbEntity
  8
ﾚｲﾔｰ1
370
     5
100
AcDbLine
 10
774.7380593635997
 20
-305.8485119777
 30
0.0
 11
834.7380593636
 21
-305.8485119777
 31
0.0
  0
LINE
  5
283
330
278
100
AcDbEntity
  8
ﾚｲﾔｰ1
370
     5
100
AcDbLine
 10
760.7380593635999
 20
-291.8485119777
 30
0.0
 11
820.7380593635999
 21
-291.8485119777
 31
0.0
  0
ENDBLK
  5
284
330
278
100
AcDbEntity
  8
0
100
AcDbBlockEnd
  0
ENDSEC
  0
SECTION
  2
ENTITIES
  0
LWPOLYLINE
  5
605
330
A
100
AcDbEntity
  8
DEFPOINTS
100
AcDbPolyline
 90
        4
 70
     1
 43
0.0
 10
1259.784008553866
 20
775.0445684087158
 10
417.7890085538686
 20
775.0445684087158
 10
417.7890085538686
 20
179.6945684087159
 10
1259.784008553866
 20
179.6945684087159
  0
TEXT
  5
606
330
A
100
AcDbEntity
  8
____1
  6
Continuous
 62
     0
100
AcDbText
 10
1087.205675538427
 20
742.2150053499159
 30
0.0
 40
4.938888740539549
  1
H25.03
  7
STYLE1
100
AcDbText
  0
TEXT
  5
607
330
A
100
AcDbEntity
  8
____1
  6
Continuous
 62
     0
100
AcDbText
 10
1122.454244516674
 20
742.2150053499159
 30
0.0
 40
4.938888740539549
  1
ﾈｼﾞ仕様変更（木ﾈｼﾞ ⇒ 皿ﾀｯﾋﾟﾝﾈｼﾞ）
  7
STYLE1
100
AcDbText
  0
LINE
  5
608
330
A
100
AcDbEntity
  8
____1
  6
Continuous
 62
     0
100
AcDbLine
 10
1067.220437781784
 20
749.1298034081883
 30
0.0
 11
1062.270437781784
 21
740.5561519107224
 31
0.0
  0
LINE
  5
609
330
A
100
AcDbEntity
  8
____1
  6
Continuous
 62
     0
100
AcDbLine
 10
1067.220437781784
 20
749.1298034081883
 30
0.0
 11
1072.170437781784
 21
740.5561519107224
 31
0.0
  0
LINE
  5
60A
330
A
100
AcDbEntity
  8
____1
  6
Continuous
 62
     0
100
AcDbLine
 10
1062.270437781784
 20
740.5561519107224
 30
0.0
 11
1072.170437781784
 21
740.5561519107224
 31
0.0
  0
TEXT
  5
60B
330
A
100
AcDbEntity
  8
____1
  6
Continuous
 62
     0
100
AcDbText
 10
1065.757115962551
 20
741.6561005388382
 30
0.0
 40
4.682630310058592
  1
1
  7
STYLE1
100
AcDbText
  0
LINE
  5
60C
330
A
100
AcDbEntity
  8
____1
  6
Continuous
 62
     0
100
AcDbLine
 10
1226.364678419795
 20
283.5301611078781
 30
0.0
 11
1221.414678419795
 21
274.956509610412
 31
0.0
  0
LINE
  5
60D
330
A
100
AcDbEntity
  8
____1
  6
Continuous
 62
     0
100
AcDbLine
 10
1226.364678419795
 20
283.5301611078781
 30
0.0
 11
1231.314678419795
 21
274.956509610412
 31
0.0
  0
LINE
  5
60E
330
A
100
AcDbEntity
  8
____1
  6
Continuous
 62
     0
100
AcDbLine
 10
1221.414678419795
 20
274.956509610412
 30
0.0
 11
1231.314678419795
 21
274.956509610412
 31
0.0
  0
TEXT
  5
60F
330
A
100
AcDbEntity
  8
____1
  6
Continuous
 62
     0
100
AcDbText
 10
1224.901356600562
 20
276.0564582385278
 30
0.0
 40
4.682630310058592
  1
1
  7
STYLE1
100
AcDbText
  0
TEXT
  5
610
330
A
100
AcDbEntity
  8
____1
  6
Continuous
 62
     0
100
AcDbText
 10
1212.874121335043
 20
252.8899334542209
 30
0.0
 40
4.682630310058592
  1
1
  7
STYLE1
100
AcDbText
  0
LINE
  5
611
330
A
100
AcDbEntity
  8
____1
  6
Continuous
 62
     0
100
AcDbLine
 10
1209.387443154277
 20
251.7899848261051
 30
0.0
 11
1219.287443154277
 21
251.7899848261051
 31
0.0
  0
LINE
  5
612
330
A
100
AcDbEntity
  8
____1
  6
Continuous
 62
     0
100
AcDbLine
 10
1214.337443154277
 20
260.3636363235711
 30
0.0
 11
1219.287443154277
 21
251.7899848261051
 31
0.0
  0
LINE
  5
613
330
A
100
AcDbEntity
  8
____1
  6
Continuous
 62
     0
100
AcDbLine
 10
1214.337443154277
 20
260.3636363235711
 30
0.0
 11
1209.387443154277
 21
251.7899848261051
 31
0.0
  0
TEXT
  5
614
330
A
100
AcDbEntity
  8
____1
  6
Continuous
 62
     7
100
AcDbText
 10
1147.010080110724
 20
252.1076822779295
 30
0.0
 40
6.773332977294923
  1
ＬＳ-７３３
  7
STYLE1
100
AcDbText
  0
TEXT
  5
615
330
A
100
AcDbEntity
  8
____1
  6
Continuous
 62
     0
100
AcDbText
 10
1153.094565804845
 20
752.14415634859
 30
0.0
 40
4.938888740539549
  1
改　訂　内　容
  7
STYLE1
100
AcDbText
  0
LINE
  5
616
330
A
100
AcDbEntity
  8
____1
  6
Continuous
 62
     0
100
AcDbLine
 10
1117.789008553869
 20
739.6945684087158
 30
0.0
 11
1117.789008553869
 21
759.6945684087158
 31
0.0
  0
LINE
  5
617
330
A
100
AcDbEntity
  8
____1
  6
Continuous
 62
     0
100
AcDbLine
 10
1117.789008553869
 20
739.6945684087158
 30
0.0
 11
1117.789008553869
 21
759.6945684087158
 31
0.0
  0
LINE
  5
618
330
A
100
AcDbEntity
  8
____1
  6
Continuous
 62
     0
100
AcDbLine
 10
1077.789008553869
 20
739.6945684087158
 30
0.0
 11
1077.789008553869
 21
759.6945684087158
 31
0.0
  0
LINE
  5
619
330
A
100
AcDbEntity
  8
____1
  6
Continuous
 62
     0
100
AcDbLine
 10
1057.789008553869
 20
739.6945684087158
 30
0.0
 11
1057.789008553869
 21
759.6945684087158
 31
0.0
  0
LINE
  5
61A
330
A
100
AcDbEntity
  8
____1
  6
Continuous
 62
     0
100
AcDbLine
 10
1067.220437781784
 20
759.0298034081882
 30
0.0
 11
1062.270437781784
 21
750.4561519107225
 31
0.0
  0
LINE
  5
61B
330
A
100
AcDbEntity
  8
____1
  6
Continuous
 62
     0
100
AcDbLine
 10
1067.220437781784
 20
759.0298034081882
 30
0.0
 11
1072.170437781784
 21
750.4561519107225
 31
0.0
  0
LINE
  5
61C
330
A
100
AcDbEntity
  8
____1
  6
Continuous
 62
     0
100
AcDbLine
 10
1062.270437781784
 20
750.4561519107225
 30
0.0
 11
1072.170437781784
 21
750.4561519107225
 31
0.0
  0
LINE
  5
61D
330
A
100
AcDbEntity
  8
____1
  6
Continuous
 62
     0
100
AcDbLine
 10
1057.789008553869
 20
739.6945684087158
 30
0.0
 11
1237.789008553868
 21
739.6945684087158
 31
0.0
  0
LINE
  5
61E
330
A
100
AcDbEntity
  8
____1
  6
Continuous
 62
     0
100
AcDbLine
 10
1057.789008553869
 20
749.6945684087157
 30
0.0
 11
1237.789008553868
 21
749.6945684087157
 31
0.0
  0
TEXT
  5
61F
330
A
100
AcDbEntity
  8
____1
  6
Continuous
 62
     0
100
AcDbText
 10
1087.205675538427
 20
752.14415634859
 30
0.0
 40
4.938888740539549
  1
改訂日
  7
STYLE1
100
AcDbText
  0
POLYLINE
  5
620
330
A
100
AcDbEntity
  8
____1
  6
Continuous
 62
     0
100
AcDb3dPolyline
 66
     1
 10
0.0
 20
0.0
 30
0.0
 70
     8
  0
VERTEX
  5
621
330
620
100
AcDbEntity
  8
____1
 62
     0
100
AcDbVertex
100
AcDb3dPolylineVertex
 10
1044.164788462817
 20
212.0177295563777
 30
0.0
 70
    32
  0
VERTEX
  5
622
330
620
100
AcDbEntity
  8
____1
 62
     0
100
AcDbVertex
100
AcDb3dPolylineVertex
 10
1045.543175291088
 20
210.7575635330729
 30
0.0
 70
    32
  0
VERTEX
  5
623
330
620
100
AcDbEntity
  8
____1
 62
     0
100
AcDbVertex
100
AcDb3dPolylineVertex
 10
1046.944099315899
 20
209.539069979329
 30
0.0
 70
    32
  0
VERTEX
  5
624
330
620
100
AcDbEntity
  8
____1
 62
     0
100
AcDbVertex
100
AcDb3dPolylineVertex
 10
1048.390097733786
 20
208.4039213647072
 30
0.0
 70
    32
  0
VERTEX
  5
625
330
620
100
AcDbEntity
  8
____1
 62
     0
100
AcDbVertex
100
AcDb3dPolylineVertex
 10
1049.90370774129
 20
207.3937901587683
 30
0.0
 70
    32
  0
VERTEX
  5
626
330
620
100
AcDbEntity
  8
____1
 62
     0
100
AcDbVertex
100
AcDb3dPolylineVertex
 10
1049.903707745207
 20
207.3937901564162
 30
0.0
 70
    32
  0
SEQEND
  5
627
330
620
100
AcDbEntity
  8
____1
 62
     0
  0
LINE
  5
628
330
A
100
AcDbEntity
  8
____1
  6
Continuous
 62
     7
100
AcDbLine
 10
942.789008553869
 20
232.694568408716
 30
0.0
 11
1012.789008553868
 21
232.694568408716
 31
0.0
  0
TEXT
  5
629
330
A
100
AcDbEntity
  8
____1
  6
Continuous
 62
     7
100
AcDbText
 10
937.7890085538684
 20
235.6486744412892
 30
0.0
 40
5.644444274902342
  1
 設計　　 岸本
  7
STYLE1
100
AcDbText
  0
TEXT
  5
62A
330
A
100
AcDbEntity
  8
____1
  6
Continuous
 62
     7
100
AcDbText
 10
937.7890085538684
 20
224.6486744412892
 30
0.0
 40
5.644444274902342
  1
 製図　　 岸本
  7
STYLE1
100
AcDbText
  0
TEXT
  5
62B
330
A
100
AcDbEntity
  8
____1
  6
Continuous
 62
     7
100
AcDbText
 10
939.8993717711226
 20
257.6486744412892
 30
0.0
 40
5.644444274902342
  1
 日　　付
  7
STYLE1
100
AcDbText
  0
TEXT
  5
62C
330
A
100
AcDbEntity
  8
____1
  6
Continuous
 62
     7
100
AcDbText
 10
1100.022352227508
 20
257.6475222881304
 30
0.0
 40
5.644444274902342
  1
型番
  7
STYLE1
100
AcDbText
  0
TEXT
  5
62D
330
A
100
AcDbEntity
  8
____1
  6
Continuous
 62
     7
100
AcDbText
 10
1100.022352227508
 20
235.6475222881304
 30
0.0
 40
5.644444274902342
  1
品名
  7
STYLE1
100
AcDbText
  0
TEXT
  5
62E
330
A
100
AcDbEntity
  8
____1
  6
Continuous
 62
     7
100
AcDbText
 10
1100.022352227508
 20
213.6475222881304
 30
0.0
 40
5.644444274902342
  1
図番
  7
STYLE1
100
AcDbText
  0
LINE
  5
62F
330
A
100
AcDbEntity
  8
____1
  6
Continuous
 62
     5
100
AcDbLine
 10
437.7890085538687
 20
199.6945684087159
 30
0.0
 11
437.7890085538687
 21
759.6945684087158
 31
0.0
  0
ARC
  5
630
330
A
100
AcDbEntity
  8
____1
  6
Continuous
 62
     0
100
AcDbCircle
 10
1046.468788462817
 20
213.8306329835061
 30
0.0
 40
7.296000000000057
100
AcDbArc
 50
331.3992813832578
 51
358.4920422457636
  0
LINE
  5
631
330
A
100
AcDbEntity
  8
____1
  6
Continuous
 62
     0
100
AcDbLine
 10
1036.176424826454
 20
210.3746329835062
 30
0.0
 11
1039.056424826454
 21
210.3746329835062
 31
0.0
  0
ARC
  5
632
330
A
100
AcDbEntity
  8
____1
  6
Continuous
 62
     0
100
AcDbCircle
 10
1048.964788462817
 20
214.2146329835061
 30
0.0
 40
10.56000000000012
100
AcDbArc
 50
270.0
 51
302.5449588540466
  0
LINE
  5
633
330
A
100
AcDbEntity
  8
____1
  6
Continuous
 62
     0
100
AcDbLine
 10
1039.056424826454
 20
213.2546329835062
 30
0.0
 11
1036.176424826454
 21
213.2546329835062
 31
0.0
  0
LINE
  5
634
330
A
100
AcDbEntity
  8
____1
  6
Continuous
 62
     0
100
AcDbLine
 10
1036.176424826454
 20
213.2546329835062
 30
0.0
 11
1036.176424826454
 21
214.2146329835061
 31
0.0
  0
LINE
  5
635
330
A
100
AcDbEntity
  8
____1
  6
Continuous
 62
     0
100
AcDbLine
 10
1065.702355147522
 20
213.8306329835061
 30
0.0
 11
1070.499795147522
 21
213.8306329835061
 31
0.0
  0
LINE
  5
636
330
A
100
AcDbEntity
  8
____1
  6
Continuous
 62
     0
100
AcDbLine
 10
1075.656729750696
 20
214.8073924532031
 30
0.0
 11
1077.222355147522
 21
217.0946329835062
 31
0.0
  0
LINE
  5
637
330
A
100
AcDbEntity
  8
____1
  6
Continuous
 62
     0
100
AcDbLine
 10
1022.736424826454
 20
210.3746329835062
 30
0.0
 11
1022.736424826454
 21
207.4946329835062
 31
0.0
  0
LINE
  5
638
330
A
100
AcDbEntity
  8
____1
  6
Continuous
 62
     7
100
AcDbLine
 10
942.789008553869
 20
254.6945684087159
 30
0.0
 11
972.7890085538687
 21
254.6945684087159
 31
0.0
  0
LINE
  5
639
330
A
100
AcDbEntity
  8
____1
  6
Continuous
 62
     7
100
AcDbLine
 10
982.7890085538687
 20
254.6945684087159
 30
0.0
 11
1012.789008553868
 21
254.6945684087159
 31
0.0
  0
LINE
  5
63A
330
A
100
AcDbEntity
  8
____1
  6
Continuous
 62
     7
100
AcDbLine
 10
1022.789008553868
 20
254.6945684087159
 30
0.0
 11
1052.789008553868
 21
254.6945684087159
 31
0.0
  0
LINE
  5
63B
330
A
100
AcDbEntity
  8
____1
  6
Continuous
 62
     7
100
AcDbLine
 10
1022.789008553868
 20
232.694568408716
 30
0.0
 11
1052.789008553868
 21
232.694568408716
 31
0.0
  0
LINE
  5
63C
330
A
100
AcDbEntity
  8
____1
  6
Continuous
 62
     7
100
AcDbLine
 10
977.7890085538684
 20
265.694568408716
 30
0.0
 11
977.7890085538684
 21
243.6945684087159
 31
0.0
  0
LINE
  5
63D
330
A
100
AcDbEntity
  8
____1
  6
Continuous
 62
     0
100
AcDbLine
 10
1075.937806711127
 20
213.8306329835061
 30
0.0
 11
1075.656729750696
 21
214.8073924532031
 31
0.0
  0
LINE
  5
63E
330
A
100
AcDbEntity
  8
____1
  6
Continuous
 62
     0
100
AcDbLine
 10
1061.444788462817
 20
217.0946329835062
 30
0.0
 11
1044.164788462817
 21
217.0946329835062
 31
0.0
  0
POLYLINE
  5
63F
330
A
100
AcDbEntity
  8
____1
  6
Continuous
 62
     0
100
AcDb3dPolyline
 66
     1
 10
0.0
 20
0.0
 30
0.0
 70
     8
  0
VERTEX
  5
640
330
63F
100
AcDbEntity
  8
____1
 62
     0
100
AcDbVertex
100
AcDb3dPolylineVertex
 10
1056.999253664025
 20
207.4494950254331
 30
0.0
 70
    32
  0
VERTEX
  5
641
330
63F
100
AcDbEntity
  8
____1
 62
     0
100
AcDbVertex
100
AcDb3dPolylineVertex
 10
1058.080373755381
 20
207.1720569839211
 30
0.0
 70
    32
  0
VERTEX
  5
642
330
63F
100
AcDbEntity
  8
____1
 62
     0
100
AcDbVertex
100
AcDb3dPolylineVertex
 10
1059.187434082459
 20
206.9363811118637
 30
0.0
 70
    32
  0
VERTEX
  5
643
330
63F
100
AcDbEntity
  8
____1
 62
     0
100
AcDbVertex
100
AcDb3dPolylineVertex
 10
1061.444788462817
 20
206.5346329835062
 30
0.0
 70
    32
  0
SEQEND
  5
644
330
63F
100
AcDbEntity
  8
____1
 62
     0
  0
POLYLINE
  5
645
330
A
100
AcDbEntity
  8
____1
  6
Continuous
 62
     0
100
AcDb3dPolyline
 66
     1
 10
0.0
 20
0.0
 30
0.0
 70
     8
  0
VERTEX
  5
646
330
645
100
AcDbEntity
  8
____1
 62
     0
100
AcDbVertex
100
AcDb3dPolylineVertex
 10
1050.758672446915
 20
211.5500652540395
 30
0.0
 70
    32
  0
VERTEX
  5
647
330
645
100
AcDbEntity
  8
____1
 62
     0
100
AcDbVertex
100
AcDb3dPolylineVertex
 10
1051.56885339639
 20
210.6619414912543
 30
0.0
 70
    32
  0
VERTEX
  5
648
330
645
100
AcDbEntity
  8
____1
 62
     0
100
AcDbVertex
100
AcDb3dPolylineVertex
 10
1052.412564498727
 20
209.8277991934314
 30
0.0
 70
    32
  0
SEQEND
  5
649
330
645
100
AcDbEntity
  8
____1
 62
     0
  0
POLYLINE
  5
64A
330
A
100
AcDbEntity
  8
____1
  6
Continuous
 62
     0
100
AcDb3dPolyline
 66
     1
 10
0.0
 20
0.0
 30
0.0
 70
     8
  0
VERTEX
  5
64B
330
64A
100
AcDbEntity
  8
____1
 62
     0
100
AcDbVertex
100
AcDb3dPolylineVertex
 10
1054.64565910749
 20
205.3128742405106
 30
0.0
 70
    32
  0
VERTEX
  5
64C
330
64A
100
AcDbEntity
  8
____1
 62
     0
100
AcDbVertex
100
AcDb3dPolylineVertex
 10
1056.306395826875
 20
204.8261165087542
 30
0.0
 70
    32
  0
VERTEX
  5
64D
330
64A
100
AcDbEntity
  8
____1
 62
     0
100
AcDbVertex
100
AcDb3dPolylineVertex
 10
1058.000600220071
 20
204.4012422777166
 30
0.0
 70
    32
  0
VERTEX
  5
64E
330
64A
100
AcDbEntity
  8
____1
 62
     0
100
AcDbVertex
100
AcDb3dPolylineVertex
 10
1061.444788462817
 20
203.6546329835062
 30
0.0
 70
    32
  0
SEQEND
  5
64F
330
64A
100
AcDbEntity
  8
____1
 62
     0
  0
LINE
  5
650
330
A
100
AcDbEntity
  8
____1
  6
Continuous
 62
     0
100
AcDbLine
 10
1059.524788462817
 20
214.2146329835061
 30
0.0
 11
1061.444788462817
 21
217.0946329835062
 31
0.0
  0
LINE
  5
651
330
A
100
AcDbEntity
  8
____1
  6
Continuous
 62
     0
100
AcDbLine
 10
1044.164788462817
 20
206.5346329835062
 30
0.0
 11
1044.164788462817
 21
203.6546329835062
 31
0.0
  0
LINE
  5
652
330
A
100
AcDbEntity
  8
____1
  6
Continuous
 62
     0
100
AcDbLine
 10
1044.164788462817
 20
206.5346329835062
 30
0.0
 11
1046.468788462817
 21
206.5346329835062
 31
0.0
  0
LINE
  5
653
330
A
100
AcDbEntity
  8
____1
  6
Continuous
 62
     0
100
AcDbLine
 10
1069.542355147522
 20
217.0946329835062
 30
0.0
 11
1077.222355147522
 21
217.0946329835062
 31
0.0
  0
LINE
  5
654
330
A
100
AcDbEntity
  8
____1
  6
Continuous
 62
     0
100
AcDbLine
 10
1022.736424826454
 20
213.2546329835062
 30
0.0
 11
1020.526305508272
 21
213.2546329835062
 31
0.0
  0
LINE
  5
655
330
A
100
AcDbEntity
  8
____1
  6
Continuous
 62
     0
100
AcDbLine
 10
1082.982355147521
 20
208.8386329835061
 30
0.0
 11
1082.982355147521
 21
205.3826329835062
 31
0.0
  0
LINE
  5
656
330
A
100
AcDbEntity
  8
____1
  6
Continuous
 62
     0
100
AcDbLine
 10
1061.444788462817
 20
206.5346329835062
 30
0.0
 11
1061.444788462817
 21
203.6546329835062
 31
0.0
  0
LINE
  5
657
330
A
100
AcDbEntity
  8
____1
  6
Continuous
 62
     0
100
AcDbLine
 10
1022.736424826454
 20
210.3746329835062
 30
0.0
 11
1022.446305508272
 21
210.3746329835062
 31
0.0
  0
LINE
  5
658
330
A
100
AcDbEntity
  8
____1
  6
Continuous
 62
     0
100
AcDbLine
 10
1022.736424826454
 20
206.5346329835062
 30
0.0
 11
1022.736424826454
 21
203.6546329835062
 31
0.0
  0
LINE
  5
659
330
A
100
AcDbEntity
  8
____1
  6
Continuous
 62
     0
100
AcDbLine
 10
1044.164788462817
 20
203.6546329835062
 30
0.0
 11
1044.164788462817
 21
206.5346329835062
 31
0.0
  0
LINE
  5
65A
330
A
100
AcDbEntity
  8
____1
  6
Continuous
 62
     0
100
AcDbLine
 10
1027.536424826454
 20
210.3746329835062
 30
0.0
 11
1031.376424826454
 21
210.3746329835062
 31
0.0
  0
LINE
  5
65B
330
A
100
AcDbEntity
  8
____1
  6
Continuous
 62
     0
100
AcDbLine
 10
1079.142355147522
 20
202.6946329835062
 30
0.0
 11
1078.368843455978
 21
205.3826329835062
 31
0.0
  0
LINE
  5
65C
330
A
100
AcDbEntity
  8
____1
  6
Continuous
 62
     0
100
AcDbLine
 10
1020.526305508272
 20
210.3746329835062
 30
0.0
 11
1022.446305508272
 21
210.3746329835062
 31
0.0
  0
LINE
  5
65D
330
A
100
AcDbEntity
  8
____1
  6
Continuous
 62
     0
100
AcDbLine
 10
1065.702355147522
 20
208.8386329835061
 30
0.0
 11
1071.964115147522
 21
208.8386329835061
 31
0.0
  0
LINE
  5
65E
330
A
100
AcDbEntity
  8
____1
  6
Continuous
 62
     5
100
AcDbLine
 10
937.7890085538684
 20
199.6945684087159
 30
0.0
 11
437.7890085538687
 21
199.6945684087159
 31
0.0
  0
LINE
  5
65F
330
A
100
AcDbEntity
  8
____1
  6
Continuous
 62
     5
100
AcDbLine
 10
1237.789008553868
 20
759.6945684087158
 30
0.0
 11
437.7890085538685
 21
759.6945684087158
 31
0.0
  0
LINE
  5
660
330
A
100
AcDbEntity
  8
____1
  6
Continuous
 62
     5
100
AcDbLine
 10
1237.789008553868
 20
265.694568408716
 30
0.0
 11
1237.789008553868
 21
759.6945684087158
 31
0.0
  0
LINE
  5
661
330
A
100
AcDbEntity
  8
____1
  6
Continuous
 62
     0
100
AcDbLine
 10
1077.374328423993
 20
208.8386329835061
 30
0.0
 11
1076.932321743111
 21
210.3746329835062
 31
0.0
  0
LINE
  5
662
330
A
100
AcDbEntity
  8
____1
  6
Continuous
 62
     0
100
AcDbLine
 10
1073.766355147522
 20
202.6946329835062
 30
0.0
 11
1072.977875147522
 21
205.3826329835062
 31
0.0
  0
LINE
  5
663
330
A
100
AcDbEntity
  8
____1
  6
Continuous
 62
     0
100
AcDbLine
 10
1028.496424826454
 20
206.5346329835062
 30
0.0
 11
1022.736424826454
 21
206.5346329835062
 31
0.0
  0
LINE
  5
664
330
A
100
AcDbEntity
  8
____1
  6
Continuous
 62
     0
100
AcDbLine
 10
1044.164788462817
 20
213.6386329835061
 30
0.0
 11
1053.764788462817
 21
213.6386329835061
 31
0.0
  0
LINE
  5
665
330
A
100
AcDbEntity
  8
____1
  6
Continuous
 62
     0
100
AcDbLine
 10
1082.982355147521
 20
213.8306329835061
 30
0.0
 11
1082.982355147521
 21
210.3746329835062
 31
0.0
  0
LINE
  5
666
330
A
100
AcDbEntity
  8
____1
  6
Continuous
 62
     0
100
AcDbLine
 10
1065.702355147522
 20
210.3746329835062
 30
0.0
 11
1071.513555147522
 21
210.3746329835062
 31
0.0
  0
LINE
  5
667
330
A
100
AcDbEntity
  8
____1
  6
Continuous
 62
     0
100
AcDbLine
 10
1065.702355147522
 20
208.8386329835061
 30
0.0
 11
1065.702355147522
 21
205.3826329835062
 31
0.0
  0
LINE
  5
668
330
A
100
AcDbEntity
  8
____1
  6
Continuous
 62
     0
100
AcDbLine
 10
1027.536424826454
 20
207.4946329835062
 30
0.0
 11
1027.536424826454
 21
210.3746329835062
 31
0.0
  0
LINE
  5
669
330
A
100
AcDbEntity
  8
____1
  6
Continuous
 62
     0
100
AcDbLine
 10
1031.376424826454
 20
213.2546329835062
 30
0.0
 11
1027.536424826454
 21
213.2546329835062
 31
0.0
  0
LINE
  5
66A
330
A
100
AcDbEntity
  8
____1
  6
Continuous
 62
     0
100
AcDbLine
 10
1030.416424826454
 20
217.0946329835062
 30
0.0
 11
1022.736424826454
 21
217.0946329835062
 31
0.0
  0
LINE
  5
66B
330
A
100
AcDbEntity
  8
____1
  6
Continuous
 62
     0
100
AcDbLine
 10
1027.536424826454
 20
214.2146329835061
 30
0.0
 11
1030.416424826454
 21
217.0946329835062
 31
0.0
  0
LINE
  5
66C
330
A
100
AcDbEntity
  8
____1
  6
Continuous
 62
     0
100
AcDbLine
 10
1022.736424826454
 20
217.0946329835062
 30
0.0
 11
1022.736424826454
 21
213.2546329835062
 31
0.0
  0
LINE
  5
66D
330
A
100
AcDbEntity
  8
____1
  6
Continuous
 62
     0
100
AcDbLine
 10
1078.368843455978
 20
205.3826329835062
 30
0.0
 11
1082.982355147521
 21
205.3826329835062
 31
0.0
  0
LINE
  5
66E
330
A
100
AcDbEntity
  8
____1
  6
Continuous
 62
     0
100
AcDbLine
 10
1070.499795147522
 20
213.8306329835061
 30
0.0
 11
1069.542355147522
 21
217.0946329835062
 31
0.0
  0
LINE
  5
66F
330
A
100
AcDbEntity
  8
____1
  6
Continuous
 62
     0
100
AcDbLine
 10
1075.937806711127
 20
213.8306329835061
 30
0.0
 11
1082.982355147521
 21
213.8306329835061
 31
0.0
  0
LINE
  5
670
330
A
100
AcDbEntity
  8
____1
  6
Continuous
 62
     7
100
AcDbLine
 10
1017.789008553869
 20
243.6945684087159
 30
0.0
 11
1017.789008553869
 21
221.694568408716
 31
0.0
  0
LINE
  5
671
330
A
100
AcDbEntity
  8
____1
  6
Continuous
 62
     7
100
AcDbLine
 10
937.7890085538684
 20
265.694568408716
 30
0.0
 11
937.7890085538684
 21
199.6945684087159
 31
0.0
  0
TEXT
  5
672
330
A
100
AcDbEntity
  8
____1
  6
Continuous
 62
     0
100
AcDbText
 10
1055.359744996344
 20
269.4548252306872
 30
0.0
 40
6.773332977294923
  1
          天板側　SUS 皿ﾀｯﾋﾟﾝﾈｼﾞ 5x16
  7
STYLE1
100
AcDbText
  0
TEXT
  5
673
330
A
100
AcDbEntity
  8
____1
  6
Continuous
 62
     0
100
AcDbText
 10
1055.359744996344
 20
277.9214914523059
 30
0.0
 40
6.773332977294923
  1
取付ビス：壁側　　SUS 皿ﾀｯﾋﾟﾝﾈｼﾞ 5x45
  7
STYLE1
100
AcDbText
  0
TEXT
  5
674
330
A
100
AcDbEntity
  8
____1
  6
Continuous
 62
     7
100
AcDbText
 10
1128.478016057265
 20
229.6667915110596
 30
0.0
 40
6.773332977294923
  1
カウンターブラケット
  7
STYLE1
100
AcDbText
  0
LINE
  5
675
330
A
100
AcDbEntity
  8
____1
  6
Continuous
 62
     0
100
AcDbLine
 10
1022.736424826454
 20
207.4946329835062
 30
0.0
 11
1027.536424826454
 21
207.4946329835062
 31
0.0
  0
LINE
  5
676
330
A
100
AcDbEntity
  8
____1
  6
Continuous
 62
     0
100
AcDbLine
 10
1036.176424826454
 20
214.2146329835061
 30
0.0
 11
1039.056424826454
 21
217.0946329835062
 31
0.0
  0
LINE
  5
677
330
A
100
AcDbEntity
  8
____1
  6
Continuous
 62
     0
100
AcDbLine
 10
1071.964115147522
 20
208.8386329835061
 30
0.0
 11
1071.513555147522
 21
210.3746329835062
 31
0.0
  0
LINE
  5
678
330
A
100
AcDbEntity
  8
____1
  6
Continuous
 62
     0
100
AcDbLine
 10
1027.536424826454
 20
213.2546329835062
 30
0.0
 11
1027.536424826454
 21
214.2146329835061
 31
0.0
  0
LINE
  5
679
330
A
100
AcDbEntity
  8
____1
  6
Continuous
 62
     0
100
AcDbLine
 10
1057.341209618825
 20
207.7843010622769
 30
0.0
 11
1056.999253664024
 21
207.4494950254331
 31
0.0
  0
LINE
  5
67A
330
A
100
AcDbEntity
  8
____1
  6
Continuous
 62
     0
100
AcDbLine
 10
1059.524788462817
 20
214.2146329835061
 30
0.0
 11
1061.444788462817
 21
217.0946329835062
 31
0.0
  0
LINE
  5
67B
330
A
100
AcDbEntity
  8
____1
  6
Continuous
 62
     0
100
AcDbLine
 10
1076.932321743111
 20
210.3746329835062
 30
0.0
 11
1082.982355147521
 21
210.3746329835062
 31
0.0
  0
LINE
  5
67C
330
A
100
AcDbEntity
  8
____1
  6
Continuous
 62
     0
100
AcDbLine
 10
1044.164788462817
 20
203.6546329835062
 30
0.0
 11
1048.964788462817
 21
203.6546329835062
 31
0.0
  0
LINE
  5
67D
330
A
100
AcDbEntity
  8
____1
  6
Continuous
 62
     0
100
AcDbLine
 10
1031.376424826454
 20
217.0946329835062
 30
0.0
 11
1031.376424826454
 21
213.2546329835062
 31
0.0
  0
LINE
  5
67E
330
A
100
AcDbEntity
  8
____1
  6
Continuous
 62
     5
100
AcDbLine
 10
937.7890085538684
 20
199.6945684087159
 30
0.0
 11
1237.789008553868
 21
199.6945684087159
 31
0.0
  0
LINE
  5
67F
330
A
100
AcDbEntity
  8
____1
  6
Continuous
 62
     0
100
AcDbLine
 10
1052.874508446856
 20
210.338016845695
 30
0.0
 11
1052.412564498727
 21
209.8277991934315
 31
0.0
  0
LINE
  5
680
330
A
100
AcDbEntity
  8
____1
  6
Continuous
 62
     0
100
AcDbLine
 10
1044.164788462817
 20
212.6361812699419
 30
0.0
 11
1051.844788462817
 21
212.6361812699419
 31
0.0
  0
ARC
  5
681
330
A
100
AcDbEntity
  8
____1
  6
Continuous
 62
     0
100
AcDbCircle
 10
1046.468788462817
 20
213.8306329835061
 30
0.0
 40
7.29599999999998
100
AcDbArc
 50
270.0
 51
298.0859048152069
  0
LINE
  5
682
330
A
100
AcDbEntity
  8
____1
  6
Continuous
 62
     0
100
AcDbLine
 10
1051.844788462817
 20
212.6361812699419
 30
0.0
 11
1050.758672446915
 21
211.5500652540395
 31
0.0
  0
LINE
  5
683
330
A
100
AcDbEntity
  8
____1
  6
Continuous
 62
     0
100
AcDbLine
 10
1044.164788462817
 20
212.0177295563777
 30
0.0
 11
1044.164788462817
 21
212.6361812699419
 31
0.0
  0
LINE
  5
684
330
A
100
AcDbEntity
  8
____1
  6
Continuous
 62
     0
100
AcDbLine
 10
1020.526305508272
 20
213.2546329835062
 30
0.0
 11
1020.526305508272
 21
210.3746329835062
 31
0.0
  0
LINE
  5
685
330
A
100
AcDbEntity
  8
____1
  6
Continuous
 62
     0
100
AcDbLine
 10
1039.056424826454
 20
213.2546329835062
 30
0.0
 11
1039.056424826454
 21
210.3746329835062
 31
0.0
  0
LINE
  5
686
330
A
100
AcDbEntity
  8
____1
  6
Continuous
 62
     0
100
AcDbLine
 10
1039.056424826454
 20
217.0946329835062
 30
0.0
 11
1031.376424826454
 21
217.0946329835062
 31
0.0
  0
LINE
  5
687
330
A
100
AcDbEntity
  8
____1
  6
Continuous
 62
     0
100
AcDbLine
 10
1044.164788462817
 20
217.0946329835062
 30
0.0
 11
1044.164788462817
 21
213.6386329835061
 31
0.0
  0
LINE
  5
688
330
A
100
AcDbEntity
  8
____1
  6
Continuous
 62
     5
100
AcDbLine
 10
1237.789008553868
 20
199.6945684087159
 30
0.0
 11
1237.789008553868
 21
265.694568408716
 31
0.0
  0
ARC
  5
689
330
A
100
AcDbEntity
  8
____1
  6
Continuous
 62
     0
100
AcDbCircle
 10
1030.416424826454
 20
209.4146329835061
 30
0.0
 40
5.759999999999998
100
AcDbArc
 50
270.0
 51
0.0
  0
LINE
  5
68A
330
A
100
AcDbEntity
  8
____1
  6
Continuous
 62
     0
100
AcDbLine
 10
1077.374328423993
 20
208.8386329835061
 30
0.0
 11
1082.982355147521
 21
208.8386329835061
 31
0.0
  0
ARC
  5
68B
330
A
100
AcDbEntity
  8
____1
  6
Continuous
 62
     0
100
AcDbCircle
 10
1048.964788462817
 20
214.2146329835061
 30
0.0
 40
10.56
100
AcDbArc
 50
322.4876119796974
 51
0.0
  0
LINE
  5
68C
330
A
100
AcDbEntity
  8
____1
  6
Continuous
 62
     0
100
AcDbLine
 10
1022.736424826454
 20
203.6546329835062
 30
0.0
 11
1030.416424826454
 21
203.6546329835062
 31
0.0
  0
LINE
  5
68D
330
A
100
AcDbEntity
  8
____1
  6
Continuous
 62
     0
100
AcDbLine
 10
1065.702355147522
 20
205.3826329835062
 30
0.0
 11
1072.977875147522
 21
205.3826329835062
 31
0.0
  0
ARC
  5
68E
330
A
100
AcDbEntity
  8
____1
  6
Continuous
 62
     0
100
AcDbCircle
 10
1028.496424826454
 20
209.4146329835061
 30
0.0
 40
2.879999999999999
100
AcDbArc
 50
270.0
 51
0.0
  0
LINE
  5
68F
330
A
100
AcDbEntity
  8
____1
  6
Continuous
 62
     0
100
AcDbLine
 10
1036.176424826454
 20
209.4146329835061
 30
0.0
 11
1036.176424826454
 21
210.3746329835062
 31
0.0
  0
LINE
  5
690
330
A
100
AcDbEntity
  8
____1
  6
Continuous
 62
     7
100
AcDbLine
 10
1237.789008553868
 20
265.694568408716
 30
0.0
 11
937.7890085538684
 21
265.694568408716
 31
0.0
  0
LINE
  5
691
330
A
100
AcDbEntity
  8
____1
  6
Continuous
 62
     7
100
AcDbLine
 10
1097.789008553868
 20
265.694568408716
 30
0.0
 11
1097.789008553868
 21
199.6945684087159
 31
0.0
  0
LINE
  5
692
330
A
100
AcDbEntity
  8
____1
  6
Continuous
 62
     7
100
AcDbLine
 10
1057.789008553868
 20
265.694568408716
 30
0.0
 11
1057.789008553868
 21
221.694568408716
 31
0.0
  0
LINE
  5
693
330
A
100
AcDbEntity
  8
____1
  6
Continuous
 62
     7
100
AcDbLine
 10
1017.789008553869
 20
265.694568408716
 30
0.0
 11
1017.789008553869
 21
243.6945684087159
 31
0.0
  0
LINE
  5
694
330
A
100
AcDbEntity
  8
____1
  6
Continuous
 62
     7
100
AcDbLine
 10
937.7890085538684
 20
221.694568408716
 30
0.0
 11
1237.789008553868
 21
221.694568408716
 31
0.0
  0
TEXT
  5
695
330
A
100
AcDbEntity
  8
____1
  6
Continuous
 62
     7
100
AcDbText
 10
961.8078671040061
 20
204.8588075434786
 30
0.0
 40
10.15999984741211
  1
株式会社
  7
STYLE1
100
AcDbText
  0
LINE
  5
696
330
A
100
AcDbEntity
  8
____1
  6
Continuous
 62
     0
100
AcDbLine
 10
1065.702355147522
 20
213.8306329835061
 30
0.0
 11
1065.702355147522
 21
210.3746329835062
 31
0.0
  0
TEXT
  5
697
330
A
100
AcDbEntity
  8
____1
  6
Continuous
 62
     7
100
AcDbText
 10
1059.899371771122
 20
257.6486744412892
 30
0.0
 40
5.644444274902342
  1
 検　　印
  7
STYLE1
100
AcDbText
  0
LINE
  5
698
330
A
100
AcDbEntity
  8
____1
  6
Continuous
 62
     7
100
AcDbLine
 10
1057.789008553868
 20
254.6945684087159
 30
0.0
 11
1097.789008553868
 21
254.6945684087159
 31
0.0
  0
LINE
  5
699
330
A
100
AcDbEntity
  8
____1
  6
Continuous
 62
     7
100
AcDbLine
 10
1097.789008553868
 20
243.6945684087159
 30
0.0
 11
1237.789008553868
 21
243.6945684087159
 31
0.0
  0
LINE
  5
69A
330
A
100
AcDbEntity
  8
____1
  6
Continuous
 62
     7
100
AcDbLine
 10
937.7890085538684
 20
243.6945684087159
 30
0.0
 11
1057.789008553868
 21
243.6945684087159
 31
0.0
  0
TEXT
  5
69B
330
A
100
AcDbEntity
  8
____1
  6
Continuous
 62
     7
100
AcDbText
 10
1019.899371771122
 20
235.6486744412892
 30
0.0
 40
5.644444274902342
  1
 尺　　度
  7
STYLE1
100
AcDbText
  0
TEXT
  5
69C
330
A
100
AcDbEntity
  8
____1
  6
Continuous
 62
     7
100
AcDbText
 10
1030.733453210241
 20
224.6343397538939
 30
0.0
 40
5.644444274902342
  1
1：2
  7
STYLE1
100
AcDbText
  0
TEXT
  5
69D
330
A
100
AcDbEntity
  8
____1
  6
Continuous
 62
     7
100
AcDbText
 10
1019.899371771122
 20
257.6486744412892
 30
0.0
 40
5.644444274902342
  1
 板　　厚
  7
STYLE1
100
AcDbText
  0
TEXT
  5
69E
330
A
100
AcDbEntity
  8
____1
  6
Continuous
 62
     7
100
AcDbText
 10
979.8993717711224
 20
257.6486744412892
 30
0.0
 40
5.644444274902342
  1
 材　　質
  7
STYLE1
100
AcDbText
  0
TEXT
  5
69F
330
A
100
AcDbEntity
  8
____1
  6
Continuous
 62
     7
100
AcDbText
 10
948.9695638974962
 20
246.6343397538939
 30
0.0
 40
5.644444274902342
  1
H14.5
  7
STYLE1
100
AcDbText
  0
LINE
  5
6A0
330
A
100
AcDbEntity
  8
____1
  6
Continuous
 62
     0
100
AcDbLine
 10
1079.142355147522
 20
202.6946329835062
 30
0.0
 11
1073.766355147522
 21
202.6946329835062
 31
0.0
  0
LINE
  5
6A1
330
A
100
AcDbEntity
  8
____1
  6
Continuous
 62
     0
100
AcDbLine
 10
1031.376424826454
 20
210.3746329835062
 30
0.0
 11
1031.376424826454
 21
209.4146329835061
 31
0.0
  0
MTEXT
  5
6A2
330
A
100
AcDbEntity
  8
____1
  6
Continuous
 62
     0
100
AcDbMText
 10
937.7890085538684
 20
277.0341493681025
 30
0.0
 40
6.773332977294923
 41
121.977129013
 71
     1
 72
     1
  1
\W0.8;\fＭＳ ゴシック;\W1.0;表面処理：電解研磨仕上げ
  7
STYLE1
 73
     1
 44
1.0
1001
ACAD
1000
MTEXTBEGIN
1070
    73
1070
     1
1070
    44
1040
1.0
1070
    74
1070
     0
1000
MTEXTEND
  0
MTEXT
  5
6A3
330
A
100
AcDbEntity
  8
____1
  6
Continuous
 62
     7
100
AcDbMText
 10
1037.789008553868
 20
252.6609601419159
 30
0.0
 40
5.644444274902342
 41
46.0
 71
     2
 72
     1
  1
\W0.8;\fＭＳ ゴシック;\W1.0;5.0t
  7
STYLE1
 73
     1
 44
1.0
1001
ACAD
1000
MTEXTBEGIN
1070
    73
1070
     1
1070
    44
1040
1.0
1070
    74
1070
     0
1000
MTEXTEND
  0
MTEXT
  5
6A4
330
A
100
AcDbEntity
  8
____1
  6
Continuous
 62
     7
100
AcDbMText
 10
997.7890085538684
 20
252.6609601419159
 30
0.0
 40
5.644444274902342
 41
46.0
 71
     2
 72
     1
  1
\W0.8;\fＭＳ ゴシック;\W1.0;SUS304 HL
  7
STYLE1
 73
     1
 44
1.0
1001
ACAD
1000
MTEXTBEGIN
1070
    73
1070
     1
1070
    44
1040
1.0
1070
    74
1070
     0
1000
MTEXTEND
  0
SOLID
  5
7DF
330
A
100
AcDbEntity
  8
寸法線
100
AcDbTrace
 10
1125.818439864768
 20
327.1771797035159
 30
0.0
 11
1119.818439864769
 21
325.6771797035159
 31
0.0
 12
1119.818439864769
 22
328.6771797035159
 32
0.0
 13
1121.318439864768
 23
327.1771797035159
 33
0.0
  0
LINE
  5
7E0
330
A
100
AcDbEntity
  8
寸法線
100
AcDbLine
 10
1125.818439864768
 20
327.1771797035159
 30
0.0
 11
1122.818439864768
 21
327.1771797035159
 31
0.0
  0
SOLID
  5
7E1
330
A
100
AcDbEntity
  8
寸法線
100
AcDbTrace
 10
1055.818439864768
 20
327.1771797035159
 30
0.0
 11
1061.818439864768
 21
328.6771797035159
 31
0.0
 12
1061.818439864768
 22
325.6771797035159
 32
0.0
 13
1060.318439864768
 23
327.1771797035159
 33
0.0
  0
LINE
  5
7E2
330
A
100
AcDbEntity
  8
寸法線
100
AcDbLine
 10
1055.818439864768
 20
327.1771797035159
 30
0.0
 11
1058.818439864768
 21
327.1771797035159
 31
0.0
  0
LINE
  5
7E3
330
A
100
AcDbEntity
  8
寸法線
100
AcDbLine
 10
1055.818439864768
 20
327.1771797035159
 30
0.0
 11
1083.762884521169
 21
327.1771797035159
 31
0.0
  0
LINE
  5
7E4
330
A
100
AcDbEntity
  8
寸法線
100
AcDbLine
 10
1055.818439864768
 20
327.1771797035159
 30
0.0
 11
1097.873995208368
 21
327.1771797035159
 31
0.0
  0
LINE
  5
7E5
330
A
100
AcDbEntity
  8
寸法線
100
AcDbLine
 10
1125.818439864768
 20
327.1771797035159
 30
0.0
 11
1083.762884521169
 21
327.1771797035159
 31
0.0
  0
LINE
  5
7E6
330
A
100
AcDbEntity
  8
寸法線
100
AcDbLine
 10
1125.818439864768
 20
327.1771797035159
 30
0.0
 11
1097.873995208368
 21
327.1771797035159
 31
0.0
  0
LINE
  5
7E7
330
A
100
AcDbEntity
  8
寸法線
100
AcDbLine
 10
1055.818439864768
 20
371.0818079920159
 30
0.0
 11
1055.818439864768
 21
326.6771797035159
 31
0.0
  0
LINE
  5
7E8
330
A
100
AcDbEntity
  8
寸法線
100
AcDbLine
 10
1125.818439864768
 20
348.5818079920159
 30
0.0
 11
1125.818439864768
 21
326.6771797035159
 31
0.0
  0
TEXT
  5
7E9
330
A
100
AcDbEntity
  8
寸法線
100
AcDbText
 10
1087.290662192969
 20
329.2355130051159
 30
0.0
 40
5.9972220421
  1
70
100
AcDbText
  0
SOLID
  5
7EA
330
A
100
AcDbEntity
  8
寸法線
100
AcDbTrace
 10
1055.818439864768
 20
327.1771797035159
 30
0.0
 11
1049.818439864768
 21
325.6771797035159
 31
0.0
 12
1049.818439864768
 22
328.6771797035159
 32
0.0
 13
1051.318439864768
 23
327.1771797035159
 33
0.0
  0
LINE
  5
7EB
330
A
100
AcDbEntity
  8
寸法線
100
AcDbLine
 10
1055.818439864768
 20
327.1771797035159
 30
0.0
 11
1052.818439864768
 21
327.1771797035159
 31
0.0
  0
SOLID
  5
7EC
330
A
100
AcDbEntity
  8
寸法線
100
AcDbTrace
 10
900.8184398647687
 20
327.1771797035159
 30
0.0
 11
906.8184398647687
 21
328.6771797035159
 31
0.0
 12
906.8184398647687
 22
325.6771797035159
 32
0.0
 13
905.3184398647687
 23
327.1771797035159
 33
0.0
  0
LINE
  5
7ED
330
A
100
AcDbEntity
  8
寸法線
100
AcDbLine
 10
900.8184398647687
 20
327.1771797035159
 30
0.0
 11
903.8184398647686
 21
327.1771797035159
 31
0.0
  0
LINE
  5
7EE
330
A
100
AcDbEntity
  8
寸法線
100
AcDbLine
 10
900.8184398647687
 20
327.1771797035159
 30
0.0
 11
969.4989956852687
 21
327.1771797035159
 31
0.0
  0
LINE
  5
7EF
330
A
100
AcDbEntity
  8
寸法線
100
AcDbLine
 10
900.8184398647687
 20
327.1771797035159
 30
0.0
 11
987.1378840443687
 21
327.1771797035159
 31
0.0
  0
LINE
  5
7F0
330
A
100
AcDbEntity
  8
寸法線
100
AcDbLine
 10
1055.818439864768
 20
327.1771797035159
 30
0.0
 11
969.4989956852687
 21
327.1771797035159
 31
0.0
  0
LINE
  5
7F1
330
A
100
AcDbEntity
  8
寸法線
100
AcDbLine
 10
1055.818439864768
 20
327.1771797035159
 30
0.0
 11
987.1378840443687
 21
327.1771797035159
 31
0.0
  0
LINE
  5
7F2
330
A
100
AcDbEntity
  8
寸法線
100
AcDbLine
 10
900.8184398647687
 20
349.0818079920158
 30
0.0
 11
900.8184398647687
 21
326.6771797035159
 31
0.0
  0
LINE
  5
7F3
330
A
100
AcDbEntity
  8
寸法線
100
AcDbLine
 10
1055.818439864768
 20
371.0818079920159
 30
0.0
 11
1055.818439864768
 21
326.6771797035159
 31
0.0
  0
TEXT
  5
7F4
330
A
100
AcDbEntity
  8
寸法線
100
AcDbText
 10
973.0267733570686
 20
329.2355130051159
 30
0.0
 40
5.9972220421
  1
155
100
AcDbText
  0
SOLID
  5
7F5
330
A
100
AcDbEntity
  8
寸法線
100
AcDbTrace
 10
601.7424633022687
 20
640.0699825013822
 30
0.0
 11
600.2424633022688
 21
646.0699825013822
 31
0.0
 12
603.2424633022688
 22
646.0699825013822
 32
0.0
 13
601.7424633022687
 23
644.5699825013822
 33
0.0
  0
LINE
  5
7F6
330
A
100
AcDbEntity
  8
寸法線
100
AcDbLine
 10
601.7424633022687
 20
640.0699825013822
 30
0.0
 11
601.7424633022687
 21
643.0699825013822
 31
0.0
  0
SOLID
  5
7F7
330
A
100
AcDbEntity
  8
寸法線
100
AcDbTrace
 10
601.7424633022687
 20
670.0699825013822
 30
0.0
 11
603.2424633022688
 21
664.0699825013822
 31
0.0
 12
600.2424633022688
 22
664.0699825013822
 32
0.0
 13
601.7424633022687
 23
665.5699825013822
 33
0.0
  0
LINE
  5
7F8
330
A
100
AcDbEntity
  8
寸法線
100
AcDbLine
 10
601.7424633022687
 20
670.0699825013822
 30
0.0
 11
601.7424633022687
 21
667.0699825013822
 31
0.0
  0
LINE
  5
7F9
330
A
100
AcDbEntity
  8
寸法線
100
AcDbLine
 10
601.7424633022687
 20
670.0699825013822
 30
0.0
 11
601.7424633022687
 21
648.0144271576822
 31
0.0
  0
LINE
  5
7FA
330
A
100
AcDbEntity
  8
寸法線
100
AcDbLine
 10
601.7424633022687
 20
670.0699825013822
 30
0.0
 11
601.7424633022687
 21
662.1255378449822
 31
0.0
  0
LINE
  5
7FB
330
A
100
AcDbEntity
  8
寸法線
100
AcDbLine
 10
601.7424633022687
 20
640.0699825013822
 30
0.0
 11
601.7424633022687
 21
648.0144271576822
 31
0.0
  0
LINE
  5
7FC
330
A
100
AcDbEntity
  8
寸法線
100
AcDbLine
 10
601.7424633022687
 20
640.0699825013822
 30
0.0
 11
601.7424633022687
 21
662.1255378449822
 31
0.0
  0
LINE
  5
7FD
330
A
100
AcDbEntity
  8
寸法線
100
AcDbLine
 10
582.7424633022688
 20
670.0699825013822
 30
0.0
 11
602.2424633022687
 21
670.0699825013822
 31
0.0
  0
LINE
  5
7FE
330
A
100
AcDbEntity
  8
寸法線
100
AcDbLine
 10
560.2424633022685
 20
640.0699825013822
 30
0.0
 11
602.2424633022687
 21
640.0699825013822
 31
0.0
  0
TEXT
  5
7FF
330
A
100
AcDbEntity
  8
寸法線
100
AcDbText
 10
599.6841300007687
 20
651.5422048294822
 30
0.0
 40
5.9972220421
  1
30
 50
90.0
100
AcDbText
  0
SOLID
  5
800
330
A
100
AcDbEntity
  8
寸法線
100
AcDbTrace
 10
558.9354361964686
 20
494.0394339263822
 30
0.0
 11
553.1601592761687
 21
496.2521644780822
 31
0.0
 12
554.8808885852687
 22
498.7096206108822
 32
0.0
 13
555.2492519971687
 23
496.6205278899821
 33
0.0
  0
LINE
  5
801
330
A
100
AcDbEntity
  8
寸法線
100
AcDbLine
 10
558.9354361964686
 20
494.0394339263822
 30
0.0
 11
475.2675634839686
 21
552.6243091055821
 31
0.0
  0
TEXT
  5
802
330
A
100
AcDbEntity
  8
寸法線
100
AcDbText
 10
476.6839785856687
 20
554.6471595097822
 30
0.0
 40
5.9972220421
  1
5-Φ6穴　皿Φ11
 50
325.0
100
AcDbText
  0
SOLID
  5
803
330
A
100
AcDbEntity
  8
寸法線
100
AcDbTrace
 10
745.8184398647687
 20
327.1771797035159
 30
0.0
 11
751.8184398647687
 21
328.6771797035159
 31
0.0
 12
751.8184398647687
 22
325.6771797035159
 32
0.0
 13
750.3184398647687
 23
327.1771797035159
 33
0.0
  0
LINE
  5
804
330
A
100
AcDbEntity
  8
寸法線
100
AcDbLine
 10
745.8184398647687
 20
327.1771797035159
 30
0.0
 11
748.8184398647687
 21
327.1771797035159
 31
0.0
  0
SOLID
  5
805
330
A
100
AcDbEntity
  8
寸法線
100
AcDbTrace
 10
725.8184398647687
 20
327.1771797035159
 30
0.0
 11
719.8184398647687
 21
325.6771797035159
 31
0.0
 12
719.8184398647687
 22
328.6771797035159
 32
0.0
 13
721.3184398647687
 23
327.1771797035159
 33
0.0
  0
LINE
  5
806
330
A
100
AcDbEntity
  8
寸法線
100
AcDbLine
 10
725.8184398647687
 20
327.1771797035159
 30
0.0
 11
722.8184398647687
 21
327.1771797035159
 31
0.0
  0
LINE
  5
807
330
A
100
AcDbEntity
  8
寸法線
100
AcDbLine
 10
725.8184398647687
 20
327.1771797035159
 30
0.0
 11
728.7628845211688
 21
327.1771797035159
 31
0.0
  0
LINE
  5
808
330
A
100
AcDbEntity
  8
寸法線
100
AcDbLine
 10
725.8184398647687
 20
327.1771797035159
 30
0.0
 11
742.8739952083686
 21
327.1771797035159
 31
0.0
  0
LINE
  5
809
330
A
100
AcDbEntity
  8
寸法線
100
AcDbLine
 10
745.8184398647687
 20
327.1771797035159
 30
0.0
 11
728.7628845211688
 21
327.1771797035159
 31
0.0
  0
LINE
  5
80A
330
A
100
AcDbEntity
  8
寸法線
100
AcDbLine
 10
745.8184398647687
 20
327.1771797035159
 30
0.0
 11
742.8739952083686
 21
327.1771797035159
 31
0.0
  0
LINE
  5
80B
330
A
100
AcDbEntity
  8
寸法線
100
AcDbLine
 10
725.8184398647687
 20
367.581807992016
 30
0.0
 11
725.8184398647687
 21
326.6771797035159
 31
0.0
  0
LINE
  5
80C
330
A
100
AcDbEntity
  8
寸法線
100
AcDbLine
 10
745.8184398647687
 20
360.081807992016
 30
0.0
 11
745.8184398647687
 21
326.6771797035159
 31
0.0
  0
TEXT
  5
80D
330
A
100
AcDbEntity
  8
寸法線
100
AcDbText
 10
732.2906621929687
 20
329.2355130051159
 30
0.0
 40
5.9972220421
  1
20
100
AcDbText
  0
SOLID
  5
80E
330
A
100
AcDbEntity
  8
寸法線
100
AcDbTrace
 10
1152.267560754669
 20
366.081807992016
 30
0.0
 11
1153.767560754669
 21
360.081807992016
 31
0.0
 12
1150.767560754669
 22
360.081807992016
 32
0.0
 13
1152.267560754669
 23
361.581807992016
 33
0.0
  0
LINE
  5
80F
330
A
100
AcDbEntity
  8
寸法線
100
AcDbLine
 10
1152.267560754669
 20
366.081807992016
 30
0.0
 11
1152.267560754669
 21
363.081807992016
 31
0.0
  0
SOLID
  5
810
330
A
100
AcDbEntity
  8
寸法線
100
AcDbTrace
 10
1152.267560754669
 20
371.0818079920159
 30
0.0
 11
1150.767560754669
 21
377.081807992016
 31
0.0
 12
1153.767560754669
 22
377.081807992016
 32
0.0
 13
1152.267560754669
 23
375.581807992016
 33
0.0
  0
LINE
  5
811
330
A
100
AcDbEntity
  8
寸法線
100
AcDbLine
 10
1152.267560754669
 20
371.0818079920159
 30
0.0
 11
1152.267560754669
 21
374.081807992016
 31
0.0
  0
LINE
  5
812
330
A
100
AcDbEntity
  8
寸法線
100
AcDbLine
 10
1152.267560754669
 20
371.0818079920159
 30
0.0
 11
1152.267560754669
 21
371.0818079920159
 31
0.0
  0
LINE
  5
813
330
A
100
AcDbEntity
  8
寸法線
100
AcDbLine
 10
1152.267560754669
 20
371.0818079920159
 30
0.0
 11
1152.267560754669
 21
366.081807992016
 31
0.0
  0
LINE
  5
814
330
A
100
AcDbEntity
  8
寸法線
100
AcDbLine
 10
1152.267560754669
 20
366.081807992016
 30
0.0
 11
1152.267560754669
 21
371.0818079920159
 31
0.0
  0
LINE
  5
815
330
A
100
AcDbEntity
  8
寸法線
100
AcDbLine
 10
1152.267560754669
 20
366.081807992016
 30
0.0
 11
1152.267560754669
 21
366.081807992016
 31
0.0
  0
LINE
  5
816
330
A
100
AcDbEntity
  8
寸法線
100
AcDbLine
 10
1121.818439864768
 20
371.0818079920159
 30
0.0
 11
1152.767560754669
 21
371.0818079920159
 31
0.0
  0
LINE
  5
817
330
A
100
AcDbEntity
  8
寸法線
100
AcDbLine
 10
1121.818439864768
 20
366.081807992016
 30
0.0
 11
1152.767560754669
 21
366.081807992016
 31
0.0
  0
TEXT
  5
818
330
A
100
AcDbEntity
  8
寸法線
100
AcDbText
 10
1150.209227453169
 20
366.8179191561159
 30
0.0
 40
5.9972220421
  1
5
 50
90.0
100
AcDbText
  0
SOLID
  5
819
330
A
100
AcDbEntity
  8
寸法線
100
AcDbTrace
 10
727.5221485503688
 20
381.5227602471158
 30
0.0
 11
721.5759961276686
 21
383.223722141516
 31
0.0
 12
723.0759961276686
 22
385.8217983528159
 32
0.0
 13
723.6250342332687
 23
383.7727602471158
 33
0.0
  0
LINE
  5
81A
330
A
100
AcDbEntity
  8
寸法線
100
AcDbLine
 10
727.5221485503688
 20
381.5227602471158
 30
0.0
 11
695.7497420272686
 21
399.8665677060159
 31
0.0
  0
TEXT
  5
81B
330
A
100
AcDbEntity
  8
寸法線
100
AcDbText
 10
696.9844642124687
 20
402.0051692639158
 30
0.0
 40
5.9972220421
  1
R50
 50
330.0
100
AcDbText
  0
SOLID
  5
81C
330
A
100
AcDbEntity
  8
寸法線
100
AcDbTrace
 10
1170.302532854669
 20
349.5818079920159
 30
0.0
 11
1171.802532854669
 21
343.5818079920159
 31
0.0
 12
1168.802532854668
 22
343.5818079920159
 32
0.0
 13
1170.302532854669
 23
345.0818079920158
 33
0.0
  0
LINE
  5
81D
330
A
100
AcDbEntity
  8
寸法線
100
AcDbLine
 10
1170.302532854669
 20
349.5818079920159
 30
0.0
 11
1170.302532854669
 21
346.5818079920159
 31
0.0
  0
SOLID
  5
81E
330
A
100
AcDbEntity
  8
寸法線
100
AcDbTrace
 10
1170.302532854669
 20
357.5818079920158
 30
0.0
 11
1168.802532854668
 21
363.581807992016
 31
0.0
 12
1171.802532854669
 22
363.581807992016
 32
0.0
 13
1170.302532854669
 23
362.081807992016
 33
0.0
  0
LINE
  5
81F
330
A
100
AcDbEntity
  8
寸法線
100
AcDbLine
 10
1170.302532854669
 20
357.5818079920158
 30
0.0
 11
1170.302532854669
 21
360.581807992016
 31
0.0
  0
LINE
  5
820
330
A
100
AcDbEntity
  8
寸法線
100
AcDbLine
 10
1170.302532854669
 20
357.5818079920158
 30
0.0
 11
1170.302532854669
 21
357.5818079920158
 31
0.0
  0
LINE
  5
821
330
A
100
AcDbEntity
  8
寸法線
100
AcDbLine
 10
1170.302532854669
 20
357.5818079920158
 30
0.0
 11
1170.302532854669
 21
349.5818079920159
 31
0.0
  0
LINE
  5
822
330
A
100
AcDbEntity
  8
寸法線
100
AcDbLine
 10
1170.302532854669
 20
349.5818079920159
 30
0.0
 11
1170.302532854669
 21
357.5818079920158
 31
0.0
  0
LINE
  5
823
330
A
100
AcDbEntity
  8
寸法線
100
AcDbLine
 10
1170.302532854669
 20
349.5818079920159
 30
0.0
 11
1170.302532854669
 21
349.5818079920159
 31
0.0
  0
LINE
  5
824
330
A
100
AcDbEntity
  8
寸法線
100
AcDbLine
 10
909.3184398647688
 20
357.5818079920158
 30
0.0
 11
1170.802532854668
 21
357.5818079920158
 31
0.0
  0
LINE
  5
825
330
A
100
AcDbEntity
  8
寸法線
100
AcDbLine
 10
1128.126927080669
 20
349.5818079920159
 30
0.0
 11
1170.802532854668
 21
349.5818079920159
 31
0.0
  0
TEXT
  5
826
330
A
100
AcDbEntity
  8
寸法線
100
AcDbText
 10
1168.244199553069
 20
351.8179191561159
 30
0.0
 40
5.9972220421
  1
8
 50
90.0
100
AcDbText
  0
SOLID
  5
827
330
A
100
AcDbEntity
  8
寸法線
100
AcDbTrace
 10
1170.302532577168
 20
379.581807992016
 30
0.0
 11
1171.802532577169
 21
373.581807992016
 31
0.0
 12
1168.802532577168
 22
373.581807992016
 32
0.0
 13
1170.302532577168
 23
375.081807992016
 33
0.0
  0
LINE
  5
828
330
A
100
AcDbEntity
  8
寸法線
100
AcDbLine
 10
1170.302532577168
 20
379.581807992016
 30
0.0
 11
1170.302532577168
 21
376.581807992016
 31
0.0
  0
SOLID
  5
829
330
A
100
AcDbEntity
  8
寸法線
100
AcDbTrace
 10
1170.302532577168
 20
387.581807992016
 30
0.0
 11
1168.802532577168
 21
393.581807992016
 31
0.0
 12
1171.802532577169
 22
393.581807992016
 32
0.0
 13
1170.302532577168
 23
392.081807992016
 33
0.0
  0
LINE
  5
82A
330
A
100
AcDbEntity
  8
寸法線
100
AcDbLine
 10
1170.302532577168
 20
387.581807992016
 30
0.0
 11
1170.302532577168
 21
390.581807992016
 31
0.0
  0
LINE
  5
82B
330
A
100
AcDbEntity
  8
寸法線
100
AcDbLine
 10
1170.302532577168
 20
387.581807992016
 30
0.0
 11
1170.302532577168
 21
387.581807992016
 31
0.0
  0
LINE
  5
82C
330
A
100
AcDbEntity
  8
寸法線
100
AcDbLine
 10
1170.302532577168
 20
387.581807992016
 30
0.0
 11
1170.302532577168
 21
379.581807992016
 31
0.0
  0
LINE
  5
82D
330
A
100
AcDbEntity
  8
寸法線
100
AcDbLine
 10
1170.302532577168
 20
379.581807992016
 30
0.0
 11
1170.302532577168
 21
387.581807992016
 31
0.0
  0
LINE
  5
82E
330
A
100
AcDbEntity
  8
寸法線
100
AcDbLine
 10
1170.302532577168
 20
379.581807992016
 30
0.0
 11
1170.302532577168
 21
379.581807992016
 31
0.0
  0
LINE
  5
82F
330
A
100
AcDbEntity
  8
寸法線
100
AcDbLine
 10
1126.818439864768
 20
387.581807992016
 30
0.0
 11
1170.802532577168
 21
387.581807992016
 31
0.0
  0
LINE
  5
830
330
A
100
AcDbEntity
  8
寸法線
100
AcDbLine
 10
1064.318439864768
 20
379.581807992016
 30
0.0
 11
1170.802532577168
 21
379.581807992016
 31
0.0
  0
TEXT
  5
831
330
A
100
AcDbEntity
  8
寸法線
100
AcDbText
 10
1168.244199275668
 20
380.9756273241159
 30
0.0
 40
5.9972220421
  1
8
 50
90.0
100
AcDbText
  0
SOLID
  5
832
330
A
100
AcDbEntity
  8
寸法線
100
AcDbTrace
 10
1016.845882512469
 20
576.9870521245821
 30
0.0
 11
1014.061831788569
 21
571.4644565783823
 31
0.0
 12
1011.790498675569
 22
573.4243152185822
 32
0.0
 13
1013.906094552169
 23
573.5800524549822
 33
0.0
  0
LINE
  5
833
330
A
100
AcDbEntity
  8
寸法線
100
AcDbLine
 10
1016.845882512469
 20
576.9870521245821
 30
0.0
 11
984.7925479020686
 21
539.8395768977823
 31
0.0
  0
TEXT
  5
834
330
A
100
AcDbEntity
  8
寸法線
100
AcDbText
 10
982.9229043123687
 20
541.4528308595822
 30
0.0
 40
5.9972220421
  1
(R1000)
 50
49.21017103609999
100
AcDbText
  0
SOLID
  5
835
330
A
100
AcDbEntity
  8
寸法線
100
AcDbTrace
 10
581.7424633022688
 20
714.4677409851822
 30
0.0
 11
575.7424633022687
 21
712.9677409851822
 31
0.0
 12
575.7424633022687
 22
715.9677409851822
 32
0.0
 13
577.2424633022687
 23
714.4677409851822
 33
0.0
  0
LINE
  5
836
330
A
100
AcDbEntity
  8
寸法線
100
AcDbLine
 10
581.7424633022688
 20
714.4677409851822
 30
0.0
 11
578.7424633022688
 21
714.4677409851822
 31
0.0
  0
SOLID
  5
837
330
A
100
AcDbEntity
  8
寸法線
100
AcDbTrace
 10
543.7424633022685
 20
714.4677409851822
 30
0.0
 11
549.7424633022688
 21
715.9677409851822
 31
0.0
 12
549.7424633022688
 22
712.9677409851822
 32
0.0
 13
548.2424633022685
 23
714.4677409851822
 33
0.0
  0
LINE
  5
838
330
A
100
AcDbEntity
  8
寸法線
100
AcDbLine
 10
543.7424633022685
 20
714.4677409851822
 30
0.0
 11
546.7424633022686
 21
714.4677409851822
 31
0.0
  0
LINE
  5
839
330
A
100
AcDbEntity
  8
寸法線
100
AcDbLine
 10
543.7424633022685
 20
714.4677409851822
 30
0.0
 11
555.6869079586687
 21
714.4677409851822
 31
0.0
  0
LINE
  5
83A
330
A
100
AcDbEntity
  8
寸法線
100
AcDbLine
 10
543.7424633022685
 20
714.4677409851822
 30
0.0
 11
569.7980186458687
 21
714.4677409851822
 31
0.0
  0
LINE
  5
83B
330
A
100
AcDbEntity
  8
寸法線
100
AcDbLine
 10
581.7424633022688
 20
714.4677409851822
 30
0.0
 11
555.6869079586687
 21
714.4677409851822
 31
0.0
  0
LINE
  5
83C
330
A
100
AcDbEntity
  8
寸法線
100
AcDbLine
 10
581.7424633022688
 20
714.4677409851822
 30
0.0
 11
569.7980186458687
 21
714.4677409851822
 31
0.0
  0
LINE
  5
83D
330
A
100
AcDbEntity
  8
寸法線
100
AcDbLine
 10
543.7424633022685
 20
671.0699825013822
 30
0.0
 11
543.7424633022685
 21
714.9677409851822
 31
0.0
  0
LINE
  5
83E
330
A
100
AcDbEntity
  8
寸法線
100
AcDbLine
 10
581.7424633022688
 20
671.0699825013822
 30
0.0
 11
581.7424633022688
 21
714.9677409851822
 31
0.0
  0
TEXT
  5
83F
330
A
100
AcDbEntity
  8
寸法線
100
AcDbText
 10
559.2146856304688
 20
716.5260742867822
 30
0.0
 40
5.9972220421
  1
38
100
AcDbText
  0
SOLID
  5
840
330
A
100
AcDbEntity
  8
寸法線
100
AcDbTrace
 10
551.1646486510687
 20
471.4289071852822
 30
0.0
 11
548.9519180993688
 21
465.653630265082
 31
0.0
 12
546.4944619664686
 22
467.3743595740821
 32
0.0
 13
548.5835546874688
 23
467.7427229859822
 33
0.0
  0
LINE
  5
841
330
A
100
AcDbEntity
  8
寸法線
100
AcDbLine
 10
551.1646486510687
 20
471.4289071852822
 30
0.0
 11
532.2930567622686
 21
444.4774808453821
 31
0.0
  0
TEXT
  5
842
330
A
100
AcDbEntity
  8
寸法線
100
AcDbText
 10
530.2702063580689
 20
445.8938959469823
 30
0.0
 40
5.9972220421
  1
R50
 50
55.0
100
AcDbText
  0
SOLID
  5
843
330
A
100
AcDbEntity
  8
寸法線
100
AcDbTrace
 10
573.7424633022688
 20
701.2754916871823
 30
0.0
 11
579.7424633022687
 21
702.7754916871823
 31
0.0
 12
579.7424633022687
 22
699.7754916871823
 32
0.0
 13
578.2424633022688
 23
701.2754916871823
 33
0.0
  0
LINE
  5
844
330
A
100
AcDbEntity
  8
寸法線
100
AcDbLine
 10
573.7424633022688
 20
701.2754916871823
 30
0.0
 11
576.7424633022687
 21
701.2754916871823
 31
0.0
  0
SOLID
  5
845
330
A
100
AcDbEntity
  8
寸法線
100
AcDbTrace
 10
551.7424633022685
 20
701.2754916871823
 30
0.0
 11
545.7424633022688
 21
699.7754916871823
 31
0.0
 12
545.7424633022688
 22
702.7754916871823
 32
0.0
 13
547.2424633022686
 23
701.2754916871823
 33
0.0
  0
LINE
  5
846
330
A
100
AcDbEntity
  8
寸法線
100
AcDbLine
 10
551.7424633022685
 20
701.2754916871823
 30
0.0
 11
548.7424633022688
 21
701.2754916871823
 31
0.0
  0
LINE
  5
847
330
A
100
AcDbEntity
  8
寸法線
100
AcDbLine
 10
551.7424633022685
 20
701.2754916871823
 30
0.0
 11
555.6869079586687
 21
701.2754916871823
 31
0.0
  0
LINE
  5
848
330
A
100
AcDbEntity
  8
寸法線
100
AcDbLine
 10
551.7424633022685
 20
701.2754916871823
 30
0.0
 11
569.7980186458687
 21
701.2754916871823
 31
0.0
  0
LINE
  5
849
330
A
100
AcDbEntity
  8
寸法線
100
AcDbLine
 10
573.7424633022688
 20
701.2754916871823
 30
0.0
 11
555.6869079586687
 21
701.2754916871823
 31
0.0
  0
LINE
  5
84A
330
A
100
AcDbEntity
  8
寸法線
100
AcDbLine
 10
573.7424633022688
 20
701.2754916871823
 30
0.0
 11
569.7980186458687
 21
701.2754916871823
 31
0.0
  0
LINE
  5
84B
330
A
100
AcDbEntity
  8
寸法線
100
AcDbLine
 10
551.7424633022685
 20
648.5699825013822
 30
0.0
 11
551.7424633022685
 21
701.7754916871823
 31
0.0
  0
LINE
  5
84C
330
A
100
AcDbEntity
  8
寸法線
100
AcDbLine
 10
573.7424633022688
 20
628.5699825013822
 30
0.0
 11
573.7424633022688
 21
701.7754916871823
 31
0.0
  0
TEXT
  5
84D
330
A
100
AcDbEntity
  8
寸法線
100
AcDbText
 10
559.2146856304688
 20
703.3338249886822
 30
0.0
 40
5.9972220421
  1
22
100
AcDbText
  0
SOLID
  5
84E
330
A
100
AcDbEntity
  8
寸法線
100
AcDbTrace
 10
581.7424633022688
 20
701.2754935944822
 30
0.0
 11
587.7424633022688
 21
702.7754935944821
 31
0.0
 12
587.7424633022688
 22
699.7754935944822
 32
0.0
 13
586.2424633022688
 23
701.2754935944822
 33
0.0
  0
LINE
  5
84F
330
A
100
AcDbEntity
  8
寸法線
100
AcDbLine
 10
581.7424633022688
 20
701.2754935944822
 30
0.0
 11
584.7424633022687
 21
701.2754935944822
 31
0.0
  0
SOLID
  5
850
330
A
100
AcDbEntity
  8
寸法線
100
AcDbTrace
 10
573.7424633022688
 20
701.2754935944822
 30
0.0
 11
567.7424633022687
 21
699.7754935944822
 31
0.0
 12
567.7424633022687
 22
702.7754935944821
 32
0.0
 13
569.2424633022688
 23
701.2754935944822
 33
0.0
  0
LINE
  5
851
330
A
100
AcDbEntity
  8
寸法線
100
AcDbLine
 10
573.7424633022688
 20
701.2754935944822
 30
0.0
 11
570.7424633022688
 21
701.2754935944822
 31
0.0
  0
LINE
  5
852
330
A
100
AcDbEntity
  8
寸法線
100
AcDbLine
 10
573.7424633022688
 20
701.2754935944822
 30
0.0
 11
573.7424633022688
 21
701.2754935944822
 31
0.0
  0
LINE
  5
853
330
A
100
AcDbEntity
  8
寸法線
100
AcDbLine
 10
573.7424633022688
 20
701.2754935944822
 30
0.0
 11
581.7424633022688
 21
701.2754935944822
 31
0.0
  0
LINE
  5
854
330
A
100
AcDbEntity
  8
寸法線
100
AcDbLine
 10
581.7424633022688
 20
701.2754935944822
 30
0.0
 11
573.7424633022688
 21
701.2754935944822
 31
0.0
  0
LINE
  5
855
330
A
100
AcDbEntity
  8
寸法線
100
AcDbLine
 10
581.7424633022688
 20
701.2754935944822
 30
0.0
 11
581.7424633022688
 21
701.2754935944822
 31
0.0
  0
LINE
  5
856
330
A
100
AcDbEntity
  8
寸法線
100
AcDbLine
 10
573.7424633022688
 20
628.5699825013822
 30
0.0
 11
573.7424633022688
 21
701.7754935944822
 31
0.0
  0
LINE
  5
857
330
A
100
AcDbEntity
  8
寸法線
100
AcDbLine
 10
581.7424633022688
 20
671.0699825013822
 30
0.0
 11
581.7424633022688
 21
701.7754935944822
 31
0.0
  0
TEXT
  5
858
330
A
100
AcDbEntity
  8
寸法線
100
AcDbText
 10
575.9785744663687
 20
703.3338268959822
 30
0.0
 40
5.9972220421
  1
8
100
AcDbText
  0
SOLID
  5
859
330
A
100
AcDbEntity
  8
寸法線
100
AcDbTrace
 10
551.7424633022685
 20
701.2754935944822
 30
0.0
 11
557.7424633022688
 21
702.7754935944821
 31
0.0
 12
557.7424633022688
 22
699.7754935944822
 32
0.0
 13
556.2424633022685
 23
701.2754935944822
 33
0.0
  0
LINE
  5
85A
330
A
100
AcDbEntity
  8
寸法線
100
AcDbLine
 10
551.7424633022685
 20
701.2754935944822
 30
0.0
 11
554.7424633022687
 21
701.2754935944822
 31
0.0
  0
SOLID
  5
85B
330
A
100
AcDbEntity
  8
寸法線
100
AcDbTrace
 10
543.7424633022685
 20
701.2754935944822
 30
0.0
 11
537.7424633022688
 21
699.7754935944822
 31
0.0
 12
537.7424633022688
 22
702.7754935944821
 32
0.0
 13
539.2424633022685
 23
701.2754935944822
 33
0.0
  0
LINE
  5
85C
330
A
100
AcDbEntity
  8
寸法線
100
AcDbLine
 10
543.7424633022685
 20
701.2754935944822
 30
0.0
 11
540.7424633022688
 21
701.2754935944822
 31
0.0
  0
LINE
  5
85D
330
A
100
AcDbEntity
  8
寸法線
100
AcDbLine
 10
543.7424633022685
 20
701.2754935944822
 30
0.0
 11
543.7424633022685
 21
701.2754935944822
 31
0.0
  0
LINE
  5
85E
330
A
100
AcDbEntity
  8
寸法線
100
AcDbLine
 10
543.7424633022685
 20
701.2754935944822
 30
0.0
 11
551.7424633022685
 21
701.2754935944822
 31
0.0
  0
LINE
  5
85F
330
A
100
AcDbEntity
  8
寸法線
100
AcDbLine
 10
551.7424633022685
 20
701.2754935944822
 30
0.0
 11
543.7424633022685
 21
701.2754935944822
 31
0.0
  0
LINE
  5
860
330
A
100
AcDbEntity
  8
寸法線
100
AcDbLine
 10
551.7424633022685
 20
701.2754935944822
 30
0.0
 11
551.7424633022685
 21
701.2754935944822
 31
0.0
  0
LINE
  5
861
330
A
100
AcDbEntity
  8
寸法線
100
AcDbLine
 10
543.7424633022685
 20
671.0699825013822
 30
0.0
 11
543.7424633022685
 21
701.7754935944822
 31
0.0
  0
LINE
  5
862
330
A
100
AcDbEntity
  8
寸法線
100
AcDbLine
 10
551.7424633022685
 20
648.5699825013822
 30
0.0
 11
551.7424633022685
 21
701.7754935944822
 31
0.0
  0
TEXT
  5
863
330
A
100
AcDbEntity
  8
寸法線
100
AcDbText
 10
545.9785744663687
 20
703.3338268959822
 30
0.0
 40
5.9972220421
  1
8
100
AcDbText
  0
LINE
  5
864
330
A
100
AcDbEntity
  8
寸法線
100
AcDbLine
 10
729.8184398647687
 20
665.0699825013822
 30
0.0
 11
1088.156321002569
 21
665.0699825013822
 31
0.0
  0
LINE
  5
865
330
A
100
AcDbEntity
  8
寸法線
100
AcDbLine
 10
1120.818439864768
 20
474.0699825013822
 30
0.0
 11
1120.818439864768
 21
632.4078636390822
 31
0.0
  0
ARC
  5
866
330
A
100
AcDbEntity
  8
寸法線
100
AcDbCircle
 10
1120.818439864768
 20
665.0699825013822
 30
0.0
 40
36.6621188622
100
AcDbArc
 50
180.0
 51
206.9279507093
  0
ARC
  5
867
330
A
100
AcDbEntity
  8
寸法線
100
AcDbCircle
 10
1120.818439864768
 20
665.0699825013822
 30
0.0
 40
36.6621188622
100
AcDbArc
 50
247.3410113438
 51
270.0
  0
SOLID
  5
868
330
A
100
AcDbEntity
  8
寸法線
100
AcDbTrace
 10
1084.156321002569
 20
665.0699825013822
 30
0.0
 11
1085.656321002569
 21
659.0699825013822
 31
0.0
 12
1082.656321002569
 22
659.0699825013822
 32
0.0
 13
1084.156321002569
 23
660.5699825013822
 33
0.0
  0
SOLID
  5
869
330
A
100
AcDbEntity
  8
寸法線
100
AcDbTrace
 10
1120.818439864768
 20
628.4078636390822
 30
0.0
 11
1114.818439864768
 21
626.9078636390823
 31
0.0
 12
1114.818439864768
 22
629.9078636390823
 32
0.0
 13
1116.318439864768
 23
628.4078636390822
 33
0.0
  0
ARC
  5
86A
330
A
100
AcDbEntity
  8
寸法線
100
AcDbCircle
 10
1120.818439864768
 20
665.0699825013822
 30
0.0
 40
36.6621188622
100
AcDbArc
 50
256.2495929505
 51
270.0
  0
ARC
  5
86B
330
A
100
AcDbEntity
  8
寸法線
100
AcDbCircle
 10
1120.818439864768
 20
665.0699825013822
 30
0.0
 40
36.6621188622
100
AcDbArc
 50
180.0
 51
193.7504070495
  0
TEXT
  5
86C
330
A
100
AcDbEntity
  8
寸法線
100
AcDbText
 10
1094.159286244468
 20
644.1253316625822
 30
0.0
 40
5.9972220421
  1
90%%d
 50
317.1344810266
100
AcDbText
  0
SOLID
  5
86D
330
A
100
AcDbEntity
  8
寸法線
100
AcDbTrace
 10
565.2424633022688
 20
685.0699825013822
 30
0.0
 11
571.2424633022687
 21
686.5699825013822
 31
0.0
 12
571.2424633022687
 22
683.5699825013822
 32
0.0
 13
569.7424633022688
 23
685.0699825013822
 33
0.0
  0
LINE
  5
86E
330
A
100
AcDbEntity
  8
寸法線
100
AcDbLine
 10
565.2424633022688
 20
685.0699825013822
 30
0.0
 11
568.2424633022687
 21
685.0699825013822
 31
0.0
  0
SOLID
  5
86F
330
A
100
AcDbEntity
  8
寸法線
100
AcDbTrace
 10
560.2424633022685
 20
685.0699825013822
 30
0.0
 11
554.2424633022688
 21
683.5699825013822
 31
0.0
 12
554.2424633022688
 22
686.5699825013822
 32
0.0
 13
555.7424633022685
 23
685.0699825013822
 33
0.0
  0
LINE
  5
870
330
A
100
AcDbEntity
  8
寸法線
100
AcDbLine
 10
560.2424633022685
 20
685.0699825013822
 30
0.0
 11
557.2424633022688
 21
685.0699825013822
 31
0.0
  0
LINE
  5
871
330
A
100
AcDbEntity
  8
寸法線
100
AcDbLine
 10
560.2424633022685
 20
685.0699825013822
 30
0.0
 11
560.2424633022685
 21
685.0699825013822
 31
0.0
  0
LINE
  5
872
330
A
100
AcDbEntity
  8
寸法線
100
AcDbLine
 10
560.2424633022685
 20
685.0699825013822
 30
0.0
 11
565.2424633022688
 21
685.0699825013822
 31
0.0
  0
LINE
  5
873
330
A
100
AcDbEntity
  8
寸法線
100
AcDbLine
 10
565.2424633022688
 20
685.0699825013822
 30
0.0
 11
560.2424633022685
 21
685.0699825013822
 31
0.0
  0
LINE
  5
874
330
A
100
AcDbEntity
  8
寸法線
100
AcDbLine
 10
565.2424633022688
 20
685.0699825013822
 30
0.0
 11
565.2424633022688
 21
685.0699825013822
 31
0.0
  0
LINE
  5
875
330
A
100
AcDbEntity
  8
寸法線
100
AcDbLine
 10
560.2424633022685
 20
666.0699825013822
 30
0.0
 11
560.2424633022685
 21
685.5699825013822
 31
0.0
  0
LINE
  5
876
330
A
100
AcDbEntity
  8
寸法線
100
AcDbLine
 10
565.2424633022688
 20
666.0699825013822
 30
0.0
 11
565.2424633022688
 21
685.5699825013822
 31
0.0
  0
TEXT
  5
877
330
A
100
AcDbEntity
  8
寸法線
100
AcDbText
 10
560.9785744663687
 20
687.1283158028822
 30
0.0
 40
5.9972220421
  1
5
100
AcDbText
  0
SOLID
  5
878
330
A
100
AcDbEntity
  8
寸法線
100
AcDbTrace
 10
601.7424633022687
 20
600.0699825013822
 30
0.0
 11
603.2424633022688
 21
594.0699825013822
 31
0.0
 12
600.2424633022688
 22
594.0699825013822
 32
0.0
 13
601.7424633022687
 23
595.5699825013822
 33
0.0
  0
LINE
  5
879
330
A
100
AcDbEntity
  8
寸法線
100
AcDbLine
 10
601.7424633022687
 20
600.0699825013822
 30
0.0
 11
601.7424633022687
 21
597.0699825013822
 31
0.0
  0
SOLID
  5
87A
330
A
100
AcDbEntity
  8
寸法線
100
AcDbTrace
 10
601.7424633022687
 20
620.0699825013822
 30
0.0
 11
600.2424633022688
 21
626.0699825013822
 31
0.0
 12
603.2424633022688
 22
626.0699825013822
 32
0.0
 13
601.7424633022687
 23
624.5699825013822
 33
0.0
  0
LINE
  5
87B
330
A
100
AcDbEntity
  8
寸法線
100
AcDbLine
 10
601.7424633022687
 20
620.0699825013822
 30
0.0
 11
601.7424633022687
 21
623.0699825013822
 31
0.0
  0
LINE
  5
87C
330
A
100
AcDbEntity
  8
寸法線
100
AcDbLine
 10
601.7424633022687
 20
620.0699825013822
 30
0.0
 11
601.7424633022687
 21
603.0144271576822
 31
0.0
  0
LINE
  5
87D
330
A
100
AcDbEntity
  8
寸法線
100
AcDbLine
 10
601.7424633022687
 20
620.0699825013822
 30
0.0
 11
601.7424633022687
 21
617.1255378449822
 31
0.0
  0
LINE
  5
87E
330
A
100
AcDbEntity
  8
寸法線
100
AcDbLine
 10
601.7424633022687
 20
600.0699825013822
 30
0.0
 11
601.7424633022687
 21
603.0144271576822
 31
0.0
  0
LINE
  5
87F
330
A
100
AcDbEntity
  8
寸法線
100
AcDbLine
 10
601.7424633022687
 20
600.0699825013822
 30
0.0
 11
601.7424633022687
 21
617.1255378449822
 31
0.0
  0
LINE
  5
880
330
A
100
AcDbEntity
  8
寸法線
100
AcDbLine
 10
582.2424633022688
 20
620.0699825013822
 30
0.0
 11
602.2424633022687
 21
620.0699825013822
 31
0.0
  0
LINE
  5
881
330
A
100
AcDbEntity
  8
寸法線
100
AcDbLine
 10
560.2424633022685
 20
600.0699825013822
 30
0.0
 11
602.2424633022687
 21
600.0699825013822
 31
0.0
  0
TEXT
  5
882
330
A
100
AcDbEntity
  8
寸法線
100
AcDbText
 10
599.6841300007687
 20
606.5422048294822
 30
0.0
 40
5.9972220421
  1
20
 50
90.0
100
AcDbText
  0
SOLID
  5
883
330
A
100
AcDbEntity
  8
寸法線
100
AcDbTrace
 10
601.7424633022687
 20
580.0699825013822
 30
0.0
 11
603.2424633022688
 21
574.0699825013822
 31
0.0
 12
600.2424633022688
 22
574.0699825013822
 32
0.0
 13
601.7424633022687
 23
575.5699825013822
 33
0.0
  0
LINE
  5
884
330
A
100
AcDbEntity
  8
寸法線
100
AcDbLine
 10
601.7424633022687
 20
580.0699825013822
 30
0.0
 11
601.7424633022687
 21
577.0699825013822
 31
0.0
  0
SOLID
  5
885
330
A
100
AcDbEntity
  8
寸法線
100
AcDbTrace
 10
601.7424633022687
 20
600.0699825013822
 30
0.0
 11
600.2424633022688
 21
606.0699825013822
 31
0.0
 12
603.2424633022688
 22
606.0699825013822
 32
0.0
 13
601.7424633022687
 23
604.5699825013822
 33
0.0
  0
LINE
  5
886
330
A
100
AcDbEntity
  8
寸法線
100
AcDbLine
 10
601.7424633022687
 20
600.0699825013822
 30
0.0
 11
601.7424633022687
 21
603.0699825013822
 31
0.0
  0
LINE
  5
887
330
A
100
AcDbEntity
  8
寸法線
100
AcDbLine
 10
601.7424633022687
 20
600.0699825013822
 30
0.0
 11
601.7424633022687
 21
583.0144271576822
 31
0.0
  0
LINE
  5
888
330
A
100
AcDbEntity
  8
寸法線
100
AcDbLine
 10
601.7424633022687
 20
600.0699825013822
 30
0.0
 11
601.7424633022687
 21
597.1255378449821
 31
0.0
  0
LINE
  5
889
330
A
100
AcDbEntity
  8
寸法線
100
AcDbLine
 10
601.7424633022687
 20
580.0699825013822
 30
0.0
 11
601.7424633022687
 21
583.0144271576822
 31
0.0
  0
LINE
  5
88A
330
A
100
AcDbEntity
  8
寸法線
100
AcDbLine
 10
601.7424633022687
 20
580.0699825013822
 30
0.0
 11
601.7424633022687
 21
597.1255378449821
 31
0.0
  0
LINE
  5
88B
330
A
100
AcDbEntity
  8
寸法線
100
AcDbLine
 10
560.2424633022685
 20
600.0699825013822
 30
0.0
 11
602.2424633022687
 21
600.0699825013822
 31
0.0
  0
LINE
  5
88C
330
A
100
AcDbEntity
  8
寸法線
100
AcDbLine
 10
582.2424633022688
 20
580.0699825013822
 30
0.0
 11
602.2424633022687
 21
580.0699825013822
 31
0.0
  0
TEXT
  5
88D
330
A
100
AcDbEntity
  8
寸法線
100
AcDbText
 10
599.6841300007687
 20
586.5422048294822
 30
0.0
 40
5.9972220421
  1
20
 50
90.0
100
AcDbText
  0
SOLID
  5
88E
330
A
100
AcDbEntity
  8
寸法線
100
AcDbTrace
 10
601.7424633022687
 20
490.0699825013822
 30
0.0
 11
600.2424633022688
 21
496.0699825013822
 31
0.0
 12
603.2424633022688
 22
496.0699825013822
 32
0.0
 13
601.7424633022687
 23
494.5699825013822
 33
0.0
  0
LINE
  5
88F
330
A
100
AcDbEntity
  8
寸法線
100
AcDbLine
 10
601.7424633022687
 20
490.0699825013822
 30
0.0
 11
601.7424633022687
 21
493.0699825013822
 31
0.0
  0
SOLID
  5
890
330
A
100
AcDbEntity
  8
寸法線
100
AcDbTrace
 10
601.7424633022687
 20
580.0699825013822
 30
0.0
 11
603.2424633022688
 21
574.0699825013822
 31
0.0
 12
600.2424633022688
 22
574.0699825013822
 32
0.0
 13
601.7424633022687
 23
575.5699825013822
 33
0.0
  0
LINE
  5
891
330
A
100
AcDbEntity
  8
寸法線
100
AcDbLine
 10
601.7424633022687
 20
580.0699825013822
 30
0.0
 11
601.7424633022687
 21
577.0699825013822
 31
0.0
  0
LINE
  5
892
330
A
100
AcDbEntity
  8
寸法線
100
AcDbLine
 10
601.7424633022687
 20
580.0699825013822
 30
0.0
 11
601.7424633022687
 21
528.0144271576822
 31
0.0
  0
LINE
  5
893
330
A
100
AcDbEntity
  8
寸法線
100
AcDbLine
 10
601.7424633022687
 20
580.0699825013822
 30
0.0
 11
601.7424633022687
 21
542.1255378449822
 31
0.0
  0
LINE
  5
894
330
A
100
AcDbEntity
  8
寸法線
100
AcDbLine
 10
601.7424633022687
 20
490.0699825013822
 30
0.0
 11
601.7424633022687
 21
528.0144271576822
 31
0.0
  0
LINE
  5
895
330
A
100
AcDbEntity
  8
寸法線
100
AcDbLine
 10
601.7424633022687
 20
490.0699825013822
 30
0.0
 11
601.7424633022687
 21
542.1255378449822
 31
0.0
  0
LINE
  5
896
330
A
100
AcDbEntity
  8
寸法線
100
AcDbLine
 10
582.2424633022688
 20
580.0699825013822
 30
0.0
 11
602.2424633022687
 21
580.0699825013822
 31
0.0
  0
LINE
  5
897
330
A
100
AcDbEntity
  8
寸法線
100
AcDbLine
 10
571.2424633022687
 20
490.0699825013822
 30
0.0
 11
602.2424633022687
 21
490.0699825013822
 31
0.0
  0
TEXT
  5
898
330
A
100
AcDbEntity
  8
寸法線
100
AcDbText
 10
599.6841300007687
 20
531.5422048294822
 30
0.0
 40
5.9972220421
  1
90
 50
90.0
100
AcDbText
  0
SOLID
  5
899
330
A
100
AcDbEntity
  8
寸法線
100
AcDbTrace
 10
601.7424633022687
 20
620.0699825013822
 30
0.0
 11
603.2424633022688
 21
614.0699825013822
 31
0.0
 12
600.2424633022688
 22
614.0699825013822
 32
0.0
 13
601.7424633022687
 23
615.5699825013822
 33
0.0
  0
LINE
  5
89A
330
A
100
AcDbEntity
  8
寸法線
100
AcDbLine
 10
601.7424633022687
 20
620.0699825013822
 30
0.0
 11
601.7424633022687
 21
617.0699825013822
 31
0.0
  0
SOLID
  5
89B
330
A
100
AcDbEntity
  8
寸法線
100
AcDbTrace
 10
601.7424633022687
 20
640.0699825013822
 30
0.0
 11
600.2424633022688
 21
646.0699825013822
 31
0.0
 12
603.2424633022688
 22
646.0699825013822
 32
0.0
 13
601.7424633022687
 23
644.5699825013822
 33
0.0
  0
LINE
  5
89C
330
A
100
AcDbEntity
  8
寸法線
100
AcDbLine
 10
601.7424633022687
 20
640.0699825013822
 30
0.0
 11
601.7424633022687
 21
643.0699825013822
 31
0.0
  0
LINE
  5
89D
330
A
100
AcDbEntity
  8
寸法線
100
AcDbLine
 10
601.7424633022687
 20
640.0699825013822
 30
0.0
 11
601.7424633022687
 21
623.0144271576822
 31
0.0
  0
LINE
  5
89E
330
A
100
AcDbEntity
  8
寸法線
100
AcDbLine
 10
601.7424633022687
 20
640.0699825013822
 30
0.0
 11
601.7424633022687
 21
637.1255378449822
 31
0.0
  0
LINE
  5
89F
330
A
100
AcDbEntity
  8
寸法線
100
AcDbLine
 10
601.7424633022687
 20
620.0699825013822
 30
0.0
 11
601.7424633022687
 21
623.0144271576822
 31
0.0
  0
LINE
  5
8A0
330
A
100
AcDbEntity
  8
寸法線
100
AcDbLine
 10
601.7424633022687
 20
620.0699825013822
 30
0.0
 11
601.7424633022687
 21
637.1255378449822
 31
0.0
  0
LINE
  5
8A1
330
A
100
AcDbEntity
  8
寸法線
100
AcDbLine
 10
560.2424633022685
 20
640.0699825013822
 30
0.0
 11
602.2424633022687
 21
640.0699825013822
 31
0.0
  0
LINE
  5
8A2
330
A
100
AcDbEntity
  8
寸法線
100
AcDbLine
 10
582.2424633022688
 20
620.0699825013822
 30
0.0
 11
602.2424633022687
 21
620.0699825013822
 31
0.0
  0
TEXT
  5
8A3
330
A
100
AcDbEntity
  8
寸法線
100
AcDbText
 10
599.6841300007687
 20
626.5422048294822
 30
0.0
 40
5.9972220421
  1
20
 50
90.0
100
AcDbText
  0
SOLID
  5
8A4
330
A
100
AcDbEntity
  8
寸法線
100
AcDbTrace
 10
1170.302532577168
 20
357.5818079920158
 30
0.0
 11
1171.802532577169
 21
351.5818079920159
 31
0.0
 12
1168.802532577168
 22
351.5818079920159
 32
0.0
 13
1170.302532577168
 23
353.0818079920158
 33
0.0
  0
LINE
  5
8A5
330
A
100
AcDbEntity
  8
寸法線
100
AcDbLine
 10
1170.302532577168
 20
357.5818079920158
 30
0.0
 11
1170.302532577168
 21
354.5818079920159
 31
0.0
  0
SOLID
  5
8A6
330
A
100
AcDbEntity
  8
寸法線
100
AcDbTrace
 10
1170.302532577168
 20
379.581807992016
 30
0.0
 11
1168.802532577168
 21
385.581807992016
 31
0.0
 12
1171.802532577169
 22
385.581807992016
 32
0.0
 13
1170.302532577168
 23
384.081807992016
 33
0.0
  0
LINE
  5
8A7
330
A
100
AcDbEntity
  8
寸法線
100
AcDbLine
 10
1170.302532577168
 20
379.581807992016
 30
0.0
 11
1170.302532577168
 21
382.581807992016
 31
0.0
  0
LINE
  5
8A8
330
A
100
AcDbEntity
  8
寸法線
100
AcDbLine
 10
1170.302532577168
 20
379.581807992016
 30
0.0
 11
1170.302532577168
 21
361.5262526484159
 31
0.0
  0
LINE
  5
8A9
330
A
100
AcDbEntity
  8
寸法線
100
AcDbLine
 10
1170.302532577168
 20
379.581807992016
 30
0.0
 11
1170.302532577168
 21
375.6373633356158
 31
0.0
  0
LINE
  5
8AA
330
A
100
AcDbEntity
  8
寸法線
100
AcDbLine
 10
1170.302532577168
 20
357.5818079920158
 30
0.0
 11
1170.302532577168
 21
361.5262526484159
 31
0.0
  0
LINE
  5
8AB
330
A
100
AcDbEntity
  8
寸法線
100
AcDbLine
 10
1170.302532577168
 20
357.5818079920158
 30
0.0
 11
1170.302532577168
 21
375.6373633356158
 31
0.0
  0
LINE
  5
8AC
330
A
100
AcDbEntity
  8
寸法線
100
AcDbLine
 10
1064.318439864768
 20
379.581807992016
 30
0.0
 11
1170.802532577168
 21
379.581807992016
 31
0.0
  0
LINE
  5
8AD
330
A
100
AcDbEntity
  8
寸法線
100
AcDbLine
 10
909.3184398647688
 20
357.5818079920158
 30
0.0
 11
1170.802532577168
 21
357.5818079920158
 31
0.0
  0
TEXT
  5
8AE
330
A
100
AcDbEntity
  8
寸法線
100
AcDbText
 10
1168.244199275668
 20
365.0540303202159
 30
0.0
 40
5.9972220421
  1
22
 50
90.0
100
AcDbText
  0
SOLID
  5
8AF
330
A
100
AcDbEntity
  8
寸法線
100
AcDbTrace
 10
900.8184398647687
 20
327.1771797035159
 30
0.0
 11
894.8184398647686
 21
325.6771797035159
 31
0.0
 12
894.8184398647686
 22
328.6771797035159
 32
0.0
 13
896.3184398647687
 23
327.1771797035159
 33
0.0
  0
LINE
  5
8B0
330
A
100
AcDbEntity
  8
寸法線
100
AcDbLine
 10
900.8184398647687
 20
327.1771797035159
 30
0.0
 11
897.8184398647687
 21
327.1771797035159
 31
0.0
  0
SOLID
  5
8B1
330
A
100
AcDbEntity
  8
寸法線
100
AcDbTrace
 10
745.8184398647687
 20
327.1771797035159
 30
0.0
 11
751.8184398647687
 21
328.6771797035159
 31
0.0
 12
751.8184398647687
 22
325.6771797035159
 32
0.0
 13
750.3184398647687
 23
327.1771797035159
 33
0.0
  0
LINE
  5
8B2
330
A
100
AcDbEntity
  8
寸法線
100
AcDbLine
 10
745.8184398647687
 20
327.1771797035159
 30
0.0
 11
748.8184398647687
 21
327.1771797035159
 31
0.0
  0
LINE
  5
8B3
330
A
100
AcDbEntity
  8
寸法線
100
AcDbLine
 10
745.8184398647687
 20
327.1771797035159
 30
0.0
 11
814.4989956852686
 21
327.1771797035159
 31
0.0
  0
LINE
  5
8B4
330
A
100
AcDbEntity
  8
寸法線
100
AcDbLine
 10
745.8184398647687
 20
327.1771797035159
 30
0.0
 11
832.1378840443689
 21
327.1771797035159
 31
0.0
  0
LINE
  5
8B5
330
A
100
AcDbEntity
  8
寸法線
100
AcDbLine
 10
900.8184398647687
 20
327.1771797035159
 30
0.0
 11
814.4989956852686
 21
327.1771797035159
 31
0.0
  0
LINE
  5
8B6
330
A
100
AcDbEntity
  8
寸法線
100
AcDbLine
 10
900.8184398647687
 20
327.1771797035159
 30
0.0
 11
832.1378840443689
 21
327.1771797035159
 31
0.0
  0
LINE
  5
8B7
330
A
100
AcDbEntity
  8
寸法線
100
AcDbLine
 10
745.8184398647687
 20
360.081807992016
 30
0.0
 11
745.8184398647687
 21
326.6771797035159
 31
0.0
  0
LINE
  5
8B8
330
A
100
AcDbEntity
  8
寸法線
100
AcDbLine
 10
900.8184398647687
 20
349.0818079920158
 30
0.0
 11
900.8184398647687
 21
326.6771797035159
 31
0.0
  0
TEXT
  5
8B9
330
A
100
AcDbEntity
  8
寸法線
100
AcDbText
 10
818.0267733570687
 20
329.2355130051159
 30
0.0
 40
5.9972220421
  1
155
100
AcDbText
  0
SOLID
  5
8BA
330
A
100
AcDbEntity
  8
寸法線
100
AcDbTrace
 10
1051.238317523274
 20
382.6268825948868
 30
0.0
 11
1045.166543408417
 21
383.8031304846976
 31
0.0
 12
1046.434398193679
 22
386.5220538458482
 32
0.0
 13
1047.159932481623
 23
384.5286647726416
 33
0.0
  0
LINE
  5
8BB
330
A
100
AcDbEntity
  8
寸法線
100
AcDbLine
 10
1051.238317523274
 20
382.6268825948869
 30
0.0
 11
960.4989552910996
 21
424.9393420997694
 31
0.0
  0
TEXT
  5
8BC
330
A
100
AcDbEntity
  8
寸法線
100
AcDbText
 10
961.5425875783552
 20
427.1774187622396
 30
0.0
 40
5.9972220421
  1
3-Φ6穴　皿Φ11
 50
335.0
100
AcDbText
  0
SOLID
  5
8BD
330
A
100
AcDbEntity
  8
寸法線
100
AcDbTrace
 10
1125.818439864768
 20
700.9256152832823
 30
0.0
 11
1119.818439864769
 21
699.4256152832823
 31
0.0
 12
1119.818439864769
 22
702.4256152832824
 32
0.0
 13
1121.318439864768
 23
700.9256152832823
 33
0.0
  0
LINE
  5
8BE
330
A
100
AcDbEntity
  8
寸法線
100
AcDbLine
 10
1125.818439864768
 20
700.9256152832823
 30
0.0
 11
1122.818439864768
 21
700.9256152832823
 31
0.0
  0
SOLID
  5
8BF
330
A
100
AcDbEntity
  8
寸法線
100
AcDbTrace
 10
725.8184398647687
 20
700.9256152832823
 30
0.0
 11
731.8184398647687
 21
702.4256152832824
 31
0.0
 12
731.8184398647687
 22
699.4256152832823
 32
0.0
 13
730.3184398647687
 23
700.9256152832823
 33
0.0
  0
LINE
  5
8C0
330
A
100
AcDbEntity
  8
寸法線
100
AcDbLine
 10
725.8184398647687
 20
700.9256152832823
 30
0.0
 11
728.8184398647687
 21
700.9256152832823
 31
0.0
  0
LINE
  5
8C1
330
A
100
AcDbEntity
  8
寸法線
100
AcDbLine
 10
725.8184398647687
 20
700.9256152832823
 30
0.0
 11
899.3601073261688
 21
700.9256152832823
 31
0.0
  0
LINE
  5
8C2
330
A
100
AcDbEntity
  8
寸法線
100
AcDbLine
 10
725.8184398647687
 20
700.9256152832823
 30
0.0
 11
952.2767724033686
 21
700.9256152832823
 31
0.0
  0
LINE
  5
8C3
330
A
100
AcDbEntity
  8
寸法線
100
AcDbLine
 10
1125.818439864768
 20
700.9256152832823
 30
0.0
 11
899.3601073261688
 21
700.9256152832823
 31
0.0
  0
LINE
  5
8C4
330
A
100
AcDbEntity
  8
寸法線
100
AcDbLine
 10
1125.818439864768
 20
700.9256152832823
 30
0.0
 11
952.2767724033686
 21
700.9256152832823
 31
0.0
  0
LINE
  5
8C5
330
A
100
AcDbEntity
  8
寸法線
100
AcDbLine
 10
725.8184398647687
 20
671.0699825013822
 30
0.0
 11
725.8184398647687
 21
701.4256152832823
 31
0.0
  0
LINE
  5
8C6
330
A
100
AcDbEntity
  8
寸法線
100
AcDbLine
 10
1125.818439864768
 20
666.5699825013822
 30
0.0
 11
1125.818439864768
 21
701.4256152832823
 31
0.0
  0
TEXT
  5
8C7
330
A
100
AcDbEntity
  8
寸法線
100
AcDbText
 10
902.8878849979687
 20
702.9839485848822
 30
0.0
 40
5.9972220421
  1
400（天板側）
100
AcDbText
  0
SOLID
  5
8C8
330
A
100
AcDbEntity
  8
寸法線
100
AcDbTrace
 10
1160.786473296169
 20
470.0699825013822
 30
0.0
 11
1159.286473296169
 21
476.0699825013822
 31
0.0
 12
1162.286473296169
 22
476.0699825013822
 32
0.0
 13
1160.786473296169
 23
474.5699825013822
 33
0.0
  0
LINE
  5
8C9
330
A
100
AcDbEntity
  8
寸法線
100
AcDbLine
 10
1160.786473296169
 20
470.0699825013822
 30
0.0
 11
1160.786473296169
 21
473.0699825013822
 31
0.0
  0
SOLID
  5
8CA
330
A
100
AcDbEntity
  8
寸法線
100
AcDbTrace
 10
1160.786473296169
 20
670.0699825013822
 30
0.0
 11
1162.286473296169
 21
664.0699825013822
 31
0.0
 12
1159.286473296169
 22
664.0699825013822
 32
0.0
 13
1160.786473296169
 23
665.5699825013822
 33
0.0
  0
LINE
  5
8CB
330
A
100
AcDbEntity
  8
寸法線
100
AcDbLine
 10
1160.786473296169
 20
670.0699825013822
 30
0.0
 11
1160.786473296169
 21
667.0699825013822
 31
0.0
  0
LINE
  5
8CC
330
A
100
AcDbEntity
  8
寸法線
100
AcDbLine
 10
1160.786473296169
 20
670.0699825013822
 30
0.0
 11
1160.786473296169
 21
547.1394276345822
 31
0.0
  0
LINE
  5
8CD
330
A
100
AcDbEntity
  8
寸法線
100
AcDbLine
 10
1160.786473296169
 20
670.0699825013822
 30
0.0
 11
1160.786473296169
 21
593.0005373681821
 31
0.0
  0
LINE
  5
8CE
330
A
100
AcDbEntity
  8
寸法線
100
AcDbLine
 10
1160.786473296169
 20
470.0699825013822
 30
0.0
 11
1160.786473296169
 21
547.1394276345822
 31
0.0
  0
LINE
  5
8CF
330
A
100
AcDbEntity
  8
寸法線
100
AcDbLine
 10
1160.786473296169
 20
470.0699825013822
 30
0.0
 11
1160.786473296169
 21
593.0005373681821
 31
0.0
  0
LINE
  5
8D0
330
A
100
AcDbEntity
  8
寸法線
100
AcDbLine
 10
1122.318439864768
 20
670.0699825013822
 30
0.0
 11
1161.286473296169
 21
670.0699825013822
 31
0.0
  0
LINE
  5
8D1
330
A
100
AcDbEntity
  8
寸法線
100
AcDbLine
 10
1127.247044585268
 20
470.0699825013822
 30
0.0
 11
1161.286473296169
 21
470.0699825013822
 31
0.0
  0
TEXT
  5
8D2
330
A
100
AcDbEntity
  8
寸法線
100
AcDbText
 10
1158.728139994669
 20
550.6672053063822
 30
0.0
 40
5.9972220421
  1
200（壁側）
 50
90.0
100
AcDbText
  0
SOLID
  5
8D3
330
A
100
AcDbEntity
  8
寸法線
100
AcDbTrace
 10
1183.134823226568
 20
349.5818079920159
 30
0.0
 11
1181.634823226568
 21
355.5818079920158
 31
0.0
 12
1184.634823226568
 22
355.5818079920158
 32
0.0
 13
1183.134823226568
 23
354.0818079920159
 33
0.0
  0
LINE
  5
8D4
330
A
100
AcDbEntity
  8
寸法線
100
AcDbLine
 10
1183.134823226568
 20
349.5818079920159
 30
0.0
 11
1183.134823226568
 21
352.5818079920159
 31
0.0
  0
SOLID
  5
8D5
330
A
100
AcDbEntity
  8
寸法線
100
AcDbTrace
 10
1183.134823226568
 20
387.581807992016
 30
0.0
 11
1184.634823226568
 21
381.5818079920159
 31
0.0
 12
1181.634823226568
 22
381.5818079920159
 32
0.0
 13
1183.134823226568
 23
383.081807992016
 33
0.0
  0
LINE
  5
8D6
330
A
100
AcDbEntity
  8
寸法線
100
AcDbLine
 10
1183.134823226568
 20
387.581807992016
 30
0.0
 11
1183.134823226568
 21
384.581807992016
 31
0.0
  0
LINE
  5
8D7
330
A
100
AcDbEntity
  8
寸法線
100
AcDbLine
 10
1183.134823226568
 20
387.581807992016
 30
0.0
 11
1183.134823226568
 21
361.5262526484159
 31
0.0
  0
LINE
  5
8D8
330
A
100
AcDbEntity
  8
寸法線
100
AcDbLine
 10
1183.134823226568
 20
387.581807992016
 30
0.0
 11
1183.134823226568
 21
375.6373633356158
 31
0.0
  0
LINE
  5
8D9
330
A
100
AcDbEntity
  8
寸法線
100
AcDbLine
 10
1183.134823226568
 20
349.5818079920159
 30
0.0
 11
1183.134823226568
 21
361.5262526484159
 31
0.0
  0
LINE
  5
8DA
330
A
100
AcDbEntity
  8
寸法線
100
AcDbLine
 10
1183.134823226568
 20
349.5818079920159
 30
0.0
 11
1183.134823226568
 21
375.6373633356158
 31
0.0
  0
LINE
  5
8DB
330
A
100
AcDbEntity
  8
寸法線
100
AcDbLine
 10
1126.818439864768
 20
387.581807992016
 30
0.0
 11
1183.634823226568
 21
387.581807992016
 31
0.0
  0
LINE
  5
8DC
330
A
100
AcDbEntity
  8
寸法線
100
AcDbLine
 10
1126.818439864768
 20
349.5818079920159
 30
0.0
 11
1183.634823226568
 21
349.5818079920159
 31
0.0
  0
TEXT
  5
8DD
330
A
100
AcDbEntity
  8
寸法線
100
AcDbText
 10
1181.076489925069
 20
365.0540303202159
 30
0.0
 40
5.9972220421
  1
38
 50
90.0
100
AcDbText
  0
SOLID
  5
8DE
330
A
100
AcDbEntity
  8
寸法線
100
AcDbTrace
 10
705.0684398647687
 20
665.0699825013822
 30
0.0
 11
706.5684398647687
 21
659.0699825013822
 31
0.0
 12
703.5684398647687
 22
659.0699825013822
 32
0.0
 13
705.0684398647687
 23
660.5699825013822
 33
0.0
  0
LINE
  5
8DF
330
A
100
AcDbEntity
  8
寸法線
100
AcDbLine
 10
705.0684398647687
 20
665.0699825013822
 30
0.0
 11
705.0684398647687
 21
662.0699825013822
 31
0.0
  0
SOLID
  5
8E0
330
A
100
AcDbEntity
  8
寸法線
100
AcDbTrace
 10
705.0684398647687
 20
510.0699825013822
 30
0.0
 11
703.5684398647687
 21
516.0699825013822
 31
0.0
 12
706.5684398647687
 22
516.0699825013822
 32
0.0
 13
705.0684398647687
 23
514.5699825013822
 33
0.0
  0
LINE
  5
8E1
330
A
100
AcDbEntity
  8
寸法線
100
AcDbLine
 10
705.0684398647687
 20
510.0699825013822
 30
0.0
 11
705.0684398647687
 21
513.0699825013822
 31
0.0
  0
LINE
  5
8E2
330
A
100
AcDbEntity
  8
寸法線
100
AcDbLine
 10
705.0684398647687
 20
510.0699825013822
 30
0.0
 11
705.0684398647687
 21
568.1672053063822
 31
0.0
  0
LINE
  5
8E3
330
A
100
AcDbEntity
  8
寸法線
100
AcDbLine
 10
705.0684398647687
 20
510.0699825013822
 30
0.0
 11
705.0684398647687
 21
606.9727596962823
 31
0.0
  0
LINE
  5
8E4
330
A
100
AcDbEntity
  8
寸法線
100
AcDbLine
 10
705.0684398647687
 20
665.0699825013822
 30
0.0
 11
705.0684398647687
 21
568.1672053063822
 31
0.0
  0
LINE
  5
8E5
330
A
100
AcDbEntity
  8
寸法線
100
AcDbLine
 10
705.0684398647687
 20
665.0699825013822
 30
0.0
 11
705.0684398647687
 21
606.9727596962823
 31
0.0
  0
LINE
  5
8E6
330
A
100
AcDbEntity
  8
寸法線
100
AcDbLine
 10
1119.818439864769
 20
510.0699825013822
 30
0.0
 11
704.5684398647686
 21
510.0699825013822
 31
0.0
  0
LINE
  5
8E7
330
A
100
AcDbEntity
  8
寸法線
100
AcDbLine
 10
724.0684398647687
 20
665.0699825013822
 30
0.0
 11
704.5684398647686
 21
665.0699825013822
 31
0.0
  0
TEXT
  5
8E8
330
A
100
AcDbEntity
  8
寸法線
100
AcDbText
 10
703.0101065632687
 20
571.6949829781822
 30
0.0
 40
5.9972220421
  1
補強(155)
 50
90.0
100
AcDbText
  0
SOLID
  5
8E9
330
A
100
AcDbEntity
  8
寸法線
100
AcDbTrace
 10
823.2872863073687
 20
450.0699825013822
 30
0.0
 11
829.2872863073688
 21
451.5699825013822
 31
0.0
 12
829.2872863073688
 22
448.5699825013822
 32
0.0
 13
827.7872863073687
 23
450.0699825013822
 33
0.0
  0
LINE
  5
8EA
330
A
100
AcDbEntity
  8
寸法線
100
AcDbLine
 10
823.2872863073687
 20
450.0699825013822
 30
0.0
 11
826.2872863073686
 21
450.0699825013822
 31
0.0
  0
SOLID
  5
8EB
330
A
100
AcDbEntity
  8
寸法線
100
AcDbTrace
 10
1120.818439864768
 20
450.0699825013822
 30
0.0
 11
1114.818439864768
 21
448.5699825013822
 31
0.0
 12
1114.818439864768
 22
451.5699825013822
 32
0.0
 13
1116.318439864768
 23
450.0699825013822
 33
0.0
  0
LINE
  5
8EC
330
A
100
AcDbEntity
  8
寸法線
100
AcDbLine
 10
1120.818439864768
 20
450.0699825013822
 30
0.0
 11
1117.818439864768
 21
450.0699825013822
 31
0.0
  0
LINE
  5
8ED
330
A
100
AcDbEntity
  8
寸法線
100
AcDbLine
 10
1120.818439864768
 20
450.0699825013822
 30
0.0
 11
952.6500858911688
 21
450.0699825013822
 31
0.0
  0
LINE
  5
8EE
330
A
100
AcDbEntity
  8
寸法線
100
AcDbLine
 10
1120.818439864768
 20
450.0699825013822
 30
0.0
 11
991.4556402810687
 21
450.0699825013822
 31
0.0
  0
LINE
  5
8EF
330
A
100
AcDbEntity
  8
寸法線
100
AcDbLine
 10
823.2872863073687
 20
450.0699825013822
 30
0.0
 11
952.6500858911688
 21
450.0699825013822
 31
0.0
  0
LINE
  5
8F0
330
A
100
AcDbEntity
  8
寸法線
100
AcDbLine
 10
823.2872863073687
 20
450.0699825013822
 30
0.0
 11
991.4556402810687
 21
450.0699825013822
 31
0.0
  0
LINE
  5
8F1
330
A
100
AcDbEntity
  8
寸法線
100
AcDbLine
 10
1120.818439864768
 20
469.0699825013822
 30
0.0
 11
1120.818439864768
 21
449.5699825013822
 31
0.0
  0
LINE
  5
8F2
330
A
100
AcDbEntity
  8
寸法線
100
AcDbLine
 10
823.2872863073687
 20
664.0699825013822
 30
0.0
 11
823.2872863073687
 21
449.5699825013822
 31
0.0
  0
TEXT
  5
8F3
330
A
100
AcDbEntity
  8
寸法線
100
AcDbText
 10
956.1778635629687
 20
452.1283158028823
 30
0.0
 40
5.9972220421
  1
補強(300)
100
AcDbText
  0
SOLID
  5
8F4
330
A
100
AcDbEntity
  8
寸法線
100
AcDbTrace
 10
1015.742509882368
 20
614.0951661705822
 30
0.0
 11
1014.192667010468
 21
608.1078473154822
 31
0.0
 12
1011.557439651869
 22
609.5415755910822
 32
0.0
 13
1013.591917468969
 23
610.1423251325822
 33
0.0
  0
LINE
  5
8F5
330
A
100
AcDbEntity
  8
寸法線
100
AcDbLine
 10
1015.742509882368
 20
614.0951661705822
 30
0.0
 11
1014.308781606769
 21
611.4599388118822
 31
0.0
  0
SOLID
  5
8F6
330
A
100
AcDbEntity
  8
寸法線
100
AcDbTrace
 10
1000.449408276169
 20
585.9860743448822
 30
0.0
 11
1001.999251147968
 21
591.9733931999822
 31
0.0
 12
1004.634478506669
 22
590.5396649243822
 32
0.0
 13
1002.600000689569
 23
589.9389153828821
 33
0.0
  0
LINE
  5
8F7
330
A
100
AcDbEntity
  8
寸法線
100
AcDbLine
 10
1000.449408276169
 20
585.9860743448822
 30
0.0
 11
1001.883136551769
 21
588.6213017035823
 31
0.0
  0
LINE
  5
8F8
330
A
100
AcDbEntity
  8
寸法線
100
AcDbLine
 10
1000.449408276169
 20
585.9860743448822
 30
0.0
 11
1004.378276396268
 21
593.2074292801822
 31
0.0
  0
LINE
  5
8F9
330
A
100
AcDbEntity
  8
寸法線
100
AcDbLine
 10
1000.449408276169
 20
585.9860743448822
 30
0.0
 11
1011.122109193669
 21
605.6027575948823
 31
0.0
  0
LINE
  5
8FA
330
A
100
AcDbEntity
  8
寸法線
100
AcDbLine
 10
1015.742509882368
 20
614.0951661705822
 30
0.0
 11
1004.378276396268
 21
593.2074292801822
 31
0.0
  0
LINE
  5
8FB
330
A
100
AcDbEntity
  8
寸法線
100
AcDbLine
 10
1015.742509882368
 20
614.0951661705822
 30
0.0
 11
1011.122109193669
 21
605.6027575948823
 31
0.0
  0
LINE
  5
8FC
330
A
100
AcDbEntity
  8
寸法線
100
AcDbLine
 10
1005.697001572968
 20
583.1310558343822
 30
0.0
 11
1000.010203716368
 21
586.2250290574821
 31
0.0
  0
LINE
  5
8FD
330
A
100
AcDbEntity
  8
寸法線
100
AcDbLine
 10
1020.990103179069
 20
611.2401476600823
 30
0.0
 11
1015.303305322569
 21
614.3341208831822
 31
0.0
  0
TEXT
  5
8FE
330
A
100
AcDbEntity
  8
寸法線
100
AcDbText
 10
1004.256175852469
 20
597.2899582438822
 30
0.0
 40
5.9972220421
  1
32
 50
61.451047931
100
AcDbText
  0
SOLID
  5
8FF
330
A
100
AcDbEntity
  8
寸法線
100
AcDbTrace
 10
601.7424633022687
 20
470.0699825013822
 30
0.0
 11
603.2424633022688
 21
464.0699825013822
 31
0.0
 12
600.2424633022688
 22
464.0699825013822
 32
0.0
 13
601.7424633022687
 23
465.5699825013822
 33
0.0
  0
LINE
  5
900
330
A
100
AcDbEntity
  8
寸法線
100
AcDbLine
 10
601.7424633022687
 20
470.0699825013822
 30
0.0
 11
601.7424633022687
 21
467.0699825013822
 31
0.0
  0
SOLID
  5
901
330
A
100
AcDbEntity
  8
寸法線
100
AcDbTrace
 10
601.7424633022687
 20
490.0699825013822
 30
0.0
 11
600.2424633022688
 21
496.0699825013822
 31
0.0
 12
603.2424633022688
 22
496.0699825013822
 32
0.0
 13
601.7424633022687
 23
494.5699825013822
 33
0.0
  0
LINE
  5
902
330
A
100
AcDbEntity
  8
寸法線
100
AcDbLine
 10
601.7424633022687
 20
490.0699825013822
 30
0.0
 11
601.7424633022687
 21
493.0699825013822
 31
0.0
  0
LINE
  5
903
330
A
100
AcDbEntity
  8
寸法線
100
AcDbLine
 10
601.7424633022687
 20
490.0699825013822
 30
0.0
 11
601.7424633022687
 21
473.0144271576821
 31
0.0
  0
LINE
  5
904
330
A
100
AcDbEntity
  8
寸法線
100
AcDbLine
 10
601.7424633022687
 20
490.0699825013822
 30
0.0
 11
601.7424633022687
 21
487.1255378449823
 31
0.0
  0
LINE
  5
905
330
A
100
AcDbEntity
  8
寸法線
100
AcDbLine
 10
601.7424633022687
 20
470.0699825013822
 30
0.0
 11
601.7424633022687
 21
473.0144271576821
 31
0.0
  0
LINE
  5
906
330
A
100
AcDbEntity
  8
寸法線
100
AcDbLine
 10
601.7424633022687
 20
470.0699825013822
 30
0.0
 11
601.7424633022687
 21
487.1255378449823
 31
0.0
  0
LINE
  5
907
330
A
100
AcDbEntity
  8
寸法線
100
AcDbLine
 10
571.2424633022687
 20
490.0699825013822
 30
0.0
 11
602.2424633022687
 21
490.0699825013822
 31
0.0
  0
LINE
  5
908
330
A
100
AcDbEntity
  8
寸法線
100
AcDbLine
 10
563.7424633022687
 20
470.0699825013822
 30
0.0
 11
602.2424633022687
 21
470.0699825013822
 31
0.0
  0
TEXT
  5
909
330
A
100
AcDbEntity
  8
寸法線
100
AcDbText
 10
599.6841300007687
 20
476.5422048294822
 30
0.0
 40
5.9972220421
  1
20
 50
90.0
100
AcDbText
  0
ARC
  5
90A
330
A
100
AcDbEntity
  8
Layer1
 62
     5
370
    18
100
AcDbCircle
 10
826.2872863073686
 20
662.0699825013822
 30
0.0
 40
3.0
100
AcDbArc
 50
180.0000088888
 51
252.7386287741
  0
LINE
  5
90B
330
A
100
AcDbEntity
  8
Layer1
 62
     5
370
    18
100
AcDbLine
 10
823.2872863073687
 20
662.0699820358822
 30
0.0
 11
823.2872863073687
 21
665.0699825013822
 31
0.0
  0
LINE
  5
90C
330
A
100
AcDbEntity
  8
Layer1
 62
     5
370
    18
100
AcDbLine
 10
823.2872863073687
 20
665.0699825013822
 30
0.0
 11
905.2791596727685
 21
665.0699825013822
 31
0.0
  0
LINE
  5
90D
330
A
100
AcDbEntity
  8
Layer1
 62
     5
370
    18
100
AcDbLine
 10
1120.818439864768
 20
549.4537468614821
 30
0.0
 11
1120.818439864768
 21
510.0699825013822
 31
0.0
  0
ARC
  5
90E
330
A
100
AcDbEntity
  8
Layer1
 62
     5
370
    18
100
AcDbCircle
 10
528.6659855001686
 20
-295.7559731429177
 30
0.0
 40
1032.0
100
AcDbArc
 50
54.9849812684
 51
68.5964022947
  0
ARC
  5
90F
330
A
100
AcDbEntity
  8
Layer1
 62
     5
370
    18
100
AcDbCircle
 10
528.6659855001686
 20
-295.7559731429177
 30
0.0
 40
1000.0
100
AcDbArc
 50
53.6900978674
 51
72.7386287741
  0
LINE
  5
910
330
A
100
AcDbEntity
  8
ﾚｲﾔｰ1
370
     5
100
AcDbLine
 10
761.1649512147685
 20
410.3633292334158
 30
0.0
 11
821.1649512147685
 21
410.3633292334158
 31
0.0
  0
LINE
  5
911
330
A
100
AcDbEntity
  8
ﾚｲﾔｰ1
370
     5
100
AcDbLine
 10
775.1649512147686
 20
396.3633292334159
 30
0.0
 11
835.1649512147686
 21
396.3633292334159
 31
0.0
  0
LINE
  5
912
330
A
100
AcDbEntity
  8
ﾚｲﾔｰ1
370
     5
100
AcDbLine
 10
773.1649512147686
 20
398.3633292334159
 30
0.0
 11
833.1649512147686
 21
398.3633292334159
 31
0.0
  0
LINE
  5
913
330
A
100
AcDbEntity
  8
ﾚｲﾔｰ1
370
     5
100
AcDbLine
 10
771.1649512147686
 20
400.3633292334159
 30
0.0
 11
831.1649512147686
 21
400.3633292334159
 31
0.0
  0
LINE
  5
914
330
A
100
AcDbEntity
  8
ﾚｲﾔｰ1
370
     5
100
AcDbLine
 10
769.1649512147685
 20
402.3633292334158
 30
0.0
 11
829.1649512147685
 21
402.3633292334158
 31
0.0
  0
LINE
  5
915
330
A
100
AcDbEntity
  8
ﾚｲﾔｰ1
370
     5
100
AcDbLine
 10
767.1649512147686
 20
404.3633292334159
 30
0.0
 11
827.1649512147686
 21
404.3633292334159
 31
0.0
  0
LINE
  5
916
330
A
100
AcDbEntity
  8
ﾚｲﾔｰ1
370
     5
100
AcDbLine
 10
765.1649512147685
 20
406.3633292334158
 30
0.0
 11
825.1649512147686
 21
406.3633292334158
 31
0.0
  0
LINE
  5
917
330
A
100
AcDbEntity
  8
ﾚｲﾔｰ1
370
     5
100
AcDbLine
 10
763.1649512147686
 20
408.3633292334159
 30
0.0
 11
823.1649512147686
 21
408.3633292334159
 31
0.0
  0
MTEXT
  5
918
330
A
100
AcDbEntity
  8
ﾚｲﾔｰ1
370
     5
100
AcDbMText
 10
785.0879105095684
 20
419.3176162736159
 30
0.0
 40
5.9972220421
 41
18.4230131025
 71
     1
 72
     1
  1
\W0.8;\fＭＳ ゴシック;\W1.0;ＨＬ
 73
     1
 44
1.0
1001
ACAD
1000
MTEXTBEGIN
1070
    73
1070
     1
1070
    44
1040
1.0
1070
    74
1070
     0
1000
MTEXTEND
  0
LINE
  5
919
330
A
100
AcDbEntity
  8
Layer1
 62
     5
370
    18
100
AcDbLine
 10
1125.818439864768
 20
349.5818079920159
 30
0.0
 11
729.5691155453688
 21
349.5818079920159
 31
0.0
  0
LINE
  5
91A
330
A
100
AcDbEntity
  8
Layer1
 62
     5
370
    18
100
AcDbLine
 10
1125.818439864768
 20
387.581807992016
 30
0.0
 11
1125.818439864768
 21
349.5818079920159
 31
0.0
  0
LINE
  5
91B
330
A
100
AcDbEntity
  8
Layer1
 62
     5
370
    18
100
AcDbLine
 10
1120.818439864768
 20
387.581807992016
 30
0.0
 11
1120.818439864768
 21
349.5818079920159
 31
0.0
  0
LINE
  5
91C
330
A
100
AcDbEntity
  8
Layer1
 62
     5
370
    18
100
AcDbLine
 10
1120.818439864768
 20
371.0818079920159
 30
0.0
 11
823.2872863073687
 21
371.0818079920159
 31
0.0
  0
LINE
  5
91D
330
A
100
AcDbEntity
  8
Layer1
 62
     5
370
    18
100
AcDbLine
 10
823.2872863073687
 20
371.0818079920159
 30
0.0
 11
823.2872863073687
 21
366.081807992016
 31
0.0
  0
LINE
  5
91E
330
A
100
AcDbEntity
  8
Layer1
 62
     5
370
    18
100
AcDbLine
 10
1120.818439864768
 20
366.081807992016
 30
0.0
 11
823.2872863073687
 21
366.081807992016
 31
0.0
  0
ARC
  5
91F
330
A
100
AcDbEntity
  8
Layer1
 62
     5
370
    18
100
AcDbCircle
 10
775.8184398647687
 20
368.581807992016
 30
0.0
 40
50.0
100
AcDbArc
 50
157.6663173422
 51
202.3336826578
  0
LINE
  5
920
330
A
100
AcDbEntity
  8
Layer1
  6
DASHDOT
 62
     3
370
    18
100
AcDbLine
 10
745.8184398647687
 20
376.081807992016
 30
0.0
 11
745.8184398647687
 21
361.081807992016
 31
0.0
  0
LINE
  5
921
330
A
100
AcDbEntity
  8
Layer1
  6
DASHDOT
 62
     3
370
    18
100
AcDbLine
 10
738.3184398647687
 20
368.581807992016
 30
0.0
 11
753.3184398647687
 21
368.581807992016
 31
0.0
  0
LINE
  5
922
330
A
100
AcDbEntity
  8
Layer1
  6
DASHDOT
 62
     3
370
    18
100
AcDbLine
 10
1055.818439864768
 20
387.081807992016
 30
0.0
 11
1055.818439864768
 21
372.081807992016
 31
0.0
  0
LINE
  5
923
330
A
100
AcDbEntity
  8
Layer1
  6
DASHDOT
 62
     3
370
    18
100
AcDbLine
 10
1048.318439864768
 20
379.581807992016
 30
0.0
 11
1063.318439864768
 21
379.581807992016
 31
0.0
  0
LINE
  5
924
330
A
100
AcDbEntity
  8
Layer1
  6
DASHDOT
 62
     3
370
    18
100
AcDbLine
 10
900.8184398647687
 20
365.081807992016
 30
0.0
 11
900.8184398647687
 21
350.0818079920159
 31
0.0
  0
LINE
  5
925
330
A
100
AcDbEntity
  8
Layer1
  6
DASHDOT
 62
     3
370
    18
100
AcDbLine
 10
893.3184398647687
 20
357.5818079920158
 30
0.0
 11
908.3184398647686
 21
357.5818079920158
 31
0.0
  0
LINE
  5
926
330
A
100
AcDbEntity
  8
Layer1
  6
DASHDOT
 62
     3
370
    18
100
AcDbLine
 10
1130.818439864768
 20
368.581807992016
 30
0.0
 11
720.8184398647687
 21
368.581807992016
 31
0.0
  0
CIRCLE
  5
927
330
A
100
AcDbEntity
  8
Layer1
 62
     5
370
    18
100
AcDbCircle
 10
900.8184398647687
 20
357.5818079920158
 30
0.0
 40
3.0
  0
CIRCLE
  5
928
330
A
100
AcDbEntity
  8
Layer1
 62
     5
370
    18
100
AcDbCircle
 10
900.8184398647687
 20
357.5818079920158
 30
0.0
 40
5.5
  0
CIRCLE
  5
929
330
A
100
AcDbEntity
  8
Layer1
 62
     5
370
    18
100
AcDbCircle
 10
1055.818439864768
 20
379.581807992016
 30
0.0
 40
5.5
  0
CIRCLE
  5
92A
330
A
100
AcDbEntity
  8
Layer1
 62
     5
370
    18
100
AcDbCircle
 10
1055.818439864768
 20
379.581807992016
 30
0.0
 40
3.0
  0
CIRCLE
  5
92B
330
A
100
AcDbEntity
  8
Layer1
 62
     5
370
    18
100
AcDbCircle
 10
745.8184398647687
 20
368.581807992016
 30
0.0
 40
3.0
  0
CIRCLE
  5
92C
330
A
100
AcDbEntity
  8
Layer1
 62
     5
370
    18
100
AcDbCircle
 10
745.8184398647687
 20
368.581807992016
 30
0.0
 40
5.5
  0
LINE
  5
92D
330
A
100
AcDbEntity
  8
Layer1
 62
     5
370
    18
100
AcDbLine
 10
1125.818439864768
 20
387.581807992016
 30
0.0
 11
729.5691155453688
 21
387.581807992016
 31
0.0
  0
LINE
  5
92E
330
A
100
AcDbEntity
  8
Layer1
  6
DASHDOT
 62
     3
370
    18
100
AcDbLine
 10
573.7424633022688
 20
587.5699825013822
 30
0.0
 11
573.7424633022688
 21
572.5699825013822
 31
0.0
  0
LINE
  5
92F
330
A
100
AcDbEntity
  8
Layer1
  6
DASHDOT
 62
     3
370
    18
100
AcDbLine
 10
566.2424633022688
 20
620.0699825013822
 30
0.0
 11
581.2424633022687
 21
620.0699825013822
 31
0.0
  0
LINE
  5
930
330
A
100
AcDbEntity
  8
Layer1
  6
DASHDOT
 62
     3
370
    18
100
AcDbLine
 10
573.7424633022688
 20
627.5699825013822
 30
0.0
 11
573.7424633022688
 21
612.5699825013822
 31
0.0
  0
LINE
  5
931
330
A
100
AcDbEntity
  8
Layer1
  6
DASHDOT
 62
     3
370
    18
100
AcDbLine
 10
544.2424633022688
 20
600.0699825013822
 30
0.0
 11
559.2424633022686
 21
600.0699825013822
 31
0.0
  0
LINE
  5
932
330
A
100
AcDbEntity
  8
Layer1
  6
DASHDOT
 62
     3
370
    18
100
AcDbLine
 10
551.7424633022685
 20
607.5699825013822
 30
0.0
 11
551.7424633022685
 21
592.5699825013822
 31
0.0
  0
LINE
  5
933
330
A
100
AcDbEntity
  8
Layer1
  6
DASHDOT
 62
     3
370
    18
100
AcDbLine
 10
562.7424633022688
 20
497.5699825013822
 30
0.0
 11
562.7424633022688
 21
482.5699825013822
 31
0.0
  0
LINE
  5
934
330
A
100
AcDbEntity
  8
Layer1
  6
DASHDOT
 62
     3
370
    18
100
AcDbLine
 10
555.2424633022686
 20
490.0699825013822
 30
0.0
 11
570.2424633022688
 21
490.0699825013822
 31
0.0
  0
LINE
  5
935
330
A
100
AcDbEntity
  8
Layer1
  6
DASHDOT
 62
     3
370
    18
100
AcDbLine
 10
544.2424633022688
 20
640.0699825013822
 30
0.0
 11
559.2424633022686
 21
640.0699825013822
 31
0.0
  0
LINE
  5
936
330
A
100
AcDbEntity
  8
Layer1
  6
DASHDOT
 62
     3
370
    18
100
AcDbLine
 10
551.7424633022685
 20
647.5699825013822
 30
0.0
 11
551.7424633022685
 21
632.5699825013822
 31
0.0
  0
LINE
  5
937
330
A
100
AcDbEntity
  8
Layer1
 62
     5
370
    18
100
AcDbLine
 10
725.8184398647687
 20
670.0699825013822
 30
0.0
 11
1115.818439864768
 21
670.0699825013822
 31
0.0
  0
LINE
  5
938
330
A
100
AcDbEntity
  8
Layer1
 62
     5
370
    18
100
AcDbLine
 10
1125.818439864768
 20
660.0699825013822
 30
0.0
 11
1125.818439864768
 21
470.0699825013822
 31
0.0
  0
ARC
  5
939
330
A
100
AcDbEntity
  8
Layer1
 62
     5
370
    18
100
AcDbCircle
 10
1115.818439864768
 20
660.0699825013822
 30
0.0
 40
10.0
100
AcDbArc
 50
0.0
 51
90.0
  0
LINE
  5
93A
330
A
100
AcDbEntity
  8
Layer1
 62
     5
370
    18
100
AcDbLine
 10
1120.818439864768
 20
470.0699825013822
 30
0.0
 11
1125.818439864768
 21
470.0699825013822
 31
0.0
  0
LINE
  5
93B
330
A
100
AcDbEntity
  8
Layer1
 62
     5
370
    18
100
AcDbLine
 10
725.8184398647687
 20
665.0699825013822
 30
0.0
 11
1115.818439864768
 21
665.0699825013822
 31
0.0
  0
LINE
  5
93C
330
A
100
AcDbEntity
  8
Layer1
 62
     5
370
    18
100
AcDbLine
 10
1120.818439864768
 20
660.0699825013822
 30
0.0
 11
1120.818439864768
 21
470.0699825013822
 31
0.0
  0
ARC
  5
93D
330
A
100
AcDbEntity
  8
Layer1
 62
     5
370
    18
100
AcDbCircle
 10
1115.818439864768
 20
660.0699825013822
 30
0.0
 40
5.0
100
AcDbArc
 50
0.0
 51
90.0
  0
LINE
  5
93E
330
A
100
AcDbEntity
  8
Layer1
 62
     5
370
    18
100
AcDbLine
 10
725.8184398647687
 20
670.0699825013822
 30
0.0
 11
725.8184398647687
 21
665.0699825013822
 31
0.0
  0
LINE
  5
93F
330
A
100
AcDbEntity
  8
Layer1
 62
     5
370
    18
100
AcDbLine
 10
565.2424633022688
 20
665.0699825013822
 30
0.0
 11
565.2424633022688
 21
510.0699825013822
 31
0.0
  0
LINE
  5
940
330
A
100
AcDbEntity
  8
Layer1
 62
     5
370
    18
100
AcDbLine
 10
565.2424633022688
 20
510.0699825013822
 30
0.0
 11
560.2424633022685
 21
510.0699825013822
 31
0.0
  0
LINE
  5
941
330
A
100
AcDbEntity
  8
Layer1
 62
     5
370
    18
100
AcDbLine
 10
581.7424633022688
 20
665.0699825013822
 30
0.0
 11
543.7424633022685
 21
665.0699825013822
 31
0.0
  0
LINE
  5
942
330
A
100
AcDbEntity
  8
Layer1
 62
     5
370
    18
100
AcDbLine
 10
581.7424633022688
 20
670.0699825013822
 30
0.0
 11
543.7424633022685
 21
670.0699825013822
 31
0.0
  0
LINE
  5
943
330
A
100
AcDbEntity
  8
Layer1
 62
     5
370
    18
100
AcDbLine
 10
560.2424633022685
 20
665.0699825013822
 30
0.0
 11
560.2424633022685
 21
510.0699825013822
 31
0.0
  0
ARC
  5
944
330
A
100
AcDbEntity
  8
Layer1
 62
     5
370
    18
100
AcDbCircle
 10
562.7424633022688
 20
520.0699825013822
 30
0.0
 40
50.0
100
AcDbArc
 50
247.6663173422
 51
292.3336826578
  0
LINE
  5
945
330
A
100
AcDbEntity
  8
Layer1
 62
     5
370
    18
100
AcDbLine
 10
543.7424633022685
 20
670.0699825013822
 30
0.0
 11
543.7424633022685
 21
473.8206581819822
 31
0.0
  0
LINE
  5
946
330
A
100
AcDbEntity
  8
Layer1
 62
     5
370
    18
100
AcDbLine
 10
581.7424633022688
 20
670.0699825013822
 30
0.0
 11
581.7424633022688
 21
473.8206581819822
 31
0.0
  0
CIRCLE
  5
947
330
A
100
AcDbEntity
  8
Layer1
 62
     5
370
    18
100
AcDbCircle
 10
551.7424633022685
 20
640.0699825013822
 30
0.0
 40
5.5
  0
CIRCLE
  5
948
330
A
100
AcDbEntity
  8
Layer1
 62
     5
370
    18
100
AcDbCircle
 10
551.7424633022685
 20
640.0699825013822
 30
0.0
 40
3.0
  0
CIRCLE
  5
949
330
A
100
AcDbEntity
  8
Layer1
 62
     5
370
    18
100
AcDbCircle
 10
562.7424633022688
 20
490.0699825013822
 30
0.0
 40
5.5
  0
CIRCLE
  5
94A
330
A
100
AcDbEntity
  8
Layer1
 62
     5
370
    18
100
AcDbCircle
 10
562.7424633022688
 20
490.0699825013822
 30
0.0
 40
3.0
  0
CIRCLE
  5
94B
330
A
100
AcDbEntity
  8
Layer1
 62
     5
370
    18
100
AcDbCircle
 10
551.7424633022685
 20
600.0699825013822
 30
0.0
 40
5.5
  0
CIRCLE
  5
94C
330
A
100
AcDbEntity
  8
Layer1
 62
     5
370
    18
100
AcDbCircle
 10
551.7424633022685
 20
600.0699825013822
 30
0.0
 40
3.0
  0
CIRCLE
  5
94D
330
A
100
AcDbEntity
  8
Layer1
 62
     5
370
    18
100
AcDbCircle
 10
573.7424633022688
 20
620.0699825013822
 30
0.0
 40
5.5
  0
CIRCLE
  5
94E
330
A
100
AcDbEntity
  8
Layer1
 62
     5
370
    18
100
AcDbCircle
 10
573.7424633022688
 20
620.0699825013822
 30
0.0
 40
3.0
  0
CIRCLE
  5
94F
330
A
100
AcDbEntity
  8
Layer1
 62
     5
370
    18
100
AcDbCircle
 10
573.7424633022688
 20
580.0699825013822
 30
0.0
 40
5.5
  0
CIRCLE
  5
950
330
A
100
AcDbEntity
  8
Layer1
 62
     5
370
    18
100
AcDbCircle
 10
573.7424633022688
 20
580.0699825013822
 30
0.0
 40
3.0
  0
LINE
  5
951
330
A
100
AcDbEntity
  8
Layer1
  6
DASHDOT
 62
     3
370
    18
100
AcDbLine
 10
562.7424633022688
 20
675.0699825013822
 30
0.0
 11
562.7424633022688
 21
465.0699825013822
 31
0.0
  0
LINE
  5
952
330
A
100
AcDbEntity
  8
Layer1
  6
DASHDOT
 62
     3
370
    18
100
AcDbLine
 10
566.2424633022688
 20
580.0699825013822
 30
0.0
 11
581.2424633022687
 21
580.0699825013822
 31
0.0
  0
ENDSEC
  0
SECTION
  2
OBJECTS
  0
DICTIONARY
  5
19
330
0
100
AcDbDictionary
281
     1
  3
ACAD_COLOR
350
2A2
  3
ACAD_GROUP
350
1A
  3
ACAD_LAYOUT
350
1E
  3
ACAD_MATERIAL
350
2A1
  3
ACAD_MLINESTYLE
350
1B
  3
ACAD_PLOTSETTINGS
350
22
  3
ACAD_PLOTSTYLENAME
350
1F
  3
ACAD_WIPEOUT_VARS
350
23
  3
ACDBHEADERROUNDTRIPXREC
350
983
  3
AcDbVariableDictionary
350
961
  3
ASE_INDEX_DICTIONARY
350
95F
  0
DICTIONARY
  5
2B4
330
2
100
AcDbDictionary
280
     1
281
     1
  3
ACAD_LAYERSTATES
360
2B5
  0
DICTIONARY
  5
2A2
102
{ACAD_REACTORS
330
19
102
}
330
19
100
AcDbDictionary
281
     1
  0
DICTIONARY
  5
1A
102
{ACAD_REACTORS
330
19
102
}
330
19
100
AcDbDictionary
281
     1
  0
DICTIONARY
  5
1E
102
{ACAD_REACTORS
330
19
102
}
330
19
100
AcDbDictionary
281
     1
  3
Layout1
350
21
  3
Model
350
20
  0
DICTIONARY
  5
2A1
102
{ACAD_REACTORS
330
19
102
}
330
19
100
AcDbDictionary
281
     1
  0
DICTIONARY
  5
1B
102
{ACAD_REACTORS
330
19
102
}
330
19
100
AcDbDictionary
281
     1
  3
Standard
350
1C
  0
DICTIONARY
  5
22
102
{ACAD_REACTORS
330
19
102
}
330
19
100
AcDbDictionary
281
     1
  0
ACDBDICTIONARYWDFLT
  5
1F
102
{ACAD_REACTORS
330
19
102
}
330
19
100
AcDbDictionary
281
     1
  3
Normal
350
1D
100
AcDbDictionaryWithDefault
340
1D
  0
WIPEOUTVARIABLES
  5
23
330
19
100
AcDbWipeoutVariables
 70
     1
  0
DICTIONARY
  5
983
102
{ACAD_REACTORS
330
19
102
}
330
19
100
AcDbDictionary
281
     1
  3
COLORDICT
350
985
  3
MATERIALDICT
350
984
  0
DICTIONARY
  5
961
102
{ACAD_REACTORS
330
19
102
}
330
19
100
AcDbDictionary
281
     1
  3
DIMASSOC
350
962
  3
PROJECTNAME
350
963
  0
DICTIONARY
  5
95F
102
{ACAD_REACTORS
330
19
102
}
330
19
100
AcDbDictionary
281
     1
  3
ASEBlockHierarchyIndexRecord
350
960
1001
DCO15
1040
1776759216.703
  0
DICTIONARY
  5
2B5
102
{ACAD_REACTORS
330
2B4
102
}
330
2B4
100
AcDbDictionary
281
     1
  0
LAYOUT
  5
21
102
{ACAD_XDICTIONARY
360
988
102
}
102
{ACAD_REACTORS
330
1E
102
}
330
1E
100
AcDbPlotSettings
  1

  2

  4

  6

 40
0.0
 41
0.0
 42
0.0
 43
0.0
 44
0.0
 45
0.0
 46
0.0
 47
0.0
 48
0.0
 49
0.0
140
0.0
141
0.0
142
1.0
143
1.0
 70
     0
 72
     0
 73
     0
 74
     0
  7

 75
     0
147
1.0
148
0.0
149
0.0
100
AcDbLayout
  1
Layout1
 70
     0
 71
     1
 10
0.0
 20
0.0
 11
12.0
 21
9.0
 12
0.0
 22
0.0
 32
0.0
 14
1.000000000000000E+20
 24
1.000000000000000E+20
 34
1.000000000000000E+20
 15
-1.000000000000000E+20
 25
-1.000000000000000E+20
 35
-1.000000000000000E+20
146
0.0
 13
0.0
 23
0.0
 33
0.0
 16
1.0
 26
0.0
 36
0.0
 17
0.0
 27
1.0
 37
0.0
 76
     0
330
B
  0
LAYOUT
  5
20
102
{ACAD_XDICTIONARY
360
986
102
}
102
{ACAD_REACTORS
330
1E
102
}
330
1E
100
AcDbPlotSettings
  1

  2
クセロPDF2.pc3
  4
A3
  6

 40
3.174999952316282
 41
3.174999952316282
 42
3.17498779296875
 43
3.17498779296875
 44
419.9466552734373
 45
296.9259948730469
 46
0.0
 47
0.0
 48
417.7890085538686
 49
179.6945684087159
140
1259.784008553866
141
775.0445684087158
142
1.0
143
2.048861521241269
 70
 14512
 72
     1
 73
     0
 74
     4
  7
monochrome.stb
 75
     0
147
0.4880759336991046
148
-417.7890085538686
149
-179.6945684087159
100
AcDbLayout
  1
Model
 70
     0
 71
     0
 10
0.0
 20
0.0
 11
0.0
 21
0.0
 12
0.0
 22
0.0
 32
0.0
 14
0.0
 24
0.0
 34
0.0
 15
0.0
 25
0.0
 35
0.0
146
0.0
 13
0.0
 23
0.0
 33
0.0
 16
0.0
 26
0.0
 36
0.0
 17
0.0
 27
0.0
 37
0.0
 76
     0
330
A
  0
MLINESTYLE
  5
1C
102
{ACAD_REACTORS
330
1B
102
}
330
1B
100
AcDbMlineStyle
  2
STANDARD
 70
     0
  3

 62
     0
 51
90.0
 52
90.0
 71
     2
 49
0.5
 62
   256
  6
BYLAYER
 49
-0.5
 62
   256
  6
BYLAYER
  0
ACDBPLACEHOLDER
  5
1D
102
{ACAD_REACTORS
330
1F
102
}
330
1F
  0
XRECORD
  5
985
102
{ACAD_REACTORS
330
983
102
}
330
983
100
AcDbXrecord
280
     1
340
2A2
  0
XRECORD
  5
984
102
{ACAD_REACTORS
330
983
102
}
330
983
100
AcDbXrecord
280
     1
340
2A1
  0
DICTIONARYVAR
  5
962
102
{ACAD_REACTORS
330
961
102
}
330
961
100
DictionaryVariables
280
     0
  1
1
  0
DICTIONARYVAR
  5
963
102
{ACAD_REACTORS
330
961
102
}
330
961
100
DictionaryVariables
280
     0
  1

  0
XRECORD
  5
960
102
{ACAD_REACTORS
330
95F
102
}
330
95F
100
AcDbXrecord
280
     1
  0
DICTIONARY
  5
988
330
21
100
AcDbDictionary
280
     1
281
     1
  3
ACAD_XREC_ROUNDTRIP
360
989
  0
DICTIONARY
  5
986
330
20
100
AcDbDictionary
280
     1
281
     1
  3
ACAD_XREC_ROUNDTRIP
360
987
  0
XRECORD
  5
989
102
{ACAD_REACTORS
330
988
102
}
330
988
100
AcDbXrecord
280
     1
102
SHADEPLOT
 70
     0
102
SHADEPLOTRESLEVEL
 70
     2
102
SHADEPLOTCUSTOMDPI
 70
   300
  0
XRECORD
  5
987
102
{ACAD_REACTORS
330
986
102
}
330
986
100
AcDbXrecord
280
     1
102
SHADEPLOT
 70
     0
102
SHADEPLOTRESLEVEL
 70
     2
102
SHADEPLOTCUSTOMDPI
 70
   150
  0
ENDSEC
  0
EOF
