  0
SECTION
  2
HEADER
  9
$ACADVER
  1
AC1015
  9
$ACADMAINTVER
 70
    20
  9
$DWGCODEPAGE
  3
ANSI_932
  9
$INSBASE
 10
0.0
 20
0.0
 30
0.0
  9
$EXTMIN
 10
439.3010067465467
 20
167.8243470988175
 30
0.0
  9
$EXTMAX
 10
1281.296006746545
 20
763.1743470988176
 30
0.0
  9
$LIMMIN
 10
0.0
 20
0.0
  9
$LIMMAX
 10
0.0
 20
0.0
  9
$ORTHOMODE
 70
     1
  9
$REGENMODE
 70
     1
  9
$FILLMODE
 70
     1
  9
$QTEXTMODE
 70
     0
  9
$MIRRTEXT
 70
     1
  9
$LTSCALE
 40
1.0
  9
$ATTMODE
 70
     1
  9
$TEXTSIZE
 40
0.35
  9
$TRACEWID
 40
0.05
  9
$TEXTSTYLE
  7
STANDARD
  9
$CLAYER
  8
0
  9
$CELTYPE
  6
CONTINUOUS
  9
$CECOLOR
 62
   256
  9
$CELTSCALE
 40
1.0
  9
$DISPSILH
 70
     0
  9
$DIMSCALE
 40
1.0
  9
$DIMASZ
 40
3.0
  9
$DIMEXO
 40
1.0
  9
$DIMDLI
 40
0.38
  9
$DIMRND
 40
0.0
  9
$DIMDLE
 40
0.0
  9
$DIMEXE
 40
0.5
  9
$DIMTP
 40
0.0
  9
$DIMTM
 40
0.0
  9
$DIMTXT
 40
3.527777777777777
  9
$DIMCEN
 40
0.09
  9
$DIMTSZ
 40
0.0
  9
$DIMTOL
 70
     0
  9
$DIMLIM
 70
     0
  9
$DIMTIH
 70
     0
  9
$DIMTOH
 70
     0
  9
$DIMSE1
 70
     0
  9
$DIMSE2
 70
     0
  9
$DIMTAD
 70
     1
  9
$DIMZIN
 70
     0
  9
$DIMBLK
  1

  9
$DIMASO
 70
     1
  9
$DIMSHO
 70
     1
  9
$DIMPOST
  1

  9
$DIMAPOST
  1

  9
$DIMALT
 70
     0
  9
$DIMALTD
 70
     3
  9
$DIMALTF
 40
25.4
  9
$DIMLFAC
 40
1.0
  9
$DIMTOFL
 70
     0
  9
$DIMTVP
 40
0.0
  9
$DIMTIX
 70
     0
  9
$DIMSOXD
 70
     0
  9
$DIMSAH
 70
     0
  9
$DIMBLK1
  1

  9
$DIMBLK2
  1

  9
$DIMSTYLE
  2
Standard
  9
$DIMCLRD
 70
     0
  9
$DIMCLRE
 70
     0
  9
$DIMCLRT
 70
     0
  9
$DIMTFAC
 40
1.0
  9
$DIMGAP
 40
0.09
  9
$DIMJUST
 70
     0
  9
$DIMSD1
 70
     0
  9
$DIMSD2
 70
     0
  9
$DIMTOLJ
 70
     1
  9
$DIMTZIN
 70
     0
  9
$DIMALTZ
 70
     0
  9
$DIMALTTZ
 70
     0
  9
$DIMUPT
 70
     0
  9
$DIMDEC
 70
     4
  9
$DIMTDEC
 70
     4
  9
$DIMALTU
 70
     2
  9
$DIMALTTD
 70
     2
  9
$DIMTXSTY
  7
STANDARD
  9
$DIMAUNIT
 70
     0
  9
$DIMADEC
 70
     0
  9
$DIMALTRND
 40
0.0
  9
$DIMAZIN
 70
     0
  9
$DIMDSEP
 70
    46
  9
$DIMATFIT
 70
     3
  9
$DIMFRAC
 70
     0
  9
$DIMLDRBLK
  1

  9
$DIMLUNIT
 70
     2
  9
$DIMLWD
 70
    -2
  9
$DIMLWE
 70
    -2
  9
$DIMTMOVE
 70
     0
  9
$LUNITS
 70
     2
  9
$LUPREC
 70
     4
  9
$SKETCHINC
 40
0.1
  9
$FILLETRAD
 40
0.0
  9
$AUNITS
 70
     0
  9
$AUPREC
 70
     0
  9
$MENU
  1
acad
  9
$ELEVATION
 40
0.0
  9
$PELEVATION
 40
0.0
  9
$THICKNESS
 40
0.0
  9
$LIMCHECK
 70
     0
  9
$CHAMFERA
 40
0.0
  9
$CHAMFERB
 40
0.0
  9
$CHAMFERC
 40
0.0
  9
$CHAMFERD
 40
0.0
  9
$SKPOLY
 70
     0
  9
$TDCREATE
 40
2455539.456782408
  9
$TDUCREATE
 40
2455539.081782408
  9
$TDUPDATE
 40
2458918.465272905
  9
$TDUUPDATE
 40
2458918.090272906
  9
$TDINDWG
 40
0.0203553009
  9
$TDUSRTIMER
 40
0.0203549421
  9
$USRTIMER
 70
     1
  9
$ANGBASE
 50
0.0
  9
$ANGDIR
 70
     0
  9
$PDMODE
 70
     0
  9
$PDSIZE
 40
0.0
  9
$PLINEWID
 40
0.0
  9
$SPLFRAME
 70
     0
  9
$SPLINETYPE
 70
     6
  9
$SPLINESEGS
 70
     8
  9
$HANDSEED
  5
10C5
  9
$SURFTAB1
 70
     6
  9
$SURFTAB2
 70
     6
  9
$SURFTYPE
 70
     6
  9
$SURFU
 70
     6
  9
$SURFV
 70
     6
  9
$UCSBASE
  2

  9
$UCSNAME
  2

  9
$UCSORG
 10
0.0
 20
0.0
 30
0.0
  9
$UCSXDIR
 10
1.0
 20
0.0
 30
0.0
  9
$UCSYDIR
 10
0.0
 20
1.0
 30
0.0
  9
$UCSORTHOREF
  2

  9
$UCSORTHOVIEW
 70
     0
  9
$UCSORGTOP
 10
0.0
 20
0.0
 30
0.0
  9
$UCSORGBOTTOM
 10
0.0
 20
0.0
 30
0.0
  9
$UCSORGLEFT
 10
0.0
 20
0.0
 30
0.0
  9
$UCSORGRIGHT
 10
0.0
 20
0.0
 30
0.0
  9
$UCSORGFRONT
 10
0.0
 20
0.0
 30
0.0
  9
$UCSORGBACK
 10
0.0
 20
0.0
 30
0.0
  9
$PUCSBASE
  2

  9
$PUCSNAME
  2

  9
$PUCSORG
 10
0.0
 20
0.0
 30
0.0
  9
$PUCSXDIR
 10
1.0
 20
0.0
 30
0.0
  9
$PUCSYDIR
 10
0.0
 20
1.0
 30
0.0
  9
$PUCSORTHOREF
  2

  9
$PUCSORTHOVIEW
 70
     0
  9
$PUCSORGTOP
 10
0.0
 20
0.0
 30
0.0
  9
$PUCSORGBOTTOM
 10
0.0
 20
0.0
 30
0.0
  9
$PUCSORGLEFT
 10
0.0
 20
0.0
 30
0.0
  9
$PUCSORGRIGHT
 10
0.0
 20
0.0
 30
0.0
  9
$PUCSORGFRONT
 10
0.0
 20
0.0
 30
0.0
  9
$PUCSORGBACK
 10
0.0
 20
0.0
 30
0.0
  9
$USERI1
 70
     0
  9
$USERI2
 70
     0
  9
$USERI3
 70
     0
  9
$USERI4
 70
     0
  9
$USERI5
 70
     0
  9
$USERR1
 40
0.0
  9
$USERR2
 40
0.0
  9
$USERR3
 40
0.0
  9
$USERR4
 40
0.0
  9
$USERR5
 40
0.0
  9
$WORLDVIEW
 70
     1
  9
$SHADEDGE
 70
     3
  9
$SHADEDIF
 70
    70
  9
$TILEMODE
 70
     1
  9
$MAXACTVP
 70
    64
  9
$PINSBASE
 10
0.0
 20
0.0
 30
0.0
  9
$PLIMCHECK
 70
     0
  9
$PEXTMIN
 10
1.000000000000000E+20
 20
1.000000000000000E+20
 30
1.000000000000000E+20
  9
$PEXTMAX
 10
-1.000000000000000E+20
 20
-1.000000000000000E+20
 30
-1.000000000000000E+20
  9
$PLIMMIN
 10
0.0
 20
0.0
  9
$PLIMMAX
 10
12.0
 20
9.0
  9
$UNITMODE
 70
     0
  9
$VISRETAIN
 70
     1
  9
$PLINEGEN
 70
     0
  9
$PSLTSCALE
 70
     1
  9
$TREEDEPTH
 70
  3020
  9
$CMLSTYLE
  2
Standard
  9
$CMLJUST
 70
     0
  9
$CMLSCALE
 40
1.0
  9
$PROXYGRAPHICS
 70
     1
  9
$MEASUREMENT
 70
     0
  9
$CELWEIGHT
370
    -1
  9
$ENDCAPS
280
     0
  9
$JOINSTYLE
280
     0
  9
$LWDISPLAY
290
     0
  9
$INSUNITS
 70
     0
  9
$HYPERLINKBASE
  1

  9
$STYLESHEET
  1
monochrome.ctb
  9
$XEDIT
290
     1
  9
$CEPSNTYPE
380
     0
  9
$PSTYLEMODE
290
     1
  9
$FINGERPRINTGUID
  2
{690D2A30-2874-45DA-B56B-13E63A7D04B1}
  9
$VERSIONGUID
  2
{C2832323-D744-4CF2-BD14-4D4BFD21495E}
  9
$EXTNAMES
290
     1
  9
$PSVPSCALE
 40
0.0
  9
$OLESTARTUP
290
     0
  0
ENDSEC
  0
SECTION
  2
CLASSES
  0
CLASS
  1
ACDBDICTIONARYWDFLT
  2
AcDbDictionaryWithDefault
  3
ObjectDBX Classes
 90
        0
280
     0
281
     0
  0
CLASS
  1
MATERIAL
  2
AcDbMaterial
  3
ObjectDBX Classes
 90
     1153
280
     0
281
     0
  0
CLASS
  1
VISUALSTYLE
  2
AcDbVisualStyle
  3
ObjectDBX Classes
 90
     4095
280
     0
281
     0
  0
CLASS
  1
TABLESTYLE
  2
AcDbTableStyle
  3
ObjectDBX Classes
 90
     4095
280
     0
281
     0
  0
CLASS
  1
SCALE
  2
AcDbScale
  3
ObjectDBX Classes
 90
     1153
280
     0
281
     0
  0
CLASS
  1
MLEADERSTYLE
  2
AcDbMLeaderStyle
  3
ACDB_MLEADERSTYLE_CLASS
 90
     4095
280
     0
281
     0
  0
CLASS
  1
ACDBSECTIONVIEWSTYLE
  2
AcDbSectionViewStyle
  3
ObjectDBX Classes
 90
     1025
280
     0
281
     0
  0
CLASS
  1
ACDBDETAILVIEWSTYLE
  2
AcDbDetailViewStyle
  3
ObjectDBX Classes
 90
     1025
280
     0
281
     0
  0
CLASS
  1
SORTENTSTABLE
  2
AcDbSortentsTable
  3
ObjectDBX Classes
 90
    32768
280
     0
281
     0
  0
CLASS
  1
DICTIONARYVAR
  2
AcDbDictionaryVar
  3
ObjectDBX Classes
 90
        0
280
     0
281
     0
  0
CLASS
  1
CELLSTYLEMAP
  2
AcDbCellStyleMap
  3
ObjectDBX Classes
 90
     1152
280
     0
281
     0
  0
CLASS
  1
ACDBPLACEHOLDER
  2
AcDbPlaceHolder
  3
ObjectDBX Classes
 90
        0
280
     0
281
     0
  0
CLASS
  1
LAYOUT
  2
AcDbLayout
  3
ObjectDBX Classes
 90
        0
280
     0
281
     0
  0
ENDSEC
  0
SECTION
  2
TABLES
  0
TABLE
  2
VPORT
  5
2C9
330
0
100
AcDbSymbolTable
 70
     1
  0
VPORT
  5
E17
330
2C9
100
AcDbSymbolTableRecord
100
AcDbViewportTableRecord
  2
*Active
 70
     0
 10
0.0
 20
0.0
 11
1.0
 21
1.0
 12
876.7574871578108
 22
216.2964886095545
 13
0.0
 23
0.0
 14
1.0
 24
1.0
 15
0.0
 25
0.0
 16
0.0
 26
0.0
 36
1.0
 17
0.0
 27
0.0
 37
0.0
 40
204.2796772442773
 41
2.671554252199413
 42
50.0
 43
0.0
 44
0.0
 50
0.0
 51
0.0
 71
     0
 72
   100
 73
     1
 74
     1
 75
     0
 76
     0
 77
     0
 78
     0
281
     0
 65
     1
110
0.0
120
0.0
130
0.0
111
1.0
121
0.0
131
0.0
112
0.0
122
1.0
132
0.0
 79
     0
146
0.0
1001
ACAD_NAV_VCDISPLAY
1070
     3
  0
ENDTAB
  0
TABLE
  2
LTYPE
  5
2C6
330
0
100
AcDbSymbolTable
 70
    11
  0
LTYPE
  5
2D4
330
2C6
100
AcDbSymbolTableRecord
100
AcDbLinetypeTableRecord
  2
ByBlock
 70
     0
  3

 72
    65
 73
     0
 40
0.0
  0
LTYPE
  5
2D5
330
2C6
100
AcDbSymbolTableRecord
100
AcDbLinetypeTableRecord
  2
ByLayer
 70
     0
  3

 72
    65
 73
     0
 40
0.0
  0
LTYPE
  5
2D6
330
2C6
100
AcDbSymbolTableRecord
100
AcDbLinetypeTableRecord
  2
CONTINUOUS
 70
     0
  3
Solid line
 72
    65
 73
     0
 40
0.0
  0
LTYPE
  5
2E6
330
2C6
100
AcDbSymbolTableRecord
100
AcDbLinetypeTableRecord
  2
DOT
 70
     0
  3

 72
    65
 73
     2
 40
1.0
 49
0.0
 74
     0
 49
-1.0
 74
     0
  0
LTYPE
  5
2E7
330
2C6
100
AcDbSymbolTableRecord
100
AcDbLinetypeTableRecord
  2
DASHEDX2
 70
     0
  3

 72
    65
 73
     2
 40
4.0
 49
3.0
 74
     0
 49
-1.0
 74
     0
  0
LTYPE
  5
2E8
330
2C6
100
AcDbSymbolTableRecord
100
AcDbLinetypeTableRecord
  2
DASHED
 70
     0
  3

 72
    65
 73
     2
 40
3.0
 49
2.0
 74
     0
 49
-1.0
 74
     0
  0
LTYPE
  5
2E9
330
2C6
100
AcDbSymbolTableRecord
100
AcDbLinetypeTableRecord
  2
DASHED2
 70
     0
  3

 72
    65
 73
     2
 40
2.0
 49
1.0
 74
     0
 49
-1.0
 74
     0
  0
LTYPE
  5
2EA
330
2C6
100
AcDbSymbolTableRecord
100
AcDbLinetypeTableRecord
  2
CENTERX2
 70
     0
  3

 72
    65
 73
     4
 40
43.0
 49
40.0
 74
     0
 49
-1.0
 74
     0
 49
1.0
 74
     0
 49
-1.0
 74
     0
  0
LTYPE
  5
2EB
330
2C6
100
AcDbSymbolTableRecord
100
AcDbLinetypeTableRecord
  2
CENTER
 70
     0
  3

 72
    65
 73
     4
 40
33.0
 49
30.0
 74
     0
 49
-1.0
 74
     0
 49
1.0
 74
     0
 49
-1.0
 74
     0
  0
LTYPE
  5
2EC
330
2C6
100
AcDbSymbolTableRecord
100
AcDbLinetypeTableRecord
  2
CENTER2
 70
     0
  3

 72
    65
 73
     4
 40
23.0
 49
20.0
 74
     0
 49
-1.0
 74
     0
 49
1.0
 74
     0
 49
-1.0
 74
     0
  0
LTYPE
  5
2ED
330
2C6
100
AcDbSymbolTableRecord
100
AcDbLinetypeTableRecord
  2
PHANTOMX2
 70
     0
  3

 72
    65
 73
     6
 40
45.0
 49
40.0
 74
     0
 49
-1.0
 74
     0
 49
1.0
 74
     0
 49
-1.0
 74
     0
 49
1.0
 74
     0
 49
-1.0
 74
     0
  0
LTYPE
  5
2EE
330
2C6
100
AcDbSymbolTableRecord
100
AcDbLinetypeTableRecord
  2
PHANTOM
 70
     0
  3

 72
    65
 73
     6
 40
35.0
 49
30.0
 74
     0
 49
-1.0
 74
     0
 49
1.0
 74
     0
 49
-1.0
 74
     0
 49
1.0
 74
     0
 49
-1.0
 74
     0
  0
LTYPE
  5
2EF
330
2C6
100
AcDbSymbolTableRecord
100
AcDbLinetypeTableRecord
  2
PHANTOM2
 70
     0
  3

 72
    65
 73
     6
 40
25.0
 49
20.0
 74
     0
 49
-1.0
 74
     0
 49
1.0
 74
     0
 49
-1.0
 74
     0
 49
1.0
 74
     0
 49
-1.0
 74
     0
  0
ENDTAB
  0
TABLE
  2
LAYER
  5
2C3
102
{ACAD_XDICTIONARY
360
4A6
102
}
330
0
100
AcDbSymbolTable
 70
    11
  0
LAYER
  5
2D1
102
{ACAD_XDICTIONARY
360
1024
102
}
330
2C3
100
AcDbSymbolTableRecord
100
AcDbLayerTableRecord
  2
0
 70
     0
 62
     7
  6
CONTINUOUS
370
    -3
390
2D0
  0
LAYER
  5
2F0
330
2C3
100
AcDbSymbolTableRecord
100
AcDbLayerTableRecord
  2
DEFPOINTS
 70
     0
 62
     7
  6
CONTINUOUS
290
     0
370
    -3
390
2D0
  0
LAYER
  5
2F1
102
{ACAD_XDICTIONARY
360
1026
102
}
330
2C3
100
AcDbSymbolTableRecord
100
AcDbLayerTableRecord
  2
____1
 70
     0
 62
     3
  6
CENTER2
370
    -3
390
2D0
  0
LAYER
  5
2F2
102
{ACAD_XDICTIONARY
360
1028
102
}
330
2C3
100
AcDbSymbolTableRecord
100
AcDbLayerTableRecord
  2
______
 70
     0
 62
     7
  6
CONTINUOUS
370
    -3
390
2D0
  0
LAYER
  5
2F3
102
{ACAD_XDICTIONARY
360
102A
102
}
330
2C3
100
AcDbSymbolTableRecord
100
AcDbLayerTableRecord
  2
寸法線_1
 70
     0
 62
     7
  6
CONTINUOUS
370
    -3
390
2D0
  0
LAYER
  5
2F4
102
{ACAD_XDICTIONARY
360
102C
102
}
330
2C3
100
AcDbSymbolTableRecord
100
AcDbLayerTableRecord
  2
CONSTRUCTION
 70
     0
 62
     7
  6
CONTINUOUS
370
    -3
390
2D0
  0
LAYER
  5
2F5
102
{ACAD_XDICTIONARY
360
102E
102
}
330
2C3
100
AcDbSymbolTableRecord
100
AcDbLayerTableRecord
  2
DIMENSION
 70
     0
 62
     7
  6
CONTINUOUS
370
    -3
390
2D0
  0
LAYER
  5
2F6
102
{ACAD_XDICTIONARY
360
1030
102
}
330
2C3
100
AcDbSymbolTableRecord
100
AcDbLayerTableRecord
  2
FORMAT
 70
     0
 62
     7
  6
CONTINUOUS
370
    -3
390
2D0
  0
LAYER
  5
2F7
102
{ACAD_XDICTIONARY
360
1032
102
}
330
2C3
100
AcDbSymbolTableRecord
100
AcDbLayerTableRecord
  2
____2
 70
     0
 62
     5
  6
CONTINUOUS
370
    -3
390
2D0
  0
LAYER
  5
2F8
102
{ACAD_XDICTIONARY
360
1034
102
}
330
2C3
100
AcDbSymbolTableRecord
100
AcDbLayerTableRecord
  2
0_1
 70
     0
 62
     5
  6
CONTINUOUS
370
    -3
390
2D0
  0
LAYER
  5
2F9
102
{ACAD_XDICTIONARY
360
1036
102
}
330
2C3
100
AcDbSymbolTableRecord
100
AcDbLayerTableRecord
  2
DEFPOINTS_1
 70
     0
 62
     5
  6
CONTINUOUS
370
    -3
390
2D0
  0
ENDTAB
  0
TABLE
  2
STYLE
  5
2C4
330
0
100
AcDbSymbolTable
 70
     2
  0
STYLE
  5
2D2
330
2C4
100
AcDbSymbolTableRecord
100
AcDbTextStyleTableRecord
  2
STANDARD
 70
     0
 40
0.0
 41
1.0
 50
0.0
 71
     0
 42
0.35
  3
txt
  4

  0
STYLE
  5
2FA
330
2C4
100
AcDbSymbolTableRecord
100
AcDbTextStyleTableRecord
  2
STYLE1
 70
     0
 40
0.0
 41
1.0
 50
0.0
 71
     0
 42
0.35
  3
ＭＳ ゴシック
  4

  0
ENDTAB
  0
TABLE
  2
VIEW
  5
2C7
330
0
100
AcDbSymbolTable
 70
     0
  0
ENDTAB
  0
TABLE
  2
UCS
  5
2C8
330
0
100
AcDbSymbolTable
 70
     0
  0
ENDTAB
  0
TABLE
  2
APPID
  5
2CA
330
0
100
AcDbSymbolTable
 70
     4
  0
APPID
  5
2D3
330
2CA
100
AcDbSymbolTableRecord
100
AcDbRegAppTableRecord
  2
ACAD
 70
     0
  0
APPID
  5
E69
330
2CA
100
AcDbSymbolTableRecord
100
AcDbRegAppTableRecord
  2
ACAD_NAV_VCDISPLAY
 70
     0
  0
APPID
  5
FFA
330
2CA
100
AcDbSymbolTableRecord
100
AcDbRegAppTableRecord
  2
ACAD_EXEMPT_FROM_CAD_STANDARDS
 70
     0
  0
APPID
  5
10C0
330
2CA
100
AcDbSymbolTableRecord
100
AcDbRegAppTableRecord
  2
ACAD_MLEADERVER
 70
     0
  0
ENDTAB
  0
TABLE
  2
DIMSTYLE
  5
2CB
330
0
100
AcDbSymbolTable
 70
     1
100
AcDbDimStyleTable
 71
     0
  0
DIMSTYLE
105
49E
330
2CB
100
AcDbSymbolTableRecord
100
AcDbDimStyleTableRecord
  2
Standard
 70
     0
340
2D2
  0
ENDTAB
  0
TABLE
  2
BLOCK_RECORD
  5
2C2
330
0
100
AcDbSymbolTable
 70
     6
  0
BLOCK_RECORD
  5
2E1
330
2C2
100
AcDbSymbolTableRecord
100
AcDbBlockTableRecord
  2
*Model_Space
340
2E4
  0
BLOCK_RECORD
  5
2DD
330
2C2
100
AcDbSymbolTableRecord
100
AcDbBlockTableRecord
  2
*Paper_Space
340
2E0
  0
BLOCK_RECORD
  5
30F
330
2C2
100
AcDbSymbolTableRecord
100
AcDbBlockTableRecord
  2
C0
340
0
  0
BLOCK_RECORD
  5
3E6
330
2C2
100
AcDbSymbolTableRecord
100
AcDbBlockTableRecord
  2
C1
340
0
  0
BLOCK_RECORD
  5
3ED
330
2C2
100
AcDbSymbolTableRecord
100
AcDbBlockTableRecord
  2
C2
340
0
  0
BLOCK_RECORD
  5
3F4
330
2C2
100
AcDbSymbolTableRecord
100
AcDbBlockTableRecord
  2
C3
340
0
  0
BLOCK_RECORD
  5
3FB
330
2C2
100
AcDbSymbolTableRecord
100
AcDbBlockTableRecord
  2
C4
340
0
  0
BLOCK_RECORD
  5
402
330
2C2
100
AcDbSymbolTableRecord
100
AcDbBlockTableRecord
  2
C5
340
0
  0
ENDTAB
  0
ENDSEC
  0
SECTION
  2
BLOCKS
  0
BLOCK
  5
2E2
330
2E1
100
AcDbEntity
  8
0
100
AcDbBlockBegin
  2
*Model_Space
 70
     0
 10
0.0
 20
0.0
 30
0.0
  3
*Model_Space
  1

  0
ENDBLK
  5
2E3
330
2E1
100
AcDbEntity
  8
0
100
AcDbBlockEnd
  0
BLOCK
  5
2DE
330
2DD
100
AcDbEntity
 67
     1
  8
0
100
AcDbBlockBegin
  2
*Paper_Space
 70
     0
 10
0.0
 20
0.0
 30
0.0
  3
*Paper_Space
  1

  0
ENDBLK
  5
2DF
330
2DD
100
AcDbEntity
 67
     1
  8
0
100
AcDbBlockEnd
  0
BLOCK
  5
310
330
30F
100
AcDbEntity
  8
0
100
AcDbBlockBegin
  2
C0
 70
     0
 10
0.0
 20
0.0
 30
0.0
  3
C0
  1

  0
ARC
  5
311
330
30F
100
AcDbEntity
  8
0
  6
Continuous
 62
     5
100
AcDbCircle
 10
835.5804847577649
 20
-40.31046572975207
 30
0.0
 40
3.000000000000012
100
AcDbArc
 50
180.0000052256252
 51
252.9701417719282
  0
LINE
  5
312
330
30F
100
AcDbEntity
  8
0
  6
Continuous
 62
     5
100
AcDbLine
 10
832.580484757765
 20
-40.31046600336517
 30
0.0
 11
832.580484757765
 21
-37.31046572975207
 31
0.0
  0
LINE
  5
313
330
30F
100
AcDbEntity
  8
0
  6
Continuous
 62
     5
100
AcDbLine
 10
832.580484757765
 20
-37.31046572975207
 30
0.0
 11
893.8209803574903
 21
-37.31046572975241
 31
0.0
  0
ARC
  5
314
330
30F
100
AcDbEntity
  8
0
  6
Continuous
 62
     5
100
AcDbCircle
 10
629.6928615893087
 20
-712.4855073863346
 30
0.0
 40
699.9999999999866
100
AcDbArc
 50
53.15398791734541
 51
72.97014177192429
  0
ARC
  5
315
330
30F
100
AcDbEntity
  8
0
  6
Continuous
 62
     5
100
AcDbCircle
 10
629.6928615893087
 20
-712.4855073863346
 30
0.0
 40
724.9999999999879
100
AcDbArc
 50
54.62058428187418
 51
68.63458902579956
  0
LINE
  5
316
330
30F
100
AcDbEntity
  8
0
  6
Continuous
 62
     5
100
AcDbLine
 10
1049.45937133613
 20
-121.367010556001
 30
0.0
 11
1049.45937133613
 21
-152.3104657297533
 31
0.0
  0
ENDBLK
  5
317
330
30F
100
AcDbEntity
  8
0
100
AcDbBlockEnd
  0
BLOCK
  5
3E7
330
3E6
100
AcDbEntity
  8
0
100
AcDbBlockBegin
  2
C1
 70
     0
 10
0.0
 20
0.0
 30
0.0
  3
C1
  1

  0
TEXT
  5
3E8
330
3E6
100
AcDbEntity
  8
____1
  6
Continuous
 62
     7
100
AcDbText
 10
1137.245706175558
 20
-426.6531708278292
 30
0.0
 40
5.853287887573243
  1
1
  7
STYLE1
100
AcDbText
  0
LINE
  5
3E9
330
3E6
100
AcDbEntity
  8
____1
  6
Continuous
 62
     5
100
AcDbLine
 10
1133.759027994791
 20
-427.7531194559449
 30
0.0
 11
1143.659027994791
 21
-427.7531194559449
 31
0.0
  0
LINE
  5
3EA
330
3E6
100
AcDbEntity
  8
____1
  6
Continuous
 62
     5
100
AcDbLine
 10
1138.709027994791
 20
-419.1794679584789
 30
0.0
 11
1143.659027994791
 21
-427.7531194559449
 31
0.0
  0
LINE
  5
3EB
330
3E6
100
AcDbEntity
  8
____1
  6
Continuous
 62
     5
100
AcDbLine
 10
1138.709027994791
 20
-419.1794679584789
 30
0.0
 11
1133.759027994791
 21
-427.7531194559449
 31
0.0
  0
ENDBLK
  5
3EC
330
3E6
100
AcDbEntity
  8
0
100
AcDbBlockEnd
  0
BLOCK
  5
3EE
330
3ED
100
AcDbEntity
  8
0
100
AcDbBlockBegin
  2
C2
 70
     0
 10
0.0
 20
0.0
 30
0.0
  3
C2
  1

  0
TEXT
  5
3EF
330
3ED
100
AcDbEntity
  8
____1
  6
Continuous
 62
     7
100
AcDbText
 10
1086.347733146812
 20
-409.8497975019113
 30
0.0
 40
5.853287887573243
  1
1
  7
STYLE1
100
AcDbText
  0
LINE
  5
3F0
330
3ED
100
AcDbEntity
  8
____1
  6
Continuous
 62
     5
100
AcDbLine
 10
1082.861054966045
 20
-410.9497461300271
 30
0.0
 11
1092.761054966045
 21
-410.9497461300271
 31
0.0
  0
LINE
  5
3F1
330
3ED
100
AcDbEntity
  8
____1
  6
Continuous
 62
     5
100
AcDbLine
 10
1087.811054966045
 20
-402.3760946325612
 30
0.0
 11
1092.761054966045
 21
-410.9497461300271
 31
0.0
  0
LINE
  5
3F2
330
3ED
100
AcDbEntity
  8
____1
  6
Continuous
 62
     5
100
AcDbLine
 10
1087.811054966045
 20
-402.3760946325612
 30
0.0
 11
1082.861054966045
 21
-410.9497461300271
 31
0.0
  0
ENDBLK
  5
3F3
330
3ED
100
AcDbEntity
  8
0
100
AcDbBlockEnd
  0
BLOCK
  5
3F5
330
3F4
100
AcDbEntity
  8
0
100
AcDbBlockBegin
  2
C3
 70
     0
 10
0.0
 20
0.0
 30
0.0
  3
C3
  1

  0
TEXT
  5
3F6
330
3F4
100
AcDbEntity
  8
____1
  6
Continuous
 62
     7
100
AcDbText
 10
1060.90156728648
 20
40.30737654901487
 30
0.0
 40
5.853287887573243
  1
1
  7
STYLE1
100
AcDbText
  0
LINE
  5
3F7
330
3F4
100
AcDbEntity
  8
____1
  6
Continuous
 62
     5
100
AcDbLine
 10
1057.414889105713
 20
39.207427920899
 30
0.0
 11
1067.314889105713
 21
39.207427920899
 31
0.0
  0
LINE
  5
3F8
330
3F4
100
AcDbEntity
  8
____1
  6
Continuous
 62
     5
100
AcDbLine
 10
1062.364889105713
 20
47.78107941836501
 30
0.0
 11
1067.314889105713
 21
39.207427920899
 31
0.0
  0
LINE
  5
3F9
330
3F4
100
AcDbEntity
  8
____1
  6
Continuous
 62
     5
100
AcDbLine
 10
1062.364889105713
 20
47.78107941836501
 30
0.0
 11
1057.414889105713
 21
39.207427920899
 31
0.0
  0
ENDBLK
  5
3FA
330
3F4
100
AcDbEntity
  8
0
100
AcDbBlockEnd
  0
BLOCK
  5
3FC
330
3FB
100
AcDbEntity
  8
0
100
AcDbBlockBegin
  2
C4
 70
     0
 10
0.0
 20
0.0
 30
0.0
  3
C4
  1

  0
LINE
  5
3FD
330
3FB
100
AcDbEntity
  8
____1
  6
Continuous
 62
     5
100
AcDbLine
 10
1062.364889105713
 20
37.78107941836515
 30
0.0
 11
1057.414889105713
 21
29.20742792089914
 31
0.0
  0
LINE
  5
3FE
330
3FB
100
AcDbEntity
  8
____1
  6
Continuous
 62
     5
100
AcDbLine
 10
1062.364889105713
 20
37.78107941836515
 30
0.0
 11
1067.314889105713
 21
29.20742792089914
 31
0.0
  0
LINE
  5
3FF
330
3FB
100
AcDbEntity
  8
____1
  6
Continuous
 62
     5
100
AcDbLine
 10
1057.414889105713
 20
29.20742792089914
 30
0.0
 11
1067.314889105713
 21
29.20742792089914
 31
0.0
  0
TEXT
  5
400
330
3FB
100
AcDbEntity
  8
____1
  6
Continuous
 62
     7
100
AcDbText
 10
1060.90156728648
 20
30.307376549015
 30
0.0
 40
5.853287887573243
  1
2
  7
STYLE1
100
AcDbText
  0
ENDBLK
  5
401
330
3FB
100
AcDbEntity
  8
0
100
AcDbBlockEnd
  0
BLOCK
  5
403
330
402
100
AcDbEntity
  8
0
100
AcDbBlockBegin
  2
C5
 70
     0
 10
0.0
 20
0.0
 30
0.0
  3
C5
  1

  0
LINE
  5
404
330
402
100
AcDbEntity
  8
____1
  6
Continuous
 62
     5
100
AcDbLine
 10
1198.175286401168
 20
-442.0480449668351
 30
0.0
 11
1193.225286401168
 21
-450.6216964643012
 31
0.0
  0
LINE
  5
405
330
402
100
AcDbEntity
  8
____1
  6
Continuous
 62
     5
100
AcDbLine
 10
1198.175286401168
 20
-442.0480449668351
 30
0.0
 11
1203.125286401168
 21
-450.6216964643012
 31
0.0
  0
LINE
  5
406
330
402
100
AcDbEntity
  8
____1
  6
Continuous
 62
     5
100
AcDbLine
 10
1193.225286401168
 20
-450.6216964643012
 30
0.0
 11
1203.125286401168
 21
-450.6216964643012
 31
0.0
  0
TEXT
  5
407
330
402
100
AcDbEntity
  8
____1
  6
Continuous
 62
     7
100
AcDbText
 10
1196.711964581935
 20
-449.5217478361852
 30
0.0
 40
5.853287887573243
  1
2
  7
STYLE1
100
AcDbText
  0
ENDBLK
  5
408
330
402
100
AcDbEntity
  8
0
100
AcDbBlockEnd
  0
ENDSEC
  0
SECTION
  2
ENTITIES
  0
LWPOLYLINE
  5
7D8
330
2E1
100
AcDbEntity
  8
DEFPOINTS
100
AcDbPolyline
 90
        4
 70
     1
 43
0.0
 10
1281.296006746545
 20
763.1743470988176
 10
439.3010067465467
 20
763.1743470988176
 10
439.3010067465467
 20
167.8243470988175
 10
1281.296006746545
 20
167.8243470988175
  0
LINE
  5
7DD
330
2E1
100
AcDbEntity
  8
____1
  6
Continuous
 62
     0
100
AcDbLine
 10
1083.782435974462
 20
708.6859306008242
 30
0.0
 11
1093.682435974462
 21
708.6859306008242
 31
0.0
  0
LINE
  5
7DE
330
2E1
100
AcDbEntity
  8
____1
  6
Continuous
 62
     0
100
AcDbLine
 10
1088.732435974462
 20
717.2595820982902
 30
0.0
 11
1083.782435974462
 21
708.6859306008242
 31
0.0
  0
LINE
  5
7DF
330
2E1
100
AcDbEntity
  8
____1
  6
Continuous
 62
     0
100
AcDbLine
 10
1088.732435974462
 20
717.2595820982902
 30
0.0
 11
1093.682435974462
 21
708.6859306008242
 31
0.0
  0
TEXT
  5
7E0
330
2E1
100
AcDbEntity
  8
____1
  6
Continuous
 62
     0
100
AcDbText
 10
1087.269114155228
 20
709.7858792289401
 30
0.0
 40
4.682630310058594
  1
3
  7
STYLE1
100
AcDbText
  0
TEXT
  5
7E1
330
2E1
100
AcDbEntity
  8
____1
  6
Continuous
 62
     0
100
AcDbText
 10
1108.717673731105
 20
710.3447840400177
 30
0.0
 40
4.93888874053955
  1
H25.03
  7
STYLE1
100
AcDbText
  0
LINE
  5
7E2
330
2E1
100
AcDbEntity
  8
____1
  6
Continuous
 62
     0
100
AcDbLine
 10
1079.301006746547
 20
707.8243470988176
 30
0.0
 11
1259.301006746546
 21
707.8243470988176
 31
0.0
  0
TEXT
  5
7E3
330
2E1
100
AcDbEntity
  8
____1
  6
Continuous
 62
     0
100
AcDbText
 10
1143.966242709352
 20
710.3447840400177
 30
0.0
 40
4.93888874053955
  1
ﾈｼﾞ仕様変更（木ﾈｼﾞ ⇒ 皿ﾀｯﾋﾟﾝﾈｼﾞ）
  7
STYLE1
100
AcDbText
  0
TEXT
  5
7E4
330
2E1
100
AcDbEntity
  8
____1
  6
Continuous
 62
     0
100
AcDbText
 10
1087.269114155228
 20
719.7858792289401
 30
0.0
 40
4.682630310058594
  1
2
  7
STYLE1
100
AcDbText
  0
LINE
  5
7E5
330
2E1
100
AcDbEntity
  8
____1
  6
Continuous
 62
     0
100
AcDbLine
 10
1083.782435974462
 20
718.6859306008241
 30
0.0
 11
1093.682435974462
 21
718.6859306008241
 31
0.0
  0
LINE
  5
7E6
330
2E1
100
AcDbEntity
  8
____1
  6
Continuous
 62
     0
100
AcDbLine
 10
1088.732435974462
 20
727.2595820982901
 30
0.0
 11
1093.682435974462
 21
718.6859306008241
 31
0.0
  0
LINE
  5
7E7
330
2E1
100
AcDbEntity
  8
____1
  6
Continuous
 62
     0
100
AcDbLine
 10
1088.732435974462
 20
727.2595820982901
 30
0.0
 11
1083.782435974462
 21
718.6859306008241
 31
0.0
  0
LINE
  5
7E8
330
2E1
100
AcDbEntity
  8
____1
  6
Continuous
 62
     0
100
AcDbLine
 10
1088.732435974462
 20
737.25958209829
 30
0.0
 11
1083.782435974462
 21
728.6859306008239
 31
0.0
  0
LINE
  5
7E9
330
2E1
100
AcDbEntity
  8
____1
  6
Continuous
 62
     0
100
AcDbLine
 10
1088.732435974462
 20
737.25958209829
 30
0.0
 11
1093.682435974462
 21
728.6859306008239
 31
0.0
  0
LINE
  5
7EA
330
2E1
100
AcDbEntity
  8
____1
  6
Continuous
 62
     0
100
AcDbLine
 10
1083.782435974462
 20
728.6859306008239
 30
0.0
 11
1093.682435974462
 21
728.6859306008239
 31
0.0
  0
TEXT
  5
7EB
330
2E1
100
AcDbEntity
  8
____1
  6
Continuous
 62
     0
100
AcDbText
 10
1087.269114155229
 20
729.7858792289398
 30
0.0
 40
4.682630310058594
  1
1
  7
STYLE1
100
AcDbText
  0
TEXT
  5
803
330
2E1
100
AcDbEntity
  8
____1
  6
Continuous
 62
     0
100
AcDbText
 10
1108.717673731105
 20
720.3447840400175
 30
0.0
 40
4.93888874053955
  1
H22.12
  7
STYLE1
100
AcDbText
  0
TEXT
  5
804
330
2E1
100
AcDbEntity
  8
____1
  6
Continuous
 62
     0
100
AcDbText
 10
1160.495453310267
 20
720.3447840400175
 30
0.0
 40
4.93888874053955
  1
品番変更　LY633→LY833
  7
STYLE1
100
AcDbText
  0
TEXT
  5
806
330
2E1
100
AcDbEntity
  8
____1
  6
Continuous
 62
     0
100
AcDbText
 10
1149.912119341151
 20
730.3447840400174
 30
0.0
 40
4.93888874053955
  1
色変更アイボリー → ホワイト
  7
STYLE1
100
AcDbText
  0
TEXT
  5
807
330
2E1
100
AcDbEntity
  8
____1
  6
Continuous
 62
     0
100
AcDbText
 10
1174.606563997524
 20
740.2739350386918
 30
0.0
 40
4.93888874053955
  1
改　訂　内　容
  7
STYLE1
100
AcDbText
  0
LINE
  5
808
330
2E1
100
AcDbEntity
  8
____1
  6
Continuous
 62
     0
100
AcDbLine
 10
1139.301006746547
 20
697.8243470988178
 30
0.0
 11
1139.301006746547
 21
747.8243470988175
 31
0.0
  0
LINE
  5
809
330
2E1
100
AcDbEntity
  8
____1
  6
Continuous
 62
     0
100
AcDbLine
 10
1139.301006746547
 20
717.8243470988176
 30
0.0
 11
1139.301006746547
 21
747.8243470988175
 31
0.0
  0
LINE
  5
80A
330
2E1
100
AcDbEntity
  8
____1
  6
Continuous
 62
     0
100
AcDbLine
 10
1099.301006746547
 20
697.8243470988178
 30
0.0
 11
1099.301006746547
 21
747.8243470988175
 31
0.0
  0
LINE
  5
817
330
2E1
100
AcDbEntity
  8
____1
  6
Continuous
 62
     0
100
AcDbLine
 10
1079.301006746547
 20
697.8243470988178
 30
0.0
 11
1079.301006746547
 21
747.8243470988175
 31
0.0
  0
LINE
  5
818
330
2E1
100
AcDbEntity
  8
____1
  6
Continuous
 62
     0
100
AcDbLine
 10
1088.732435974462
 20
747.1595820982899
 30
0.0
 11
1083.782435974462
 21
738.585930600824
 31
0.0
  0
LINE
  5
819
330
2E1
100
AcDbEntity
  8
____1
  6
Continuous
 62
     0
100
AcDbLine
 10
1088.732435974462
 20
747.1595820982899
 30
0.0
 11
1093.682435974462
 21
738.585930600824
 31
0.0
  0
LINE
  5
81A
330
2E1
100
AcDbEntity
  8
____1
  6
Continuous
 62
     0
100
AcDbLine
 10
1083.782435974462
 20
738.585930600824
 30
0.0
 11
1093.682435974462
 21
738.585930600824
 31
0.0
  0
TEXT
  5
81B
330
2E1
100
AcDbEntity
  8
____1
  6
Continuous
 62
     0
100
AcDbText
 10
1108.717673731105
 20
730.3447840400174
 30
0.0
 40
4.93888874053955
  1
H22.11
  7
STYLE1
100
AcDbText
  0
LINE
  5
81C
330
2E1
100
AcDbEntity
  8
____1
  6
Continuous
 62
     0
100
AcDbLine
 10
1079.301006746547
 20
727.8243470988175
 30
0.0
 11
1259.301006746546
 21
727.8243470988175
 31
0.0
  0
LINE
  5
81D
330
2E1
100
AcDbEntity
  8
____1
  6
Continuous
 62
     0
100
AcDbLine
 10
1079.301006746547
 20
737.8243470988175
 30
0.0
 11
1259.301006746546
 21
737.8243470988175
 31
0.0
  0
LINE
  5
81E
330
2E1
100
AcDbEntity
  8
____1
  6
Continuous
 62
     0
100
AcDbLine
 10
1079.301006746547
 20
717.8243470988176
 30
0.0
 11
1259.301006746546
 21
717.8243470988176
 31
0.0
  0
TEXT
  5
81F
330
2E1
100
AcDbEntity
  8
____1
  6
Continuous
 62
     0
100
AcDbText
 10
1108.717673731105
 20
740.2739350386918
 30
0.0
 40
4.93888874053955
  1
改訂日
  7
STYLE1
100
AcDbText
  0
POLYLINE
  5
824
330
2E1
100
AcDbEntity
  8
____1
  6
Continuous
 62
     0
100
AcDb3dPolyline
 66
     1
 10
0.0
 20
0.0
 30
0.0
 70
     8
  0
VERTEX
  5
825
330
824
100
AcDbEntity
  8
____1
 62
     0
100
AcDbVertex
100
AcDb3dPolylineVertex
 10
1065.676786655495
 20
200.1475082464793
 30
0.0
 70
    32
  0
VERTEX
  5
826
330
824
100
AcDbEntity
  8
____1
 62
     0
100
AcDbVertex
100
AcDb3dPolylineVertex
 10
1067.055173483766
 20
198.8873422231745
 30
0.0
 70
    32
  0
VERTEX
  5
827
330
824
100
AcDbEntity
  8
____1
 62
     0
100
AcDbVertex
100
AcDb3dPolylineVertex
 10
1068.456097508577
 20
197.6688486694306
 30
0.0
 70
    32
  0
VERTEX
  5
828
330
824
100
AcDbEntity
  8
____1
 62
     0
100
AcDbVertex
100
AcDb3dPolylineVertex
 10
1069.902095926464
 20
196.5337000548088
 30
0.0
 70
    32
  0
VERTEX
  5
829
330
824
100
AcDbEntity
  8
____1
 62
     0
100
AcDbVertex
100
AcDb3dPolylineVertex
 10
1071.415705933968
 20
195.5235688488699
 30
0.0
 70
    32
  0
VERTEX
  5
82A
330
824
100
AcDbEntity
  8
____1
 62
     0
100
AcDbVertex
100
AcDb3dPolylineVertex
 10
1071.415705937885
 20
195.5235688465178
 30
0.0
 70
    32
  0
SEQEND
  5
82B
330
824
100
AcDbEntity
  8
____1
 62
     0
  0
LINE
  5
82C
330
2E1
100
AcDbEntity
  8
____1
  6
Continuous
 62
     7
100
AcDbLine
 10
964.3010067465469
 20
220.8243470988175
 30
0.0
 11
1034.301006746546
 21
220.8243470988175
 31
0.0
  0
TEXT
  5
82D
330
2E1
100
AcDbEntity
  8
____1
  6
Continuous
 62
     7
100
AcDbText
 10
959.3010067465465
 20
223.7784531313908
 30
0.0
 40
5.644444274902344
  1
 設計　　 岸本
  7
STYLE1
100
AcDbText
  0
TEXT
  5
82E
330
2E1
100
AcDbEntity
  8
____1
  6
Continuous
 62
     7
100
AcDbText
 10
959.3010067465465
 20
212.7784531313908
 30
0.0
 40
5.644444274902344
  1
 製図　　 岸本
  7
STYLE1
100
AcDbText
  0
TEXT
  5
82F
330
2E1
100
AcDbEntity
  8
____1
  6
Continuous
 62
     7
100
AcDbText
 10
961.4113699638007
 20
245.7784531313908
 30
0.0
 40
5.644444274902344
  1
 日　　付
  7
STYLE1
100
AcDbText
  0
TEXT
  5
830
330
2E1
100
AcDbEntity
  8
____1
  6
Continuous
 62
     7
100
AcDbText
 10
1121.534350420186
 20
245.777300978232
 30
0.0
 40
5.644444274902344
  1
型番
  7
STYLE1
100
AcDbText
  0
TEXT
  5
831
330
2E1
100
AcDbEntity
  8
____1
  6
Continuous
 62
     7
100
AcDbText
 10
1121.534350420186
 20
223.777300978232
 30
0.0
 40
5.644444274902344
  1
品名
  7
STYLE1
100
AcDbText
  0
TEXT
  5
832
330
2E1
100
AcDbEntity
  8
____1
  6
Continuous
 62
     7
100
AcDbText
 10
1121.534350420186
 20
201.777300978232
 30
0.0
 40
5.644444274902344
  1
図番
  7
STYLE1
100
AcDbText
  0
LINE
  5
833
330
2E1
100
AcDbEntity
  8
____1
  6
Continuous
 62
     5
100
AcDbLine
 10
459.3010067465467
 20
187.8243470988175
 30
0.0
 11
459.3010067465467
 21
747.8243470988175
 31
0.0
  0
ARC
  5
834
330
2E1
100
AcDbEntity
  8
____1
  6
Continuous
 62
     0
100
AcDbCircle
 10
1067.980786655495
 20
201.9604116736077
 30
0.0
 40
7.29600000000006
100
AcDbArc
 50
331.3992813832578
 51
358.4920422457636
  0
LINE
  5
835
330
2E1
100
AcDbEntity
  8
____1
  6
Continuous
 62
     0
100
AcDbLine
 10
1057.688423019132
 20
198.5044116736077
 30
0.0
 11
1060.568423019132
 21
198.5044116736077
 31
0.0
  0
ARC
  5
836
330
2E1
100
AcDbEntity
  8
____1
  6
Continuous
 62
     0
100
AcDbCircle
 10
1070.476786655495
 20
202.3444116736077
 30
0.0
 40
10.56000000000012
100
AcDbArc
 50
270.0
 51
302.5449588540466
  0
LINE
  5
844
330
2E1
100
AcDbEntity
  8
____1
  6
Continuous
 62
     0
100
AcDbLine
 10
1060.568423019132
 20
201.3844116736078
 30
0.0
 11
1057.688423019132
 21
201.3844116736078
 31
0.0
  0
LINE
  5
845
330
2E1
100
AcDbEntity
  8
____1
  6
Continuous
 62
     0
100
AcDbLine
 10
1057.688423019132
 20
201.3844116736078
 30
0.0
 11
1057.688423019132
 21
202.3444116736077
 31
0.0
  0
LINE
  5
846
330
2E1
100
AcDbEntity
  8
____1
  6
Continuous
 62
     0
100
AcDbLine
 10
1087.2143533402
 20
201.9604116736077
 30
0.0
 11
1092.0117933402
 21
201.9604116736077
 31
0.0
  0
LINE
  5
847
330
2E1
100
AcDbEntity
  8
____1
  6
Continuous
 62
     0
100
AcDbLine
 10
1097.168727943374
 20
202.9371711433047
 30
0.0
 11
1098.7343533402
 21
205.2244116736078
 31
0.0
  0
LINE
  5
848
330
2E1
100
AcDbEntity
  8
____1
  6
Continuous
 62
     0
100
AcDbLine
 10
1044.248423019132
 20
198.5044116736077
 30
0.0
 11
1044.248423019132
 21
195.6244116736078
 31
0.0
  0
LINE
  5
849
330
2E1
100
AcDbEntity
  8
____1
  6
Continuous
 62
     7
100
AcDbLine
 10
964.3010067465469
 20
242.8243470988176
 30
0.0
 11
994.3010067465468
 21
242.8243470988176
 31
0.0
  0
LINE
  5
84A
330
2E1
100
AcDbEntity
  8
____1
  6
Continuous
 62
     7
100
AcDbLine
 10
1004.301006746547
 20
242.8243470988176
 30
0.0
 11
1034.301006746546
 21
242.8243470988176
 31
0.0
  0
LINE
  5
84B
330
2E1
100
AcDbEntity
  8
____1
  6
Continuous
 62
     7
100
AcDbLine
 10
1044.301006746546
 20
242.8243470988176
 30
0.0
 11
1074.301006746546
 21
242.8243470988176
 31
0.0
  0
LINE
  5
84C
330
2E1
100
AcDbEntity
  8
____1
  6
Continuous
 62
     7
100
AcDbLine
 10
1044.301006746546
 20
220.8243470988175
 30
0.0
 11
1074.301006746546
 21
220.8243470988175
 31
0.0
  0
LINE
  5
84D
330
2E1
100
AcDbEntity
  8
____1
  6
Continuous
 62
     7
100
AcDbLine
 10
999.3010067465464
 20
253.8243470988176
 30
0.0
 11
999.3010067465464
 21
231.8243470988175
 31
0.0
  0
LINE
  5
84E
330
2E1
100
AcDbEntity
  8
____1
  6
Continuous
 62
     0
100
AcDbLine
 10
1097.449804903805
 20
201.9604116736077
 30
0.0
 11
1097.168727943374
 21
202.9371711433047
 31
0.0
  0
LINE
  5
84F
330
2E1
100
AcDbEntity
  8
____1
  6
Continuous
 62
     0
100
AcDbLine
 10
1082.956786655495
 20
205.2244116736078
 30
0.0
 11
1065.676786655495
 21
205.2244116736078
 31
0.0
  0
POLYLINE
  5
85A
330
2E1
100
AcDbEntity
  8
____1
  6
Continuous
 62
     0
100
AcDb3dPolyline
 66
     1
 10
0.0
 20
0.0
 30
0.0
 70
     8
  0
VERTEX
  5
85B
330
85A
100
AcDbEntity
  8
____1
 62
     0
100
AcDbVertex
100
AcDb3dPolylineVertex
 10
1078.511251856703
 20
195.5792737155347
 30
0.0
 70
    32
  0
VERTEX
  5
85C
330
85A
100
AcDbEntity
  8
____1
 62
     0
100
AcDbVertex
100
AcDb3dPolylineVertex
 10
1079.592371948059
 20
195.3018356740227
 30
0.0
 70
    32
  0
VERTEX
  5
85D
330
85A
100
AcDbEntity
  8
____1
 62
     0
100
AcDbVertex
100
AcDb3dPolylineVertex
 10
1080.699432275137
 20
195.0661598019653
 30
0.0
 70
    32
  0
VERTEX
  5
85E
330
85A
100
AcDbEntity
  8
____1
 62
     0
100
AcDbVertex
100
AcDb3dPolylineVertex
 10
1082.956786655495
 20
194.6644116736078
 30
0.0
 70
    32
  0
SEQEND
  5
85F
330
85A
100
AcDbEntity
  8
____1
 62
     0
  0
POLYLINE
  5
860
330
2E1
100
AcDbEntity
  8
____1
  6
Continuous
 62
     0
100
AcDb3dPolyline
 66
     1
 10
0.0
 20
0.0
 30
0.0
 70
     8
  0
VERTEX
  5
861
330
860
100
AcDbEntity
  8
____1
 62
     0
100
AcDbVertex
100
AcDb3dPolylineVertex
 10
1072.270670639593
 20
199.6798439441411
 30
0.0
 70
    32
  0
VERTEX
  5
862
330
860
100
AcDbEntity
  8
____1
 62
     0
100
AcDbVertex
100
AcDb3dPolylineVertex
 10
1073.080851589068
 20
198.7917201813559
 30
0.0
 70
    32
  0
VERTEX
  5
863
330
860
100
AcDbEntity
  8
____1
 62
     0
100
AcDbVertex
100
AcDb3dPolylineVertex
 10
1073.924562691405
 20
197.9575778835329
 30
0.0
 70
    32
  0
SEQEND
  5
864
330
860
100
AcDbEntity
  8
____1
 62
     0
  0
POLYLINE
  5
865
330
2E1
100
AcDbEntity
  8
____1
  6
Continuous
 62
     0
100
AcDb3dPolyline
 66
     1
 10
0.0
 20
0.0
 30
0.0
 70
     8
  0
VERTEX
  5
866
330
865
100
AcDbEntity
  8
____1
 62
     0
100
AcDbVertex
100
AcDb3dPolylineVertex
 10
1076.157657300168
 20
193.4426529306122
 30
0.0
 70
    32
  0
VERTEX
  5
867
330
865
100
AcDbEntity
  8
____1
 62
     0
100
AcDbVertex
100
AcDb3dPolylineVertex
 10
1077.818394019552
 20
192.9558951988558
 30
0.0
 70
    32
  0
VERTEX
  5
868
330
865
100
AcDbEntity
  8
____1
 62
     0
100
AcDbVertex
100
AcDb3dPolylineVertex
 10
1079.512598412749
 20
192.5310209678182
 30
0.0
 70
    32
  0
VERTEX
  5
869
330
865
100
AcDbEntity
  8
____1
 62
     0
100
AcDbVertex
100
AcDb3dPolylineVertex
 10
1082.956786655495
 20
191.7844116736078
 30
0.0
 70
    32
  0
SEQEND
  5
86A
330
865
100
AcDbEntity
  8
____1
 62
     0
  0
LINE
  5
86B
330
2E1
100
AcDbEntity
  8
____1
  6
Continuous
 62
     0
100
AcDbLine
 10
1081.036786655495
 20
202.3444116736077
 30
0.0
 11
1082.956786655495
 21
205.2244116736078
 31
0.0
  0
LINE
  5
86C
330
2E1
100
AcDbEntity
  8
____1
  6
Continuous
 62
     0
100
AcDbLine
 10
1065.676786655495
 20
194.6644116736078
 30
0.0
 11
1065.676786655495
 21
191.7844116736078
 31
0.0
  0
LINE
  5
86D
330
2E1
100
AcDbEntity
  8
____1
  6
Continuous
 62
     0
100
AcDbLine
 10
1065.676786655495
 20
194.6644116736078
 30
0.0
 11
1067.980786655495
 21
194.6644116736078
 31
0.0
  0
LINE
  5
86E
330
2E1
100
AcDbEntity
  8
____1
  6
Continuous
 62
     0
100
AcDbLine
 10
1091.0543533402
 20
205.2244116736078
 30
0.0
 11
1098.7343533402
 21
205.2244116736078
 31
0.0
  0
LINE
  5
86F
330
2E1
100
AcDbEntity
  8
____1
  6
Continuous
 62
     0
100
AcDbLine
 10
1044.248423019132
 20
201.3844116736078
 30
0.0
 11
1042.03830370095
 21
201.3844116736078
 31
0.0
  0
LINE
  5
870
330
2E1
100
AcDbEntity
  8
____1
  6
Continuous
 62
     0
100
AcDbLine
 10
1104.494353340199
 20
196.9684116736077
 30
0.0
 11
1104.494353340199
 21
193.5124116736078
 31
0.0
  0
LINE
  5
871
330
2E1
100
AcDbEntity
  8
____1
  6
Continuous
 62
     0
100
AcDbLine
 10
1082.956786655495
 20
194.6644116736078
 30
0.0
 11
1082.956786655495
 21
191.7844116736078
 31
0.0
  0
LINE
  5
872
330
2E1
100
AcDbEntity
  8
____1
  6
Continuous
 62
     0
100
AcDbLine
 10
1044.248423019132
 20
198.5044116736077
 30
0.0
 11
1043.95830370095
 21
198.5044116736077
 31
0.0
  0
LINE
  5
873
330
2E1
100
AcDbEntity
  8
____1
  6
Continuous
 62
     0
100
AcDbLine
 10
1044.248423019132
 20
194.6644116736078
 30
0.0
 11
1044.248423019132
 21
191.7844116736078
 31
0.0
  0
LINE
  5
874
330
2E1
100
AcDbEntity
  8
____1
  6
Continuous
 62
     0
100
AcDbLine
 10
1065.676786655495
 20
191.7844116736078
 30
0.0
 11
1065.676786655495
 21
194.6644116736078
 31
0.0
  0
LINE
  5
875
330
2E1
100
AcDbEntity
  8
____1
  6
Continuous
 62
     0
100
AcDbLine
 10
1049.048423019132
 20
198.5044116736077
 30
0.0
 11
1052.888423019132
 21
198.5044116736077
 31
0.0
  0
LINE
  5
876
330
2E1
100
AcDbEntity
  8
____1
  6
Continuous
 62
     0
100
AcDbLine
 10
1100.6543533402
 20
190.8244116736077
 30
0.0
 11
1099.880841648656
 21
193.5124116736078
 31
0.0
  0
LINE
  5
877
330
2E1
100
AcDbEntity
  8
____1
  6
Continuous
 62
     0
100
AcDbLine
 10
1042.03830370095
 20
198.5044116736077
 30
0.0
 11
1043.95830370095
 21
198.5044116736077
 31
0.0
  0
LINE
  5
878
330
2E1
100
AcDbEntity
  8
____1
  6
Continuous
 62
     0
100
AcDbLine
 10
1087.2143533402
 20
196.9684116736077
 30
0.0
 11
1093.4761133402
 21
196.9684116736077
 31
0.0
  0
LINE
  5
879
330
2E1
100
AcDbEntity
  8
____1
  6
Continuous
 62
     5
100
AcDbLine
 10
959.3010067465465
 20
187.8243470988175
 30
0.0
 11
459.3010067465467
 21
187.8243470988175
 31
0.0
  0
LINE
  5
87A
330
2E1
100
AcDbEntity
  8
____1
  6
Continuous
 62
     5
100
AcDbLine
 10
1259.301006746546
 20
747.8243470988175
 30
0.0
 11
459.3010067465465
 21
747.8243470988175
 31
0.0
  0
LINE
  5
87B
330
2E1
100
AcDbEntity
  8
____1
  6
Continuous
 62
     5
100
AcDbLine
 10
1259.301006746546
 20
253.8243470988176
 30
0.0
 11
1259.301006746546
 21
747.8243470988175
 31
0.0
  0
LINE
  5
87C
330
2E1
100
AcDbEntity
  8
____1
  6
Continuous
 62
     0
100
AcDbLine
 10
1098.886326616671
 20
196.9684116736077
 30
0.0
 11
1098.444319935789
 21
198.5044116736077
 31
0.0
  0
LINE
  5
87D
330
2E1
100
AcDbEntity
  8
____1
  6
Continuous
 62
     0
100
AcDbLine
 10
1095.2783533402
 20
190.8244116736077
 30
0.0
 11
1094.4898733402
 21
193.5124116736078
 31
0.0
  0
LINE
  5
87E
330
2E1
100
AcDbEntity
  8
____1
  6
Continuous
 62
     0
100
AcDbLine
 10
1050.008423019132
 20
194.6644116736078
 30
0.0
 11
1044.248423019132
 21
194.6644116736078
 31
0.0
  0
LINE
  5
87F
330
2E1
100
AcDbEntity
  8
____1
  6
Continuous
 62
     0
100
AcDbLine
 10
1065.676786655495
 20
201.7684116736077
 30
0.0
 11
1075.276786655495
 21
201.7684116736077
 31
0.0
  0
LINE
  5
880
330
2E1
100
AcDbEntity
  8
____1
  6
Continuous
 62
     0
100
AcDbLine
 10
1104.494353340199
 20
201.9604116736077
 30
0.0
 11
1104.494353340199
 21
198.5044116736077
 31
0.0
  0
LINE
  5
881
330
2E1
100
AcDbEntity
  8
____1
  6
Continuous
 62
     0
100
AcDbLine
 10
1087.2143533402
 20
198.5044116736077
 30
0.0
 11
1093.0255533402
 21
198.5044116736077
 31
0.0
  0
LINE
  5
882
330
2E1
100
AcDbEntity
  8
____1
  6
Continuous
 62
     0
100
AcDbLine
 10
1087.2143533402
 20
196.9684116736077
 30
0.0
 11
1087.2143533402
 21
193.5124116736078
 31
0.0
  0
LINE
  5
883
330
2E1
100
AcDbEntity
  8
____1
  6
Continuous
 62
     0
100
AcDbLine
 10
1049.048423019132
 20
195.6244116736078
 30
0.0
 11
1049.048423019132
 21
198.5044116736077
 31
0.0
  0
LINE
  5
884
330
2E1
100
AcDbEntity
  8
____1
  6
Continuous
 62
     0
100
AcDbLine
 10
1052.888423019132
 20
201.3844116736078
 30
0.0
 11
1049.048423019132
 21
201.3844116736078
 31
0.0
  0
LINE
  5
885
330
2E1
100
AcDbEntity
  8
____1
  6
Continuous
 62
     0
100
AcDbLine
 10
1051.928423019132
 20
205.2244116736078
 30
0.0
 11
1044.248423019132
 21
205.2244116736078
 31
0.0
  0
LINE
  5
886
330
2E1
100
AcDbEntity
  8
____1
  6
Continuous
 62
     0
100
AcDbLine
 10
1049.048423019132
 20
202.3444116736077
 30
0.0
 11
1051.928423019132
 21
205.2244116736078
 31
0.0
  0
LINE
  5
887
330
2E1
100
AcDbEntity
  8
____1
  6
Continuous
 62
     0
100
AcDbLine
 10
1044.248423019132
 20
205.2244116736078
 30
0.0
 11
1044.248423019132
 21
201.3844116736078
 31
0.0
  0
LINE
  5
888
330
2E1
100
AcDbEntity
  8
____1
  6
Continuous
 62
     0
100
AcDbLine
 10
1099.880841648656
 20
193.5124116736078
 30
0.0
 11
1104.494353340199
 21
193.5124116736078
 31
0.0
  0
LINE
  5
889
330
2E1
100
AcDbEntity
  8
____1
  6
Continuous
 62
     0
100
AcDbLine
 10
1092.0117933402
 20
201.9604116736077
 30
0.0
 11
1091.0543533402
 21
205.2244116736078
 31
0.0
  0
LINE
  5
88A
330
2E1
100
AcDbEntity
  8
____1
  6
Continuous
 62
     0
100
AcDbLine
 10
1097.449804903805
 20
201.9604116736077
 30
0.0
 11
1104.494353340199
 21
201.9604116736077
 31
0.0
  0
LINE
  5
88B
330
2E1
100
AcDbEntity
  8
____1
  6
Continuous
 62
     7
100
AcDbLine
 10
1039.301006746546
 20
231.8243470988175
 30
0.0
 11
1039.301006746546
 21
209.8243470988176
 31
0.0
  0
LINE
  5
88C
330
2E1
100
AcDbEntity
  8
____1
  6
Continuous
 62
     7
100
AcDbLine
 10
959.3010067465465
 20
253.8243470988176
 30
0.0
 11
959.3010067465465
 21
187.8243470988175
 31
0.0
  0
TEXT
  5
890
330
2E1
100
AcDbEntity
  8
____1
  6
Continuous
 62
     7
100
AcDbText
 10
1149.990014249943
 20
217.7965702011612
 30
0.0
 40
6.773332977294922
  1
カウンターブラケット
  7
STYLE1
100
AcDbText
  0
LINE
  5
891
330
2E1
100
AcDbEntity
  8
____1
  6
Continuous
 62
     0
100
AcDbLine
 10
1044.248423019132
 20
195.6244116736078
 30
0.0
 11
1049.048423019132
 21
195.6244116736078
 31
0.0
  0
LINE
  5
892
330
2E1
100
AcDbEntity
  8
____1
  6
Continuous
 62
     0
100
AcDbLine
 10
1057.688423019132
 20
202.3444116736077
 30
0.0
 11
1060.568423019132
 21
205.2244116736078
 31
0.0
  0
LINE
  5
893
330
2E1
100
AcDbEntity
  8
____1
  6
Continuous
 62
     0
100
AcDbLine
 10
1093.4761133402
 20
196.9684116736077
 30
0.0
 11
1093.0255533402
 21
198.5044116736077
 31
0.0
  0
LINE
  5
894
330
2E1
100
AcDbEntity
  8
____1
  6
Continuous
 62
     0
100
AcDbLine
 10
1049.048423019132
 20
201.3844116736078
 30
0.0
 11
1049.048423019132
 21
202.3444116736077
 31
0.0
  0
LINE
  5
895
330
2E1
100
AcDbEntity
  8
____1
  6
Continuous
 62
     0
100
AcDbLine
 10
1078.853207811503
 20
195.9140797523785
 30
0.0
 11
1078.511251856702
 21
195.5792737155347
 31
0.0
  0
LINE
  5
896
330
2E1
100
AcDbEntity
  8
____1
  6
Continuous
 62
     0
100
AcDbLine
 10
1081.036786655495
 20
202.3444116736077
 30
0.0
 11
1082.956786655495
 21
205.2244116736078
 31
0.0
  0
LINE
  5
897
330
2E1
100
AcDbEntity
  8
____1
  6
Continuous
 62
     0
100
AcDbLine
 10
1098.444319935789
 20
198.5044116736077
 30
0.0
 11
1104.494353340199
 21
198.5044116736077
 31
0.0
  0
LINE
  5
898
330
2E1
100
AcDbEntity
  8
____1
  6
Continuous
 62
     0
100
AcDbLine
 10
1065.676786655495
 20
191.7844116736078
 30
0.0
 11
1070.476786655495
 21
191.7844116736078
 31
0.0
  0
LINE
  5
899
330
2E1
100
AcDbEntity
  8
____1
  6
Continuous
 62
     0
100
AcDbLine
 10
1052.888423019132
 20
205.2244116736078
 30
0.0
 11
1052.888423019132
 21
201.3844116736078
 31
0.0
  0
LINE
  5
89A
330
2E1
100
AcDbEntity
  8
____1
  6
Continuous
 62
     5
100
AcDbLine
 10
959.3010067465465
 20
187.8243470988175
 30
0.0
 11
1259.301006746546
 21
187.8243470988175
 31
0.0
  0
LINE
  5
89B
330
2E1
100
AcDbEntity
  8
____1
  6
Continuous
 62
     0
100
AcDbLine
 10
1074.386506639534
 20
198.4677955357966
 30
0.0
 11
1073.924562691405
 21
197.957577883533
 31
0.0
  0
LINE
  5
89C
330
2E1
100
AcDbEntity
  8
____1
  6
Continuous
 62
     0
100
AcDbLine
 10
1065.676786655495
 20
200.7659599600435
 30
0.0
 11
1073.356786655495
 21
200.7659599600435
 31
0.0
  0
ARC
  5
89D
330
2E1
100
AcDbEntity
  8
____1
  6
Continuous
 62
     0
100
AcDbCircle
 10
1067.980786655495
 20
201.9604116736077
 30
0.0
 40
7.295999999999981
100
AcDbArc
 50
270.0
 51
298.0859048152062
  0
LINE
  5
89E
330
2E1
100
AcDbEntity
  8
____1
  6
Continuous
 62
     0
100
AcDbLine
 10
1073.356786655495
 20
200.7659599600435
 30
0.0
 11
1072.270670639593
 21
199.6798439441411
 31
0.0
  0
LINE
  5
89F
330
2E1
100
AcDbEntity
  8
____1
  6
Continuous
 62
     0
100
AcDbLine
 10
1065.676786655495
 20
200.1475082464793
 30
0.0
 11
1065.676786655495
 21
200.7659599600435
 31
0.0
  0
LINE
  5
8A0
330
2E1
100
AcDbEntity
  8
____1
  6
Continuous
 62
     0
100
AcDbLine
 10
1042.03830370095
 20
201.3844116736078
 30
0.0
 11
1042.03830370095
 21
198.5044116736077
 31
0.0
  0
LINE
  5
8A1
330
2E1
100
AcDbEntity
  8
____1
  6
Continuous
 62
     0
100
AcDbLine
 10
1060.568423019132
 20
201.3844116736078
 30
0.0
 11
1060.568423019132
 21
198.5044116736077
 31
0.0
  0
LINE
  5
8A2
330
2E1
100
AcDbEntity
  8
____1
  6
Continuous
 62
     0
100
AcDbLine
 10
1060.568423019132
 20
205.2244116736078
 30
0.0
 11
1052.888423019132
 21
205.2244116736078
 31
0.0
  0
LINE
  5
8A3
330
2E1
100
AcDbEntity
  8
____1
  6
Continuous
 62
     0
100
AcDbLine
 10
1065.676786655495
 20
205.2244116736078
 30
0.0
 11
1065.676786655495
 21
201.7684116736077
 31
0.0
  0
LINE
  5
8A4
330
2E1
100
AcDbEntity
  8
____1
  6
Continuous
 62
     5
100
AcDbLine
 10
1259.301006746546
 20
187.8243470988175
 30
0.0
 11
1259.301006746546
 21
253.8243470988176
 31
0.0
  0
ARC
  5
8A5
330
2E1
100
AcDbEntity
  8
____1
  6
Continuous
 62
     0
100
AcDbCircle
 10
1051.928423019132
 20
197.5444116736077
 30
0.0
 40
5.76
100
AcDbArc
 50
270.0
 51
0.0
  0
LINE
  5
8A6
330
2E1
100
AcDbEntity
  8
____1
  6
Continuous
 62
     0
100
AcDbLine
 10
1098.886326616671
 20
196.9684116736077
 30
0.0
 11
1104.494353340199
 21
196.9684116736077
 31
0.0
  0
ARC
  5
8A7
330
2E1
100
AcDbEntity
  8
____1
  6
Continuous
 62
     0
100
AcDbCircle
 10
1070.476786655495
 20
202.3444116736077
 30
0.0
 40
10.56
100
AcDbArc
 50
322.4876119796974
 51
0.0
  0
LINE
  5
8A8
330
2E1
100
AcDbEntity
  8
____1
  6
Continuous
 62
     0
100
AcDbLine
 10
1044.248423019132
 20
191.7844116736078
 30
0.0
 11
1051.928423019132
 21
191.7844116736078
 31
0.0
  0
LINE
  5
8A9
330
2E1
100
AcDbEntity
  8
____1
  6
Continuous
 62
     0
100
AcDbLine
 10
1087.2143533402
 20
193.5124116736078
 30
0.0
 11
1094.4898733402
 21
193.5124116736078
 31
0.0
  0
ARC
  5
8AA
330
2E1
100
AcDbEntity
  8
____1
  6
Continuous
 62
     0
100
AcDbCircle
 10
1050.008423019132
 20
197.5444116736077
 30
0.0
 40
2.88
100
AcDbArc
 50
270.0
 51
0.0
  0
LINE
  5
8AB
330
2E1
100
AcDbEntity
  8
____1
  6
Continuous
 62
     0
100
AcDbLine
 10
1057.688423019132
 20
197.5444116736077
 30
0.0
 11
1057.688423019132
 21
198.5044116736077
 31
0.0
  0
LINE
  5
8AC
330
2E1
100
AcDbEntity
  8
____1
  6
Continuous
 62
     7
100
AcDbLine
 10
1259.301006746546
 20
253.8243470988176
 30
0.0
 11
959.3010067465465
 21
253.8243470988176
 31
0.0
  0
LINE
  5
8AD
330
2E1
100
AcDbEntity
  8
____1
  6
Continuous
 62
     7
100
AcDbLine
 10
1119.301006746546
 20
253.8243470988176
 30
0.0
 11
1119.301006746546
 21
187.8243470988175
 31
0.0
  0
LINE
  5
8AE
330
2E1
100
AcDbEntity
  8
____1
  6
Continuous
 62
     7
100
AcDbLine
 10
1079.301006746546
 20
253.8243470988176
 30
0.0
 11
1079.301006746546
 21
209.8243470988176
 31
0.0
  0
LINE
  5
8AF
330
2E1
100
AcDbEntity
  8
____1
  6
Continuous
 62
     7
100
AcDbLine
 10
1039.301006746546
 20
253.8243470988176
 30
0.0
 11
1039.301006746546
 21
231.8243470988175
 31
0.0
  0
LINE
  5
8B0
330
2E1
100
AcDbEntity
  8
____1
  6
Continuous
 62
     7
100
AcDbLine
 10
959.3010067465465
 20
209.8243470988176
 30
0.0
 11
1259.301006746546
 21
209.8243470988176
 31
0.0
  0
TEXT
  5
8B1
330
2E1
100
AcDbEntity
  8
____1
  6
Continuous
 62
     7
100
AcDbText
 10
983.3198652966839
 20
192.9885862335801
 30
0.0
 40
10.15999984741211
  1
株式会社
  7
STYLE1
100
AcDbText
  0
LINE
  5
8B2
330
2E1
100
AcDbEntity
  8
____1
  6
Continuous
 62
     0
100
AcDbLine
 10
1087.2143533402
 20
201.9604116736077
 30
0.0
 11
1087.2143533402
 21
198.5044116736077
 31
0.0
  0
TEXT
  5
8B3
330
2E1
100
AcDbEntity
  8
____1
  6
Continuous
 62
     7
100
AcDbText
 10
1081.4113699638
 20
245.7784531313908
 30
0.0
 40
5.644444274902344
  1
 検　　印
  7
STYLE1
100
AcDbText
  0
LINE
  5
8B4
330
2E1
100
AcDbEntity
  8
____1
  6
Continuous
 62
     7
100
AcDbLine
 10
1079.301006746546
 20
242.8243470988176
 30
0.0
 11
1119.301006746546
 21
242.8243470988176
 31
0.0
  0
LINE
  5
8B5
330
2E1
100
AcDbEntity
  8
____1
  6
Continuous
 62
     7
100
AcDbLine
 10
1119.301006746546
 20
231.8243470988175
 30
0.0
 11
1259.301006746546
 21
231.8243470988175
 31
0.0
  0
LINE
  5
8B6
330
2E1
100
AcDbEntity
  8
____1
  6
Continuous
 62
     7
100
AcDbLine
 10
959.3010067465465
 20
231.8243470988175
 30
0.0
 11
1079.301006746546
 21
231.8243470988175
 31
0.0
  0
TEXT
  5
8B7
330
2E1
100
AcDbEntity
  8
____1
  6
Continuous
 62
     7
100
AcDbText
 10
1041.411369963801
 20
223.7784531313908
 30
0.0
 40
5.644444274902344
  1
 尺　　度
  7
STYLE1
100
AcDbText
  0
TEXT
  5
8B8
330
2E1
100
AcDbEntity
  8
____1
  6
Continuous
 62
     7
100
AcDbText
 10
1052.245451402918
 20
212.7641184439955
 30
0.0
 40
5.644444274902344
  1
1：2
  7
STYLE1
100
AcDbText
  0
TEXT
  5
8B9
330
2E1
100
AcDbEntity
  8
____1
  6
Continuous
 62
     7
100
AcDbText
 10
1041.411369963801
 20
245.7784531313908
 30
0.0
 40
5.644444274902344
  1
 板　　厚
  7
STYLE1
100
AcDbText
  0
TEXT
  5
8BA
330
2E1
100
AcDbEntity
  8
____1
  6
Continuous
 62
     7
100
AcDbText
 10
1001.4113699638
 20
245.7784531313908
 30
0.0
 40
5.644444274902344
  1
 材　　質
  7
STYLE1
100
AcDbText
  0
TEXT
  5
8BB
330
2E1
100
AcDbEntity
  8
____1
  6
Continuous
 62
     7
100
AcDbText
 10
1052.245451402918
 20
234.7641184439955
 30
0.0
 40
5.644444274902344
  1
4.5t
  7
STYLE1
100
AcDbText
  0
TEXT
  5
8BC
330
2E1
100
AcDbEntity
  8
____1
  6
Continuous
 62
     7
100
AcDbText
 10
1015.773228121058
 20
234.7641184439955
 30
0.0
 40
5.644444274902344
  1
鉄
  7
STYLE1
100
AcDbText
  0
TEXT
  5
8BD
330
2E1
100
AcDbEntity
  8
____1
  6
Continuous
 62
     7
100
AcDbText
 10
970.4815620901745
 20
234.7641184439955
 30
0.0
 40
5.644444274902344
  1
H14.5
  7
STYLE1
100
AcDbText
  0
LINE
  5
8BE
330
2E1
100
AcDbEntity
  8
____1
  6
Continuous
 62
     0
100
AcDbLine
 10
1100.6543533402
 20
190.8244116736077
 30
0.0
 11
1095.2783533402
 21
190.8244116736077
 31
0.0
  0
LINE
  5
8BF
330
2E1
100
AcDbEntity
  8
____1
  6
Continuous
 62
     0
100
AcDbLine
 10
1052.888423019132
 20
198.5044116736077
 30
0.0
 11
1052.888423019132
 21
197.5444116736077
 31
0.0
  0
TEXT
  5
CBB
330
2E1
100
AcDbEntity
  8
寸法線_1
  6
Continuous
 62
     7
100
AcDbText
 10
920.8193025520639
 20
406.2765686597911
 30
0.0
 40
7.055555343627929
  1
3－\U+03C66穴　皿\U+03C611
  7
STYLE1
100
AcDbText
  0
LINE
  5
CBC
330
2E1
100
AcDbEntity
  8
寸法線_1
  6
Continuous
 62
     7
100
AcDbLine
 10
1035.817292206605
 20
376.0457735858172
 30
0.0
 11
997.0946964403299
 21
403.159627040407
 31
0.0
  0
SOLID
  5
CBD
330
2E1
100
AcDbEntity
  8
寸法線_1
  6
Continuous
 62
     7
100
AcDbTrace
 10
1032.131108007305
 20
378.6268675493967
 30
0.0
 11
1033.576446375114
 21
378.6268675493967
 31
0.0
 12
1031.762744595397
 22
380.7159602703567
 32
0.0
 13
1031.762744595397
 23
380.7159602703567
 33
0.0
  0
SOLID
  5
CBE
330
2E1
100
AcDbEntity
  8
寸法線_1
  6
Continuous
 62
     7
100
AcDbTrace
 10
1030.042015286344
 20
378.2585041374897
 30
0.0
 11
1033.896250933837
 21
378.2585041374897
 31
0.0
 12
1032.131108007305
 22
378.6268675493967
 32
0.0
 13
1033.576446375114
 23
378.6268675493967
 33
0.0
  0
SOLID
  5
CBF
330
2E1
100
AcDbEntity
  8
寸法線_1
  6
Continuous
 62
     7
100
AcDbTrace
 10
1035.817292206605
 20
376.0457735858172
 30
0.0
 11
1035.817292206605
 21
376.0457735858172
 31
0.0
 12
1030.042015286344
 22
378.2585041374897
 32
0.0
 13
1033.896250933837
 23
378.2585041374897
 33
0.0
  0
LINE
  5
CC0
330
2E1
100
AcDbEntity
  8
寸法線_1
  6
Continuous
 62
     7
100
AcDbLine
 10
997.0946964403299
 20
403.159627040407
 30
0.0
 11
917.4624780143741
 21
403.159627040407
 31
0.0
  0
TEXT
  5
CC1
330
2E1
100
AcDbEntity
  8
寸法線_1
  6
Continuous
 62
     7
100
AcDbText
 10
975.0352516971586
 20
325.1890940070699
 30
0.0
 40
7.055555343627929
  1
120
  7
STYLE1
100
AcDbText
  0
LINE
  5
CC2
330
2E1
100
AcDbEntity
  8
寸法線_1
  6
Continuous
 62
     7
100
AcDbLine
 10
1040.326918204879
 20
323.1601588527909
 30
0.0
 11
980.3269182048794
 21
323.1601588527909
 31
0.0
  0
SOLID
  5
CC3
330
2E1
100
AcDbEntity
  8
寸法線_1
  6
Continuous
 62
     7
100
AcDbTrace
 10
1035.826918204879
 20
323.1601588527909
 30
0.0
 11
1040.326918204879
 21
323.1601588527909
 31
0.0
 12
1034.326918204879
 22
324.6601588527909
 32
0.0
 13
1034.326918204879
 23
324.6601588527909
 33
0.0
  0
SOLID
  5
CC4
330
2E1
100
AcDbEntity
  8
寸法線_1
  6
Continuous
 62
     7
100
AcDbTrace
 10
1034.326918204879
 20
321.6601588527909
 30
0.0
 11
1034.326918204879
 21
321.6601588527909
 31
0.0
 12
1035.826918204879
 22
323.1601588527909
 32
0.0
 13
1040.326918204879
 23
323.1601588527909
 33
0.0
  0
LINE
  5
CC5
330
2E1
100
AcDbEntity
  8
寸法線_1
  6
Continuous
 62
     7
100
AcDbLine
 10
920.3269182048796
 20
323.1601588527909
 30
0.0
 11
980.3269182048794
 21
323.1601588527909
 31
0.0
  0
SOLID
  5
CC6
330
2E1
100
AcDbEntity
  8
寸法線_1
  6
Continuous
 62
     7
100
AcDbTrace
 10
920.3269182048796
 20
323.1601588527909
 30
0.0
 11
924.8269182048796
 21
323.1601588527909
 31
0.0
 12
926.3269182048796
 22
324.6601588527909
 32
0.0
 13
926.3269182048796
 23
324.6601588527909
 33
0.0
  0
SOLID
  5
CC7
330
2E1
100
AcDbEntity
  8
寸法線_1
  6
Continuous
 62
     7
100
AcDbTrace
 10
926.3269182048796
 20
321.6601588527909
 30
0.0
 11
926.3269182048796
 21
321.6601588527909
 31
0.0
 12
920.3269182048796
 22
323.1601588527909
 32
0.0
 13
924.8269182048796
 23
323.1601588527909
 33
0.0
  0
LINE
  5
CC8
330
2E1
100
AcDbEntity
  8
寸法線_1
  6
Continuous
 62
     7
100
AcDbLine
 10
920.3269182048796
 20
342.3972384731523
 30
0.0
 11
920.3269182048796
 21
322.6601588527909
 31
0.0
  0
LINE
  5
CC9
330
2E1
100
AcDbEntity
  8
寸法線_1
  6
Continuous
 62
     7
100
AcDbLine
 10
1040.326918204879
 20
364.3972384731522
 30
0.0
 11
1040.326918204879
 21
322.6601588527909
 31
0.0
  0
TEXT
  5
CCA
330
2E1
100
AcDbEntity
  8
寸法線_1
  6
Continuous
 62
     7
100
AcDbText
 10
1112.905771206468
 20
375.1333496372453
 30
0.0
 40
7.055555343627929
  1
8
 50
90.0
  7
STYLE1
100
AcDbText
  0
LINE
  5
CCB
330
2E1
100
AcDbEntity
  8
寸法線_1
  6
Continuous
 62
     7
100
AcDbLine
 10
1114.934706360747
 20
372.8972384731522
 30
0.0
 11
1114.934706360747
 21
369.8972384731523
 31
0.0
  0
SOLID
  5
CCC
330
2E1
100
AcDbEntity
  8
寸法線_1
  6
Continuous
 62
     7
100
AcDbTrace
 10
1113.809706360747
 20
368.3972384731522
 30
0.0
 11
1116.059706360747
 21
368.3972384731522
 31
0.0
 12
1114.934706360747
 22
372.8972384731522
 32
0.0
 13
1114.934706360747
 23
372.8972384731522
 33
0.0
  0
SOLID
  5
CCD
330
2E1
100
AcDbEntity
  8
寸法線_1
  6
Continuous
 62
     7
100
AcDbTrace
 10
1116.434706360747
 20
366.8972384731522
 30
0.0
 11
1116.434706360747
 21
366.8972384731522
 31
0.0
 12
1114.934706360747
 22
368.3972384731522
 32
0.0
 13
1116.059706360747
 23
368.3972384731522
 33
0.0
  0
SOLID
  5
CCE
330
2E1
100
AcDbEntity
  8
寸法線_1
  6
Continuous
 62
     7
100
AcDbTrace
 10
1113.434706360747
 20
366.8972384731522
 30
0.0
 11
1113.434706360747
 21
366.8972384731522
 31
0.0
 12
1113.809706360747
 22
368.3972384731522
 32
0.0
 13
1114.934706360747
 23
368.3972384731522
 33
0.0
  0
LINE
  5
CCF
330
2E1
100
AcDbEntity
  8
寸法線_1
  6
Continuous
 62
     7
100
AcDbLine
 10
1114.934706360747
 20
380.8972384731522
 30
0.0
 11
1114.934706360747
 21
383.8972384731523
 31
0.0
  0
SOLID
  5
CD0
330
2E1
100
AcDbEntity
  8
寸法線_1
  6
Continuous
 62
     7
100
AcDbTrace
 10
1114.934706360747
 20
385.3972384731522
 30
0.0
 11
1116.059706360747
 21
385.3972384731522
 31
0.0
 12
1116.434706360747
 22
386.8972384731522
 32
0.0
 13
1116.434706360747
 23
386.8972384731522
 33
0.0
  0
SOLID
  5
CD1
330
2E1
100
AcDbEntity
  8
寸法線_1
  6
Continuous
 62
     7
100
AcDbTrace
 10
1113.809706360747
 20
385.3972384731522
 30
0.0
 11
1114.934706360747
 21
385.3972384731522
 31
0.0
 12
1113.434706360747
 22
386.8972384731522
 32
0.0
 13
1113.434706360747
 23
386.8972384731522
 33
0.0
  0
SOLID
  5
CD2
330
2E1
100
AcDbEntity
  8
寸法線_1
  6
Continuous
 62
     7
100
AcDbTrace
 10
1114.934706360747
 20
380.8972384731522
 30
0.0
 11
1114.934706360747
 21
380.8972384731522
 31
0.0
 12
1113.809706360747
 22
385.3972384731522
 32
0.0
 13
1116.059706360747
 23
385.3972384731522
 33
0.0
  0
LINE
  5
CD3
330
2E1
100
AcDbEntity
  8
寸法線_1
  6
Continuous
 62
     7
100
AcDbLine
 10
1081.326918204879
 20
380.8972384731522
 30
0.0
 11
1115.434706360747
 21
380.8972384731522
 31
0.0
  0
LINE
  5
CD4
330
2E1
100
AcDbEntity
  8
寸法線_1
  6
Continuous
 62
     7
100
AcDbLine
 10
1048.82691820488
 20
372.8972384731522
 30
0.0
 11
1115.434706360747
 21
372.8972384731522
 31
0.0
  0
LINE
  5
CD5
330
2E1
100
AcDbEntity
  8
寸法線_1
  6
Continuous
 62
     7
100
AcDbLine
 10
1114.934706360747
 20
380.8972384731522
 30
0.0
 11
1114.934706360747
 21
372.8972384731522
 31
0.0
  0
TEXT
  5
CD6
330
2E1
100
AcDbEntity
  8
寸法線_1
  6
Continuous
 62
     7
100
AcDbText
 10
1112.905771206468
 20
358.3694608013383
 30
0.0
 40
7.055555343627929
  1
22
 50
90.0
  7
STYLE1
100
AcDbText
  0
LINE
  5
CD7
330
2E1
100
AcDbEntity
  8
寸法線_1
  6
Continuous
 62
     7
100
AcDbLine
 10
1114.934706360747
 20
350.8972384731523
 30
0.0
 11
1114.934706360747
 21
347.8972384731522
 31
0.0
  0
SOLID
  5
CD8
330
2E1
100
AcDbEntity
  8
寸法線_1
  6
Continuous
 62
     7
100
AcDbTrace
 10
1113.809706360747
 20
346.3972384731523
 30
0.0
 11
1116.059706360747
 21
346.3972384731523
 31
0.0
 12
1114.934706360747
 22
350.8972384731523
 32
0.0
 13
1114.934706360747
 23
350.8972384731523
 33
0.0
  0
SOLID
  5
CD9
330
2E1
100
AcDbEntity
  8
寸法線_1
  6
Continuous
 62
     7
100
AcDbTrace
 10
1116.434706360747
 20
344.8972384731523
 30
0.0
 11
1116.434706360747
 21
344.8972384731523
 31
0.0
 12
1114.934706360747
 22
346.3972384731523
 32
0.0
 13
1116.059706360747
 23
346.3972384731523
 33
0.0
  0
SOLID
  5
CDA
330
2E1
100
AcDbEntity
  8
寸法線_1
  6
Continuous
 62
     7
100
AcDbTrace
 10
1113.434706360747
 20
344.8972384731523
 30
0.0
 11
1113.434706360747
 21
344.8972384731523
 31
0.0
 12
1113.809706360747
 22
346.3972384731523
 32
0.0
 13
1114.934706360747
 23
346.3972384731523
 33
0.0
  0
LINE
  5
CDB
330
2E1
100
AcDbEntity
  8
寸法線_1
  6
Continuous
 62
     7
100
AcDbLine
 10
1114.934706360747
 20
372.8972384731522
 30
0.0
 11
1114.934706360747
 21
375.8972384731523
 31
0.0
  0
SOLID
  5
CDC
330
2E1
100
AcDbEntity
  8
寸法線_1
  6
Continuous
 62
     7
100
AcDbTrace
 10
1114.934706360747
 20
377.3972384731522
 30
0.0
 11
1116.059706360747
 21
377.3972384731522
 31
0.0
 12
1116.434706360747
 22
378.8972384731522
 32
0.0
 13
1116.434706360747
 23
378.8972384731522
 33
0.0
  0
SOLID
  5
CDD
330
2E1
100
AcDbEntity
  8
寸法線_1
  6
Continuous
 62
     7
100
AcDbTrace
 10
1113.809706360747
 20
377.3972384731522
 30
0.0
 11
1114.934706360747
 21
377.3972384731522
 31
0.0
 12
1113.434706360747
 22
378.8972384731522
 32
0.0
 13
1113.434706360747
 23
378.8972384731522
 33
0.0
  0
SOLID
  5
CDE
330
2E1
100
AcDbEntity
  8
寸法線_1
  6
Continuous
 62
     7
100
AcDbTrace
 10
1114.934706360747
 20
372.8972384731522
 30
0.0
 11
1114.934706360747
 21
372.8972384731522
 31
0.0
 12
1113.809706360747
 22
377.3972384731522
 32
0.0
 13
1116.059706360747
 23
377.3972384731522
 33
0.0
  0
LINE
  5
CDF
330
2E1
100
AcDbEntity
  8
寸法線_1
  6
Continuous
 62
     7
100
AcDbLine
 10
1048.82691820488
 20
372.8972384731522
 30
0.0
 11
1115.434706360747
 21
372.8972384731522
 31
0.0
  0
LINE
  5
CE0
330
2E1
100
AcDbEntity
  8
寸法線_1
  6
Continuous
 62
     7
100
AcDbLine
 10
928.8269182048795
 20
350.8972384731523
 30
0.0
 11
1115.434706360747
 21
350.8972384731523
 31
0.0
  0
LINE
  5
CE1
330
2E1
100
AcDbEntity
  8
寸法線_1
  6
Continuous
 62
     7
100
AcDbLine
 10
1114.934706360747
 20
372.8972384731522
 30
0.0
 11
1114.934706360747
 21
350.8972384731523
 31
0.0
  0
TEXT
  5
CE2
330
2E1
100
AcDbEntity
  8
寸法線_1
  6
Continuous
 62
     7
100
AcDbText
 10
1112.905771206468
 20
345.1333496372452
 30
0.0
 40
7.055555343627929
  1
8
 50
90.0
  7
STYLE1
100
AcDbText
  0
LINE
  5
CE3
330
2E1
100
AcDbEntity
  8
寸法線_1
  6
Continuous
 62
     7
100
AcDbLine
 10
1114.934706360747
 20
342.8972384731522
 30
0.0
 11
1114.934706360747
 21
339.8972384731522
 31
0.0
  0
SOLID
  5
CE4
330
2E1
100
AcDbEntity
  8
寸法線_1
  6
Continuous
 62
     7
100
AcDbTrace
 10
1113.809706360747
 20
338.3972384731523
 30
0.0
 11
1116.059706360747
 21
338.3972384731523
 31
0.0
 12
1114.934706360747
 22
342.8972384731522
 32
0.0
 13
1114.934706360747
 23
342.8972384731522
 33
0.0
  0
SOLID
  5
CE5
330
2E1
100
AcDbEntity
  8
寸法線_1
  6
Continuous
 62
     7
100
AcDbTrace
 10
1116.434706360747
 20
336.8972384731522
 30
0.0
 11
1116.434706360747
 21
336.8972384731522
 31
0.0
 12
1114.934706360747
 22
338.3972384731523
 32
0.0
 13
1116.059706360747
 23
338.3972384731523
 33
0.0
  0
SOLID
  5
CE6
330
2E1
100
AcDbEntity
  8
寸法線_1
  6
Continuous
 62
     7
100
AcDbTrace
 10
1113.434706360747
 20
336.8972384731522
 30
0.0
 11
1113.434706360747
 21
336.8972384731522
 31
0.0
 12
1113.809706360747
 22
338.3972384731523
 32
0.0
 13
1114.934706360747
 23
338.3972384731523
 33
0.0
  0
LINE
  5
CE7
330
2E1
100
AcDbEntity
  8
寸法線_1
  6
Continuous
 62
     7
100
AcDbLine
 10
1114.934706360747
 20
350.8972384731523
 30
0.0
 11
1114.934706360747
 21
353.8972384731522
 31
0.0
  0
SOLID
  5
CE8
330
2E1
100
AcDbEntity
  8
寸法線_1
  6
Continuous
 62
     7
100
AcDbTrace
 10
1114.934706360747
 20
355.3972384731522
 30
0.0
 11
1116.059706360747
 21
355.3972384731522
 31
0.0
 12
1116.434706360747
 22
356.8972384731523
 32
0.0
 13
1116.434706360747
 23
356.8972384731523
 33
0.0
  0
SOLID
  5
CE9
330
2E1
100
AcDbEntity
  8
寸法線_1
  6
Continuous
 62
     7
100
AcDbTrace
 10
1113.809706360747
 20
355.3972384731522
 30
0.0
 11
1114.934706360747
 21
355.3972384731522
 31
0.0
 12
1113.434706360747
 22
356.8972384731523
 32
0.0
 13
1113.434706360747
 23
356.8972384731523
 33
0.0
  0
SOLID
  5
CEA
330
2E1
100
AcDbEntity
  8
寸法線_1
  6
Continuous
 62
     7
100
AcDbTrace
 10
1114.934706360747
 20
350.8972384731523
 30
0.0
 11
1114.934706360747
 21
350.8972384731523
 31
0.0
 12
1113.809706360747
 22
355.3972384731522
 32
0.0
 13
1116.059706360747
 23
355.3972384731522
 33
0.0
  0
LINE
  5
CEB
330
2E1
100
AcDbEntity
  8
寸法線_1
  6
Continuous
 62
     7
100
AcDbLine
 10
928.8269182048795
 20
350.8972384731523
 30
0.0
 11
1115.434706360747
 21
350.8972384731523
 31
0.0
  0
LINE
  5
CEC
330
2E1
100
AcDbEntity
  8
寸法線_1
  6
Continuous
 62
     7
100
AcDbLine
 10
1081.326918204879
 20
342.8972384731522
 30
0.0
 11
1115.434706360747
 21
342.8972384731522
 31
0.0
  0
LINE
  5
CED
330
2E1
100
AcDbEntity
  8
寸法線_1
  6
Continuous
 62
     7
100
AcDbLine
 10
1114.934706360747
 20
350.8972384731523
 30
0.0
 11
1114.934706360747
 21
342.8972384731522
 31
0.0
  0
TEXT
  5
CEE
330
2E1
100
AcDbEntity
  8
寸法線_1
  6
Continuous
 62
     7
100
AcDbText
 10
1099.869455703083
 20
356.6055719654313
 30
0.0
 40
7.055555343627929
  1
4.5
 50
90.0
  7
STYLE1
100
AcDbText
  0
LINE
  5
CEF
330
2E1
100
AcDbEntity
  8
寸法線_1
  6
Continuous
 62
     7
100
AcDbLine
 10
1101.898390857361
 20
359.6472384731522
 30
0.0
 11
1101.898390857361
 21
356.6472384731522
 31
0.0
  0
SOLID
  5
CF0
330
2E1
100
AcDbEntity
  8
寸法線_1
  6
Continuous
 62
     7
100
AcDbTrace
 10
1100.773390857361
 20
355.1472384731523
 30
0.0
 11
1103.023390857361
 21
355.1472384731523
 31
0.0
 12
1101.898390857361
 22
359.6472384731522
 32
0.0
 13
1101.898390857361
 23
359.6472384731522
 33
0.0
  0
SOLID
  5
CF1
330
2E1
100
AcDbEntity
  8
寸法線_1
  6
Continuous
 62
     7
100
AcDbTrace
 10
1103.398390857361
 20
353.6472384731522
 30
0.0
 11
1103.398390857361
 21
353.6472384731522
 31
0.0
 12
1101.898390857361
 22
355.1472384731523
 32
0.0
 13
1103.023390857361
 23
355.1472384731523
 33
0.0
  0
SOLID
  5
CF2
330
2E1
100
AcDbEntity
  8
寸法線_1
  6
Continuous
 62
     7
100
AcDbTrace
 10
1100.398390857361
 20
353.6472384731522
 30
0.0
 11
1100.398390857361
 21
353.6472384731522
 31
0.0
 12
1100.773390857361
 22
355.1472384731523
 32
0.0
 13
1101.898390857361
 23
355.1472384731523
 33
0.0
  0
LINE
  5
CF3
330
2E1
100
AcDbEntity
  8
寸法線_1
  6
Continuous
 62
     7
100
AcDbLine
 10
1101.898390857361
 20
364.1472384731522
 30
0.0
 11
1101.898390857361
 21
367.1472384731523
 31
0.0
  0
SOLID
  5
CF4
330
2E1
100
AcDbEntity
  8
寸法線_1
  6
Continuous
 62
     7
100
AcDbTrace
 10
1101.898390857361
 20
368.6472384731522
 30
0.0
 11
1103.023390857361
 21
368.6472384731522
 31
0.0
 12
1103.398390857361
 22
370.1472384731522
 32
0.0
 13
1103.398390857361
 23
370.1472384731522
 33
0.0
  0
SOLID
  5
CF5
330
2E1
100
AcDbEntity
  8
寸法線_1
  6
Continuous
 62
     7
100
AcDbTrace
 10
1100.773390857361
 20
368.6472384731522
 30
0.0
 11
1101.898390857361
 21
368.6472384731522
 31
0.0
 12
1100.398390857361
 22
370.1472384731522
 32
0.0
 13
1100.398390857361
 23
370.1472384731522
 33
0.0
  0
SOLID
  5
CF6
330
2E1
100
AcDbEntity
  8
寸法線_1
  6
Continuous
 62
     7
100
AcDbTrace
 10
1101.898390857361
 20
364.1472384731522
 30
0.0
 11
1101.898390857361
 21
364.1472384731522
 31
0.0
 12
1100.773390857361
 22
368.6472384731522
 32
0.0
 13
1103.023390857361
 23
368.6472384731522
 33
0.0
  0
LINE
  5
CF7
330
2E1
100
AcDbEntity
  8
寸法線_1
  6
Continuous
 62
     7
100
AcDbLine
 10
1076.826918204879
 20
364.1472384731522
 30
0.0
 11
1102.398390857361
 21
364.1472384731522
 31
0.0
  0
LINE
  5
CF8
330
2E1
100
AcDbEntity
  8
寸法線_1
  6
Continuous
 62
     7
100
AcDbLine
 10
1076.826918204879
 20
359.6472384731522
 30
0.0
 11
1102.398390857361
 21
359.6472384731522
 31
0.0
  0
LINE
  5
CF9
330
2E1
100
AcDbEntity
  8
寸法線_1
  6
Continuous
 62
     7
100
AcDbLine
 10
1101.898390857361
 20
364.1472384731522
 30
0.0
 11
1101.898390857361
 21
359.6472384731522
 31
0.0
  0
TEXT
  5
CFA
330
2E1
100
AcDbEntity
  8
寸法線_1
  6
Continuous
 62
     7
100
AcDbText
 10
855.0352516971585
 20
325.1890940070699
 30
0.0
 40
7.055555343627929
  1
120
  7
STYLE1
100
AcDbText
  0
LINE
  5
CFB
330
2E1
100
AcDbEntity
  8
寸法線_1
  6
Continuous
 62
     7
100
AcDbLine
 10
920.3269182048796
 20
323.1601588527909
 30
0.0
 11
860.3269182048796
 21
323.1601588527909
 31
0.0
  0
SOLID
  5
CFC
330
2E1
100
AcDbEntity
  8
寸法線_1
  6
Continuous
 62
     7
100
AcDbTrace
 10
915.8269182048796
 20
323.1601588527909
 30
0.0
 11
920.3269182048796
 21
323.1601588527909
 31
0.0
 12
914.3269182048795
 22
324.6601588527909
 32
0.0
 13
914.3269182048795
 23
324.6601588527909
 33
0.0
  0
SOLID
  5
CFD
330
2E1
100
AcDbEntity
  8
寸法線_1
  6
Continuous
 62
     7
100
AcDbTrace
 10
914.3269182048795
 20
321.6601588527909
 30
0.0
 11
914.3269182048795
 21
321.6601588527909
 31
0.0
 12
915.8269182048796
 22
323.1601588527909
 32
0.0
 13
920.3269182048796
 23
323.1601588527909
 33
0.0
  0
LINE
  5
CFE
330
2E1
100
AcDbEntity
  8
寸法線_1
  6
Continuous
 62
     7
100
AcDbLine
 10
800.3269182048795
 20
323.1601588527909
 30
0.0
 11
860.3269182048796
 21
323.1601588527909
 31
0.0
  0
SOLID
  5
CFF
330
2E1
100
AcDbEntity
  8
寸法線_1
  6
Continuous
 62
     7
100
AcDbTrace
 10
800.3269182048795
 20
323.1601588527909
 30
0.0
 11
804.8269182048795
 21
323.1601588527909
 31
0.0
 12
806.3269182048795
 22
324.6601588527909
 32
0.0
 13
806.3269182048795
 23
324.6601588527909
 33
0.0
  0
SOLID
  5
D00
330
2E1
100
AcDbEntity
  8
寸法線_1
  6
Continuous
 62
     7
100
AcDbTrace
 10
806.3269182048795
 20
321.6601588527909
 30
0.0
 11
806.3269182048795
 21
321.6601588527909
 31
0.0
 12
800.3269182048795
 22
323.1601588527909
 32
0.0
 13
804.8269182048795
 23
323.1601588527909
 33
0.0
  0
LINE
  5
D01
330
2E1
100
AcDbEntity
  8
寸法線_1
  6
Continuous
 62
     7
100
AcDbLine
 10
800.3269182048795
 20
353.3972384731522
 30
0.0
 11
800.3269182048795
 21
322.6601588527909
 31
0.0
  0
LINE
  5
D02
330
2E1
100
AcDbEntity
  8
寸法線_1
  6
Continuous
 62
     7
100
AcDbLine
 10
920.3269182048796
 20
342.3972384731523
 30
0.0
 11
920.3269182048796
 21
322.6601588527909
 31
0.0
  0
TEXT
  5
D03
330
2E1
100
AcDbEntity
  8
寸法線_1
  6
Continuous
 62
     7
100
AcDbText
 10
786.7991405330656
 20
325.1890940070699
 30
0.0
 40
7.055555343627929
  1
20
  7
STYLE1
100
AcDbText
  0
LINE
  5
D04
330
2E1
100
AcDbEntity
  8
寸法線_1
  6
Continuous
 62
     7
100
AcDbLine
 10
800.3269182048795
 20
323.1601588527909
 30
0.0
 11
803.3269182048796
 21
323.1601588527909
 31
0.0
  0
SOLID
  5
D05
330
2E1
100
AcDbEntity
  8
寸法線_1
  6
Continuous
 62
     7
100
AcDbTrace
 10
800.3269182048795
 20
323.1601588527909
 30
0.0
 11
804.8269182048795
 21
323.1601588527909
 31
0.0
 12
806.3269182048795
 22
324.6601588527909
 32
0.0
 13
806.3269182048795
 23
324.6601588527909
 33
0.0
  0
SOLID
  5
D06
330
2E1
100
AcDbEntity
  8
寸法線_1
  6
Continuous
 62
     7
100
AcDbTrace
 10
806.3269182048795
 20
321.6601588527909
 30
0.0
 11
806.3269182048795
 21
321.6601588527909
 31
0.0
 12
800.3269182048795
 22
323.1601588527909
 32
0.0
 13
804.8269182048795
 23
323.1601588527909
 33
0.0
  0
LINE
  5
D07
330
2E1
100
AcDbEntity
  8
寸法線_1
  6
Continuous
 62
     7
100
AcDbLine
 10
780.3269182048796
 20
323.1601588527909
 30
0.0
 11
777.3269182048797
 21
323.1601588527909
 31
0.0
  0
SOLID
  5
D08
330
2E1
100
AcDbEntity
  8
寸法線_1
  6
Continuous
 62
     7
100
AcDbTrace
 10
775.8269182048796
 20
323.1601588527909
 30
0.0
 11
780.3269182048796
 21
323.1601588527909
 31
0.0
 12
774.3269182048797
 22
324.6601588527909
 32
0.0
 13
774.3269182048797
 23
324.6601588527909
 33
0.0
  0
SOLID
  5
D09
330
2E1
100
AcDbEntity
  8
寸法線_1
  6
Continuous
 62
     7
100
AcDbTrace
 10
774.3269182048797
 20
321.6601588527909
 30
0.0
 11
774.3269182048797
 21
321.6601588527909
 31
0.0
 12
775.8269182048796
 22
323.1601588527909
 32
0.0
 13
780.3269182048796
 23
323.1601588527909
 33
0.0
  0
LINE
  5
D0A
330
2E1
100
AcDbEntity
  8
寸法線_1
  6
Continuous
 62
     7
100
AcDbLine
 10
780.3269182048796
 20
360.8972384731521
 30
0.0
 11
780.3269182048796
 21
322.6601588527909
 31
0.0
  0
LINE
  5
D0B
330
2E1
100
AcDbEntity
  8
寸法線_1
  6
Continuous
 62
     7
100
AcDbLine
 10
800.3269182048795
 20
353.3972384731522
 30
0.0
 11
800.3269182048795
 21
322.6601588527909
 31
0.0
  0
LINE
  5
D0C
330
2E1
100
AcDbEntity
  8
寸法線_1
  6
Continuous
 62
     7
100
AcDbLine
 10
780.3269182048796
 20
323.1601588527909
 30
0.0
 11
800.3269182048795
 21
323.1601588527909
 31
0.0
  0
TEXT
  5
D0D
330
2E1
100
AcDbEntity
  8
寸法線_1
  6
Continuous
 62
     7
100
AcDbText
 10
751.4782434788925
 20
395.2951402026863
 30
0.0
 40
7.055555343627932
  1
R50
 50
329.9999999999998
  7
STYLE1
100
AcDbText
  0
LINE
  5
D0E
330
2E1
100
AcDbEntity
  8
寸法線_1
  6
Continuous
 62
     7
100
AcDbLine
 10
782.0306268904268
 20
374.8381907282784
 30
0.0
 11
750.2582203673901
 21
393.181998187156
 31
0.0
  0
SOLID
  5
D0F
330
2E1
100
AcDbEntity
  8
寸法線_1
  6
Continuous
 62
     7
100
AcDbTrace
 10
778.1335125733967
 20
377.0881907282784
 30
0.0
 11
779.7036312450799
 21
377.0881907282784
 31
0.0
 12
777.5844744677201
 22
379.1372288339549
 32
0.0
 13
777.5844744677201
 23
379.1372288339549
 33
0.0
  0
SOLID
  5
D10
330
2E1
100
AcDbEntity
  8
寸法線_1
  6
Continuous
 62
     7
100
AcDbTrace
 10
776.0844744677201
 20
376.5391526226018
 30
0.0
 11
780.2714575922084
 21
376.5391526226018
 31
0.0
 12
778.1335125733967
 22
377.0881907282784
 32
0.0
 13
779.7036312450799
 23
377.0881907282784
 33
0.0
  0
SOLID
  5
D11
330
2E1
100
AcDbEntity
  8
寸法線_1
  6
Continuous
 62
     7
100
AcDbTrace
 10
782.0306268904268
 20
374.8381907282784
 30
0.0
 11
782.0306268904268
 21
374.8381907282784
 31
0.0
 12
776.0844744677201
 22
376.5391526226018
 32
0.0
 13
780.2714575922084
 23
376.5391526226018
 33
0.0
  0
TEXT
  5
D12
330
2E1
100
AcDbEntity
  8
寸法線_1
  6
Continuous
 62
     7
100
AcDbText
 10
1056.799140533065
 20
325.1890934259273
 30
0.0
 40
7.055555343627929
  1
40
  7
STYLE1
100
AcDbText
  0
LINE
  5
D13
330
2E1
100
AcDbEntity
  8
寸法線_1
  6
Continuous
 62
     7
100
AcDbLine
 10
1080.326918204879
 20
323.1601582716484
 30
0.0
 11
1060.326918204879
 21
323.1601582716484
 31
0.0
  0
SOLID
  5
D14
330
2E1
100
AcDbEntity
  8
寸法線_1
  6
Continuous
 62
     7
100
AcDbTrace
 10
1075.826918204879
 20
323.1601582716484
 30
0.0
 11
1080.326918204879
 21
323.1601582716484
 31
0.0
 12
1074.326918204879
 22
324.6601582716484
 32
0.0
 13
1074.326918204879
 23
324.6601582716484
 33
0.0
  0
SOLID
  5
D15
330
2E1
100
AcDbEntity
  8
寸法線_1
  6
Continuous
 62
     7
100
AcDbTrace
 10
1074.326918204879
 20
321.6601582716484
 30
0.0
 11
1074.326918204879
 21
321.6601582716484
 31
0.0
 12
1075.826918204879
 22
323.1601582716484
 32
0.0
 13
1080.326918204879
 23
323.1601582716484
 33
0.0
  0
LINE
  5
D16
330
2E1
100
AcDbEntity
  8
寸法線_1
  6
Continuous
 62
     7
100
AcDbLine
 10
1040.326918204879
 20
323.1601582716484
 30
0.0
 11
1060.326918204879
 21
323.1601582716484
 31
0.0
  0
SOLID
  5
D17
330
2E1
100
AcDbEntity
  8
寸法線_1
  6
Continuous
 62
     7
100
AcDbTrace
 10
1040.326918204879
 20
323.1601582716484
 30
0.0
 11
1044.826918204879
 21
323.1601582716484
 31
0.0
 12
1046.326918204879
 22
324.6601582716484
 32
0.0
 13
1046.326918204879
 23
324.6601582716484
 33
0.0
  0
SOLID
  5
D18
330
2E1
100
AcDbEntity
  8
寸法線_1
  6
Continuous
 62
     7
100
AcDbTrace
 10
1046.326918204879
 20
321.6601582716484
 30
0.0
 11
1046.326918204879
 21
321.6601582716484
 31
0.0
 12
1040.326918204879
 22
323.1601582716484
 32
0.0
 13
1044.826918204879
 23
323.1601582716484
 33
0.0
  0
LINE
  5
D19
330
2E1
100
AcDbEntity
  8
寸法線_1
  6
Continuous
 62
     7
100
AcDbLine
 10
1040.326918204879
 20
364.3972384731522
 30
0.0
 11
1040.326918204879
 21
322.6601582716484
 31
0.0
  0
LINE
  5
D1A
330
2E1
100
AcDbEntity
  8
寸法線_1
  6
Continuous
 62
     7
100
AcDbLine
 10
1080.326918204879
 20
341.8972384731522
 30
0.0
 11
1080.326918204879
 21
322.6601582716484
 31
0.0
  0
TEXT
  5
D1B
330
2E1
100
AcDbEntity
  8
寸法線_1
  6
Continuous
 62
     7
100
AcDbText
 10
1125.010920454151
 20
358.3694608013383
 30
0.0
 40
7.055555343627929
  1
38
 50
90.0
  7
STYLE1
100
AcDbText
  0
LINE
  5
D1C
330
2E1
100
AcDbEntity
  8
寸法線_1
  6
Continuous
 62
     7
100
AcDbLine
 10
1127.03985560843
 20
342.8972384731522
 30
0.0
 11
1127.03985560843
 21
361.8972384731522
 31
0.0
  0
SOLID
  5
D1D
330
2E1
100
AcDbEntity
  8
寸法線_1
  6
Continuous
 62
     7
100
AcDbTrace
 10
1127.03985560843
 20
347.3972384731522
 30
0.0
 11
1128.16485560843
 21
347.3972384731522
 31
0.0
 12
1128.53985560843
 22
348.8972384731523
 32
0.0
 13
1128.53985560843
 23
348.8972384731523
 33
0.0
  0
SOLID
  5
D1E
330
2E1
100
AcDbEntity
  8
寸法線_1
  6
Continuous
 62
     7
100
AcDbTrace
 10
1125.91485560843
 20
347.3972384731522
 30
0.0
 11
1127.03985560843
 21
347.3972384731522
 31
0.0
 12
1125.53985560843
 22
348.8972384731523
 32
0.0
 13
1125.53985560843
 23
348.8972384731523
 33
0.0
  0
SOLID
  5
D1F
330
2E1
100
AcDbEntity
  8
寸法線_1
  6
Continuous
 62
     7
100
AcDbTrace
 10
1127.03985560843
 20
342.8972384731522
 30
0.0
 11
1127.03985560843
 21
342.8972384731522
 31
0.0
 12
1125.91485560843
 22
347.3972384731522
 32
0.0
 13
1128.16485560843
 23
347.3972384731522
 33
0.0
  0
LINE
  5
D20
330
2E1
100
AcDbEntity
  8
寸法線_1
  6
Continuous
 62
     7
100
AcDbLine
 10
1127.03985560843
 20
380.8972384731522
 30
0.0
 11
1127.03985560843
 21
361.8972384731522
 31
0.0
  0
SOLID
  5
D21
330
2E1
100
AcDbEntity
  8
寸法線_1
  6
Continuous
 62
     7
100
AcDbTrace
 10
1125.91485560843
 20
376.3972384731522
 30
0.0
 11
1128.16485560843
 21
376.3972384731522
 31
0.0
 12
1127.03985560843
 22
380.8972384731522
 32
0.0
 13
1127.03985560843
 23
380.8972384731522
 33
0.0
  0
SOLID
  5
D22
330
2E1
100
AcDbEntity
  8
寸法線_1
  6
Continuous
 62
     7
100
AcDbTrace
 10
1128.53985560843
 20
374.8972384731522
 30
0.0
 11
1128.53985560843
 21
374.8972384731522
 31
0.0
 12
1127.03985560843
 22
376.3972384731522
 32
0.0
 13
1128.16485560843
 23
376.3972384731522
 33
0.0
  0
SOLID
  5
D23
330
2E1
100
AcDbEntity
  8
寸法線_1
  6
Continuous
 62
     7
100
AcDbTrace
 10
1125.53985560843
 20
374.8972384731522
 30
0.0
 11
1125.53985560843
 21
374.8972384731522
 31
0.0
 12
1125.91485560843
 22
376.3972384731522
 32
0.0
 13
1127.03985560843
 23
376.3972384731522
 33
0.0
  0
LINE
  5
D24
330
2E1
100
AcDbEntity
  8
寸法線_1
  6
Continuous
 62
     7
100
AcDbLine
 10
1081.326918204879
 20
380.8972384731522
 30
0.0
 11
1127.53985560843
 21
380.8972384731522
 31
0.0
  0
LINE
  5
D25
330
2E1
100
AcDbEntity
  8
寸法線_1
  6
Continuous
 62
     7
100
AcDbLine
 10
1081.326918204879
 20
342.8972384731522
 30
0.0
 11
1127.53985560843
 21
342.8972384731522
 31
0.0
  0
LINE
  5
D26
330
2E1
100
AcDbEntity
  8
0
  6
CENTER
 62
     3
100
AcDbLine
 10
1085.826918204879
 20
361.8972384731522
 30
0.0
 11
774.8269182048796
 21
361.8972384731522
 31
0.0
  0
LINE
  5
D27
330
2E1
100
AcDbEntity
  8
0
  6
Continuous
 62
     5
100
AcDbLine
 10
1075.826918204879
 20
380.8972384731522
 30
0.0
 11
1075.826918204879
 21
342.8972384731522
 31
0.0
  0
ARC
  5
D28
330
2E1
100
AcDbEntity
  8
0
  6
Continuous
 62
     5
100
AcDbCircle
 10
830.3269182048804
 20
361.8972384731522
 30
0.0
 40
50.00000000000024
100
AcDbArc
 50
157.6663173421948
 51
202.333682657805
  0
LINE
  5
D29
330
2E1
100
AcDbEntity
  8
0
  6
Continuous
 62
     5
100
AcDbLine
 10
1080.326918204879
 20
380.8972384731522
 30
0.0
 11
784.0775938854918
 21
380.8972384731522
 31
0.0
  0
LINE
  5
D2A
330
2E1
100
AcDbEntity
  8
0
  6
CENTER
 62
     3
100
AcDbLine
 10
1040.32691820488
 20
380.3972384731522
 30
0.0
 11
1040.32691820488
 21
365.3972384731523
 31
0.0
  0
LINE
  5
D2B
330
2E1
100
AcDbEntity
  8
0
  6
CENTER
 62
     3
100
AcDbLine
 10
1032.82691820488
 20
372.8972384731522
 30
0.0
 11
1047.82691820488
 21
372.8972384731522
 31
0.0
  0
LINE
  5
D2C
330
2E1
100
AcDbEntity
  8
0
  6
CENTER
 62
     3
100
AcDbLine
 10
800.3269182048795
 20
369.3972384731523
 30
0.0
 11
800.3269182048795
 21
354.3972384731522
 31
0.0
  0
LINE
  5
D2D
330
2E1
100
AcDbEntity
  8
0
  6
CENTER
 62
     3
100
AcDbLine
 10
792.8269182048795
 20
361.8972384731522
 30
0.0
 11
807.8269182048796
 21
361.8972384731522
 31
0.0
  0
LINE
  5
D2E
330
2E1
100
AcDbEntity
  8
0
  6
CENTER
 62
     3
100
AcDbLine
 10
920.3269182048796
 20
358.3972384731522
 30
0.0
 11
920.3269182048796
 21
343.3972384731522
 31
0.0
  0
LINE
  5
D2F
330
2E1
100
AcDbEntity
  8
0
  6
CENTER
 62
     3
100
AcDbLine
 10
912.8269182048795
 20
350.8972384731523
 30
0.0
 11
927.8269182048795
 21
350.8972384731523
 31
0.0
  0
CIRCLE
  5
D30
330
2E1
100
AcDbEntity
  8
0
  6
Continuous
 62
     5
100
AcDbCircle
 10
920.3269182048796
 20
350.8972384731523
 30
0.0
 40
3.000000000000184
  0
CIRCLE
  5
D31
330
2E1
100
AcDbEntity
  8
0
  6
Continuous
 62
     5
100
AcDbCircle
 10
920.3269182048796
 20
350.8972384731523
 30
0.0
 40
5.500000000000068
  0
CIRCLE
  5
D32
330
2E1
100
AcDbEntity
  8
0
  6
Continuous
 62
     5
100
AcDbCircle
 10
800.3269182048795
 20
361.8972384731522
 30
0.0
 40
3.000000000000184
  0
CIRCLE
  5
D33
330
2E1
100
AcDbEntity
  8
0
  6
Continuous
 62
     5
100
AcDbCircle
 10
800.3269182048795
 20
361.8972384731522
 30
0.0
 40
5.500000000000068
  0
CIRCLE
  5
D34
330
2E1
100
AcDbEntity
  8
0
  6
Continuous
 62
     5
100
AcDbCircle
 10
1040.32691820488
 20
372.8972384731522
 30
0.0
 40
3.000000000000184
  0
CIRCLE
  5
D35
330
2E1
100
AcDbEntity
  8
0
  6
Continuous
 62
     5
100
AcDbCircle
 10
1040.32691820488
 20
372.8972384731522
 30
0.0
 40
5.500000000000068
  0
LINE
  5
D36
330
2E1
100
AcDbEntity
  8
0
  6
Continuous
 62
     5
100
AcDbLine
 10
1080.326918204879
 20
342.8972384731522
 30
0.0
 11
784.0775938854911
 21
342.8972384731522
 31
0.0
  0
LINE
  5
D37
330
2E1
100
AcDbEntity
  8
0
  6
Continuous
 62
     5
100
AcDbLine
 10
1080.326918204879
 20
380.8972384731522
 30
0.0
 11
1080.326918204879
 21
342.8972384731522
 31
0.0
  0
LINE
  5
D38
330
2E1
100
AcDbEntity
  8
0
  6
Continuous
 62
     5
100
AcDbLine
 10
1075.826918204879
 20
364.1472384731522
 30
0.0
 11
858.948031626514
 21
364.1472384731522
 31
0.0
  0
LINE
  5
D39
330
2E1
100
AcDbEntity
  8
0
  6
Continuous
 62
     5
100
AcDbLine
 10
858.948031626514
 20
364.1472384731522
 30
0.0
 11
858.948031626514
 21
359.6472384731522
 31
0.0
  0
LINE
  5
D3A
330
2E1
100
AcDbEntity
  8
0
  6
Continuous
 62
     5
100
AcDbLine
 10
1075.826918204879
 20
359.6472384731522
 30
0.0
 11
858.948031626514
 21
359.6472384731522
 31
0.0
  0
TEXT
  5
D3B
330
2E1
100
AcDbEntity
  8
寸法線_1
  6
Continuous
 62
     7
100
AcDbText
 10
521.9524553120963
 20
551.4633241052319
 30
0.0
 40
7.055555343627929
  1
3－\U+03C66穴　皿\U+03C611
  7
STYLE1
100
AcDbText
  0
LINE
  5
D3C
330
2E1
100
AcDbEntity
  8
寸法線_1
  6
Continuous
 62
     7
100
AcDbLine
 10
637.8466890157097
 20
520.7507456098883
 30
0.0
 11
595.4540529453224
 21
550.4343889509527
 31
0.0
  0
SOLID
  5
D3D
330
2E1
100
AcDbEntity
  8
寸法線_1
  6
Continuous
 62
     7
100
AcDbTrace
 10
634.1605048164092
 20
523.3318395734679
 30
0.0
 11
635.6058431842192
 21
523.3318395734679
 31
0.0
 12
633.7921414045023
 22
525.4209322944279
 32
0.0
 13
633.7921414045023
 23
525.4209322944279
 33
0.0
  0
SOLID
  5
D3E
330
2E1
100
AcDbEntity
  8
寸法線_1
  6
Continuous
 62
     7
100
AcDbTrace
 10
632.0714120954492
 20
522.9634761615609
 30
0.0
 11
635.9256477429424
 21
522.9634761615609
 31
0.0
 12
634.1605048164092
 22
523.3318395734679
 32
0.0
 13
635.6058431842192
 23
523.3318395734679
 33
0.0
  0
SOLID
  5
D3F
330
2E1
100
AcDbEntity
  8
寸法線_1
  6
Continuous
 62
     7
100
AcDbTrace
 10
637.8466890157097
 20
520.7507456098883
 30
0.0
 11
637.8466890157097
 21
520.7507456098883
 31
0.0
 12
632.0714120954492
 22
522.9634761615609
 32
0.0
 13
635.9256477429424
 23
522.9634761615609
 33
0.0
  0
LINE
  5
D40
330
2E1
100
AcDbEntity
  8
寸法線_1
  6
Continuous
 62
     7
100
AcDbLine
 10
595.4540529453224
 20
550.4343889509527
 30
0.0
 11
514.8968999684684
 21
550.4343889509527
 31
0.0
  0
LINE
  5
D41
330
2E1
100
AcDbEntity
  8
0
  6
Continuous
 62
     5
100
AcDbLine
 10
1075.826918204879
 20
568.1114921239238
 30
0.0
 11
1075.826918204879
 21
537.1680369501716
 31
0.0
  0
ARC
  5
D42
330
2E1
100
AcDbEntity
  8
0
  6
Continuous
 62
     5
100
AcDbCircle
 10
656.0604084580578
 20
-23.0070047064097
 30
0.0
 40
724.9999999999879
100
AcDbArc
 50
54.62058428187418
 51
68.63458902579956
  0
ARC
  5
D43
330
2E1
100
AcDbEntity
  8
0
  6
Continuous
 62
     5
100
AcDbCircle
 10
656.0604084580578
 20
-23.0070047064097
 30
0.0
 40
699.9999999999866
100
AcDbArc
 50
53.15398791734541
 51
72.97014177192429
  0
LINE
  5
D44
330
2E1
100
AcDbEntity
  8
0
  6
Continuous
 62
     5
100
AcDbLine
 10
858.948031626514
 20
652.1680369501729
 30
0.0
 11
920.1885272262392
 21
652.1680369501726
 31
0.0
  0
LINE
  5
D45
330
2E1
100
AcDbEntity
  8
0
  6
Continuous
 62
     5
100
AcDbLine
 10
858.948031626514
 20
649.1680366765598
 30
0.0
 11
858.948031626514
 21
652.1680369501729
 31
0.0
  0
ARC
  5
D46
330
2E1
100
AcDbEntity
  8
0
  6
Continuous
 62
     5
100
AcDbCircle
 10
861.9480316265141
 20
649.1680369501729
 30
0.0
 40
3.000000000000012
100
AcDbArc
 50
180.0000052256252
 51
252.9701417719282
  0
TEXT
  5
D47
330
2E1
100
AcDbEntity
  8
寸法線_1
  6
Continuous
 62
     7
100
AcDbText
 10
678.5030611755992
 20
638.1402592783582
 30
0.0
 40
7.055555343627929
  1
30
 50
90.0
  7
STYLE1
100
AcDbText
  0
LINE
  5
D48
330
2E1
100
AcDbEntity
  8
寸法線_1
  6
Continuous
 62
     7
100
AcDbLine
 10
680.5319963298783
 20
626.6680369501722
 30
0.0
 11
680.5319963298783
 21
641.6680369501722
 31
0.0
  0
SOLID
  5
D49
330
2E1
100
AcDbEntity
  8
寸法線_1
  6
Continuous
 62
     7
100
AcDbTrace
 10
680.5319963298783
 20
631.1680369501722
 30
0.0
 11
681.6569963298783
 21
631.1680369501722
 31
0.0
 12
682.0319963298783
 22
632.6680369501722
 32
0.0
 13
682.0319963298783
 23
632.6680369501722
 33
0.0
  0
SOLID
  5
D4A
330
2E1
100
AcDbEntity
  8
寸法線_1
  6
Continuous
 62
     7
100
AcDbTrace
 10
679.4069963298783
 20
631.1680369501722
 30
0.0
 11
680.5319963298783
 21
631.1680369501722
 31
0.0
 12
679.0319963298783
 22
632.6680369501722
 32
0.0
 13
679.0319963298783
 23
632.6680369501722
 33
0.0
  0
SOLID
  5
D4B
330
2E1
100
AcDbEntity
  8
寸法線_1
  6
Continuous
 62
     7
100
AcDbTrace
 10
680.5319963298783
 20
626.6680369501722
 30
0.0
 11
680.5319963298783
 21
626.6680369501722
 31
0.0
 12
679.4069963298783
 22
631.1680369501722
 32
0.0
 13
681.6569963298783
 23
631.1680369501722
 33
0.0
  0
LINE
  5
D4C
330
2E1
100
AcDbEntity
  8
寸法線_1
  6
Continuous
 62
     7
100
AcDbLine
 10
680.5319963298783
 20
656.6680369501722
 30
0.0
 11
680.5319963298783
 21
641.6680369501722
 31
0.0
  0
SOLID
  5
D4D
330
2E1
100
AcDbEntity
  8
寸法線_1
  6
Continuous
 62
     7
100
AcDbTrace
 10
679.4069963298783
 20
652.1680369501722
 30
0.0
 11
681.6569963298783
 21
652.1680369501722
 31
0.0
 12
680.5319963298783
 22
656.6680369501722
 32
0.0
 13
680.5319963298783
 23
656.6680369501722
 33
0.0
  0
SOLID
  5
D4E
330
2E1
100
AcDbEntity
  8
寸法線_1
  6
Continuous
 62
     7
100
AcDbTrace
 10
682.0319963298783
 20
650.6680369501722
 30
0.0
 11
682.0319963298783
 21
650.6680369501722
 31
0.0
 12
680.5319963298783
 22
652.1680369501722
 32
0.0
 13
681.6569963298783
 23
652.1680369501722
 33
0.0
  0
SOLID
  5
D4F
330
2E1
100
AcDbEntity
  8
寸法線_1
  6
Continuous
 62
     7
100
AcDbTrace
 10
679.0319963298783
 20
650.6680369501722
 30
0.0
 11
679.0319963298783
 21
650.6680369501722
 31
0.0
 12
679.4069963298783
 22
652.1680369501722
 32
0.0
 13
680.5319963298783
 23
652.1680369501722
 33
0.0
  0
LINE
  5
D50
330
2E1
100
AcDbEntity
  8
寸法線_1
  6
Continuous
 62
     7
100
AcDbLine
 10
661.5319963298783
 20
656.6680369501722
 30
0.0
 11
681.0319963298783
 21
656.6680369501722
 31
0.0
  0
LINE
  5
D51
330
2E1
100
AcDbEntity
  8
寸法線_1
  6
Continuous
 62
     7
100
AcDbLine
 10
639.0319963298783
 20
626.6680369501722
 30
0.0
 11
681.0319963298783
 21
626.6680369501722
 31
0.0
  0
TEXT
  5
D52
330
2E1
100
AcDbEntity
  8
寸法線_1
  6
Continuous
 62
     7
100
AcDbText
 10
638.0042186580643
 20
688.4801077572478
 30
0.0
 40
7.055555343627929
  1
22
  7
STYLE1
100
AcDbText
  0
LINE
  5
D53
330
2E1
100
AcDbEntity
  8
寸法線_1
  6
Continuous
 62
     7
100
AcDbLine
 10
652.5319963298783
 20
686.4511726029688
 30
0.0
 11
655.5319963298783
 21
686.4511726029688
 31
0.0
  0
SOLID
  5
D54
330
2E1
100
AcDbEntity
  8
寸法線_1
  6
Continuous
 62
     7
100
AcDbTrace
 10
652.5319963298783
 20
686.4511726029688
 30
0.0
 11
657.0319963298783
 21
686.4511726029688
 31
0.0
 12
658.5319963298783
 22
687.9511726029687
 32
0.0
 13
658.5319963298783
 23
687.9511726029687
 33
0.0
  0
SOLID
  5
D55
330
2E1
100
AcDbEntity
  8
寸法線_1
  6
Continuous
 62
     7
100
AcDbTrace
 10
658.5319963298783
 20
684.9511726029687
 30
0.0
 11
658.5319963298783
 21
684.9511726029687
 31
0.0
 12
652.5319963298783
 22
686.4511726029688
 32
0.0
 13
657.0319963298783
 23
686.4511726029688
 33
0.0
  0
LINE
  5
D56
330
2E1
100
AcDbEntity
  8
寸法線_1
  6
Continuous
 62
     7
100
AcDbLine
 10
630.5319963298783
 20
686.4511726029688
 30
0.0
 11
627.5319963298783
 21
686.4511726029688
 31
0.0
  0
SOLID
  5
D57
330
2E1
100
AcDbEntity
  8
寸法線_1
  6
Continuous
 62
     7
100
AcDbTrace
 10
626.0319963298783
 20
686.4511726029688
 30
0.0
 11
630.5319963298783
 21
686.4511726029688
 31
0.0
 12
624.5319963298783
 22
687.9511726029687
 32
0.0
 13
624.5319963298783
 23
687.9511726029687
 33
0.0
  0
SOLID
  5
D58
330
2E1
100
AcDbEntity
  8
寸法線_1
  6
Continuous
 62
     7
100
AcDbTrace
 10
624.5319963298783
 20
684.9511726029687
 30
0.0
 11
624.5319963298783
 21
684.9511726029687
 31
0.0
 12
626.0319963298783
 22
686.4511726029688
 32
0.0
 13
630.5319963298783
 23
686.4511726029688
 33
0.0
  0
LINE
  5
D59
330
2E1
100
AcDbEntity
  8
寸法線_1
  6
Continuous
 62
     7
100
AcDbLine
 10
630.5319963298783
 20
635.1680369501722
 30
0.0
 11
630.5319963298783
 21
686.9511726029688
 31
0.0
  0
LINE
  5
D5A
330
2E1
100
AcDbEntity
  8
寸法線_1
  6
Continuous
 62
     7
100
AcDbLine
 10
652.5319963298783
 20
625.1680369501722
 30
0.0
 11
652.5319963298783
 21
686.9511726029688
 31
0.0
  0
LINE
  5
D5B
330
2E1
100
AcDbEntity
  8
寸法線_1
  6
Continuous
 62
     7
100
AcDbLine
 10
630.5319963298783
 20
686.4511726029688
 30
0.0
 11
652.5319963298783
 21
686.4511726029688
 31
0.0
  0
TEXT
  5
D5C
330
2E1
100
AcDbEntity
  8
寸法線_1
  6
Continuous
 62
     7
100
AcDbText
 10
654.7681074939714
 20
688.4801077572478
 30
0.0
 40
7.055555343627929
  1
8
  7
STYLE1
100
AcDbText
  0
LINE
  5
D5D
330
2E1
100
AcDbEntity
  8
寸法線_1
  6
Continuous
 62
     7
100
AcDbLine
 10
660.5319963298783
 20
686.4511726029688
 30
0.0
 11
663.5319963298783
 21
686.4511726029688
 31
0.0
  0
SOLID
  5
D5E
330
2E1
100
AcDbEntity
  8
寸法線_1
  6
Continuous
 62
     7
100
AcDbTrace
 10
660.5319963298783
 20
686.4511726029688
 30
0.0
 11
665.0319963298783
 21
686.4511726029688
 31
0.0
 12
666.5319963298783
 22
687.9511726029687
 32
0.0
 13
666.5319963298783
 23
687.9511726029687
 33
0.0
  0
SOLID
  5
D5F
330
2E1
100
AcDbEntity
  8
寸法線_1
  6
Continuous
 62
     7
100
AcDbTrace
 10
666.5319963298783
 20
684.9511726029687
 30
0.0
 11
666.5319963298783
 21
684.9511726029687
 31
0.0
 12
660.5319963298783
 22
686.4511726029688
 32
0.0
 13
665.0319963298783
 23
686.4511726029688
 33
0.0
  0
LINE
  5
D60
330
2E1
100
AcDbEntity
  8
寸法線_1
  6
Continuous
 62
     7
100
AcDbLine
 10
652.5319963298783
 20
686.4511726029688
 30
0.0
 11
649.5319963298783
 21
686.4511726029688
 31
0.0
  0
SOLID
  5
D61
330
2E1
100
AcDbEntity
  8
寸法線_1
  6
Continuous
 62
     7
100
AcDbTrace
 10
648.0319963298783
 20
686.4511726029688
 30
0.0
 11
652.5319963298783
 21
686.4511726029688
 31
0.0
 12
646.5319963298783
 22
687.9511726029687
 32
0.0
 13
646.5319963298783
 23
687.9511726029687
 33
0.0
  0
SOLID
  5
D62
330
2E1
100
AcDbEntity
  8
寸法線_1
  6
Continuous
 62
     7
100
AcDbTrace
 10
646.5319963298783
 20
684.9511726029687
 30
0.0
 11
646.5319963298783
 21
684.9511726029687
 31
0.0
 12
648.0319963298783
 22
686.4511726029688
 32
0.0
 13
652.5319963298783
 23
686.4511726029688
 33
0.0
  0
LINE
  5
D63
330
2E1
100
AcDbEntity
  8
寸法線_1
  6
Continuous
 62
     7
100
AcDbLine
 10
652.5319963298783
 20
625.1680369501722
 30
0.0
 11
652.5319963298783
 21
686.9511726029688
 31
0.0
  0
LINE
  5
D64
330
2E1
100
AcDbEntity
  8
寸法線_1
  6
Continuous
 62
     7
100
AcDbLine
 10
660.5319963298783
 20
657.6680369501722
 30
0.0
 11
660.5319963298783
 21
686.9511726029688
 31
0.0
  0
LINE
  5
D65
330
2E1
100
AcDbEntity
  8
寸法線_1
  6
Continuous
 62
     7
100
AcDbLine
 10
652.5319963298783
 20
686.4511726029688
 30
0.0
 11
660.5319963298783
 21
686.4511726029688
 31
0.0
  0
TEXT
  5
D66
330
2E1
100
AcDbEntity
  8
寸法線_1
  6
Continuous
 62
     7
100
AcDbText
 10
678.5030611755992
 20
618.1402592783582
 30
0.0
 40
7.055555343627929
  1
10
 50
90.0
  7
STYLE1
100
AcDbText
  0
LINE
  5
D67
330
2E1
100
AcDbEntity
  8
寸法線_1
  6
Continuous
 62
     7
100
AcDbLine
 10
680.5319963298783
 20
616.6680369501722
 30
0.0
 11
680.5319963298783
 21
613.6680369501722
 31
0.0
  0
SOLID
  5
D68
330
2E1
100
AcDbEntity
  8
寸法線_1
  6
Continuous
 62
     7
100
AcDbTrace
 10
679.4069963298783
 20
612.1680369501722
 30
0.0
 11
681.6569963298783
 21
612.1680369501722
 31
0.0
 12
680.5319963298783
 22
616.6680369501722
 32
0.0
 13
680.5319963298783
 23
616.6680369501722
 33
0.0
  0
SOLID
  5
D69
330
2E1
100
AcDbEntity
  8
寸法線_1
  6
Continuous
 62
     7
100
AcDbTrace
 10
682.0319963298783
 20
610.6680369501722
 30
0.0
 11
682.0319963298783
 21
610.6680369501722
 31
0.0
 12
680.5319963298783
 22
612.1680369501722
 32
0.0
 13
681.6569963298783
 23
612.1680369501722
 33
0.0
  0
SOLID
  5
D6A
330
2E1
100
AcDbEntity
  8
寸法線_1
  6
Continuous
 62
     7
100
AcDbTrace
 10
679.0319963298783
 20
610.6680369501722
 30
0.0
 11
679.0319963298783
 21
610.6680369501722
 31
0.0
 12
679.4069963298783
 22
612.1680369501722
 32
0.0
 13
680.5319963298783
 23
612.1680369501722
 33
0.0
  0
LINE
  5
D6B
330
2E1
100
AcDbEntity
  8
寸法線_1
  6
Continuous
 62
     7
100
AcDbLine
 10
680.5319963298783
 20
626.6680369501722
 30
0.0
 11
680.5319963298783
 21
629.6680369501721
 31
0.0
  0
SOLID
  5
D6C
330
2E1
100
AcDbEntity
  8
寸法線_1
  6
Continuous
 62
     7
100
AcDbTrace
 10
680.5319963298783
 20
631.1680369501722
 30
0.0
 11
681.6569963298783
 21
631.1680369501722
 31
0.0
 12
682.0319963298783
 22
632.6680369501722
 32
0.0
 13
682.0319963298783
 23
632.6680369501722
 33
0.0
  0
SOLID
  5
D6D
330
2E1
100
AcDbEntity
  8
寸法線_1
  6
Continuous
 62
     7
100
AcDbTrace
 10
679.4069963298783
 20
631.1680369501722
 30
0.0
 11
680.5319963298783
 21
631.1680369501722
 31
0.0
 12
679.0319963298783
 22
632.6680369501722
 32
0.0
 13
679.0319963298783
 23
632.6680369501722
 33
0.0
  0
SOLID
  5
D6E
330
2E1
100
AcDbEntity
  8
寸法線_1
  6
Continuous
 62
     7
100
AcDbTrace
 10
680.5319963298783
 20
626.6680369501722
 30
0.0
 11
680.5319963298783
 21
626.6680369501722
 31
0.0
 12
679.4069963298783
 22
631.1680369501722
 32
0.0
 13
681.6569963298783
 23
631.1680369501722
 33
0.0
  0
LINE
  5
D6F
330
2E1
100
AcDbEntity
  8
寸法線_1
  6
Continuous
 62
     7
100
AcDbLine
 10
639.0319963298783
 20
626.6680369501722
 30
0.0
 11
681.0319963298783
 21
626.6680369501722
 31
0.0
  0
LINE
  5
D70
330
2E1
100
AcDbEntity
  8
寸法線_1
  6
Continuous
 62
     7
100
AcDbLine
 10
661.0319963298783
 20
616.6680369501722
 30
0.0
 11
681.0319963298783
 21
616.6680369501722
 31
0.0
  0
LINE
  5
D71
330
2E1
100
AcDbEntity
  8
寸法線_1
  6
Continuous
 62
     7
100
AcDbLine
 10
680.5319963298783
 20
626.6680369501722
 30
0.0
 11
680.5319963298783
 21
616.6680369501722
 31
0.0
  0
TEXT
  5
D72
330
2E1
100
AcDbEntity
  8
寸法線_1
  6
Continuous
 62
     7
100
AcDbText
 10
638.0042186580643
 20
700.1256363224243
 30
0.0
 40
7.055555343627929
  1
38
  7
STYLE1
100
AcDbText
  0
LINE
  5
D73
330
2E1
100
AcDbEntity
  8
寸法線_1
  6
Continuous
 62
     7
100
AcDbLine
 10
660.5319963298783
 20
698.0967011681453
 30
0.0
 11
641.5319963298783
 21
698.0967011681453
 31
0.0
  0
SOLID
  5
D74
330
2E1
100
AcDbEntity
  8
寸法線_1
  6
Continuous
 62
     7
100
AcDbTrace
 10
656.0319963298783
 20
698.0967011681453
 30
0.0
 11
660.5319963298783
 21
698.0967011681453
 31
0.0
 12
654.5319963298783
 22
699.5967011681454
 32
0.0
 13
654.5319963298783
 23
699.5967011681454
 33
0.0
  0
SOLID
  5
D75
330
2E1
100
AcDbEntity
  8
寸法線_1
  6
Continuous
 62
     7
100
AcDbTrace
 10
654.5319963298783
 20
696.5967011681454
 30
0.0
 11
654.5319963298783
 21
696.5967011681454
 31
0.0
 12
656.0319963298783
 22
698.0967011681453
 32
0.0
 13
660.5319963298783
 23
698.0967011681453
 33
0.0
  0
LINE
  5
D76
330
2E1
100
AcDbEntity
  8
寸法線_1
  6
Continuous
 62
     7
100
AcDbLine
 10
622.5319963298783
 20
698.0967011681453
 30
0.0
 11
641.5319963298783
 21
698.0967011681453
 31
0.0
  0
SOLID
  5
D77
330
2E1
100
AcDbEntity
  8
寸法線_1
  6
Continuous
 62
     7
100
AcDbTrace
 10
622.5319963298783
 20
698.0967011681453
 30
0.0
 11
627.0319963298783
 21
698.0967011681453
 31
0.0
 12
628.5319963298783
 22
699.5967011681454
 32
0.0
 13
628.5319963298783
 23
699.5967011681454
 33
0.0
  0
SOLID
  5
D78
330
2E1
100
AcDbEntity
  8
寸法線_1
  6
Continuous
 62
     7
100
AcDbTrace
 10
628.5319963298783
 20
696.5967011681454
 30
0.0
 11
628.5319963298783
 21
696.5967011681454
 31
0.0
 12
622.5319963298783
 22
698.0967011681453
 32
0.0
 13
627.0319963298783
 23
698.0967011681453
 33
0.0
  0
LINE
  5
D79
330
2E1
100
AcDbEntity
  8
寸法線_1
  6
Continuous
 62
     7
100
AcDbLine
 10
622.5319963298783
 20
657.6680369501722
 30
0.0
 11
622.5319963298783
 21
698.5967011681453
 31
0.0
  0
LINE
  5
D7A
330
2E1
100
AcDbEntity
  8
寸法線_1
  6
Continuous
 62
     7
100
AcDbLine
 10
660.5319963298783
 20
657.6680369501722
 30
0.0
 11
660.5319963298783
 21
698.5967011681453
 31
0.0
  0
TEXT
  5
D7B
330
2E1
100
AcDbEntity
  8
寸法線_1
  6
Continuous
 62
     7
100
AcDbText
 10
678.5030611756009
 20
508.1402592783579
 30
0.0
 40
7.055555343627929
  1
10
 50
90.0
  7
STYLE1
100
AcDbText
  0
LINE
  5
D7C
330
2E1
100
AcDbEntity
  8
寸法線_1
  6
Continuous
 62
     7
100
AcDbLine
 10
680.53199632988
 20
506.6680369501718
 30
0.0
 11
680.53199632988
 21
503.6680369501718
 31
0.0
  0
SOLID
  5
D7D
330
2E1
100
AcDbEntity
  8
寸法線_1
  6
Continuous
 62
     7
100
AcDbTrace
 10
679.40699632988
 20
502.1680369501718
 30
0.0
 11
681.65699632988
 21
502.1680369501718
 31
0.0
 12
680.53199632988
 22
506.6680369501718
 32
0.0
 13
680.53199632988
 23
506.6680369501718
 33
0.0
  0
SOLID
  5
D7E
330
2E1
100
AcDbEntity
  8
寸法線_1
  6
Continuous
 62
     7
100
AcDbTrace
 10
682.03199632988
 20
500.6680369501719
 30
0.0
 11
682.03199632988
 21
500.6680369501719
 31
0.0
 12
680.53199632988
 22
502.1680369501718
 32
0.0
 13
681.65699632988
 23
502.1680369501718
 33
0.0
  0
SOLID
  5
D7F
330
2E1
100
AcDbEntity
  8
寸法線_1
  6
Continuous
 62
     7
100
AcDbTrace
 10
679.03199632988
 20
500.6680369501719
 30
0.0
 11
679.03199632988
 21
500.6680369501719
 31
0.0
 12
679.40699632988
 22
502.1680369501718
 32
0.0
 13
680.53199632988
 23
502.1680369501718
 33
0.0
  0
LINE
  5
D80
330
2E1
100
AcDbEntity
  8
寸法線_1
  6
Continuous
 62
     7
100
AcDbLine
 10
680.53199632988
 20
516.6680369501718
 30
0.0
 11
680.53199632988
 21
519.6680369501718
 31
0.0
  0
SOLID
  5
D81
330
2E1
100
AcDbEntity
  8
寸法線_1
  6
Continuous
 62
     7
100
AcDbTrace
 10
680.53199632988
 20
521.1680369501719
 30
0.0
 11
681.65699632988
 21
521.1680369501719
 31
0.0
 12
682.03199632988
 22
522.6680369501718
 32
0.0
 13
682.03199632988
 23
522.6680369501718
 33
0.0
  0
SOLID
  5
D82
330
2E1
100
AcDbEntity
  8
寸法線_1
  6
Continuous
 62
     7
100
AcDbTrace
 10
679.40699632988
 20
521.1680369501719
 30
0.0
 11
680.53199632988
 21
521.1680369501719
 31
0.0
 12
679.03199632988
 22
522.6680369501718
 32
0.0
 13
679.03199632988
 23
522.6680369501718
 33
0.0
  0
SOLID
  5
D83
330
2E1
100
AcDbEntity
  8
寸法線_1
  6
Continuous
 62
     7
100
AcDbTrace
 10
680.53199632988
 20
516.6680369501718
 30
0.0
 11
680.53199632988
 21
516.6680369501718
 31
0.0
 12
679.40699632988
 22
521.1680369501719
 32
0.0
 13
681.65699632988
 23
521.1680369501719
 33
0.0
  0
LINE
  5
D84
330
2E1
100
AcDbEntity
  8
寸法線_1
  6
Continuous
 62
     7
100
AcDbLine
 10
650.03199632988
 20
516.6680369501718
 30
0.0
 11
681.03199632988
 21
516.6680369501718
 31
0.0
  0
LINE
  5
D85
330
2E1
100
AcDbEntity
  8
寸法線_1
  6
Continuous
 62
     7
100
AcDbLine
 10
642.5319963298798
 20
506.6680369501718
 30
0.0
 11
681.03199632988
 21
506.6680369501718
 31
0.0
  0
LINE
  5
D86
330
2E1
100
AcDbEntity
  8
寸法線_1
  6
Continuous
 62
     7
100
AcDbLine
 10
680.53199632988
 20
516.6680369501718
 30
0.0
 11
680.53199632988
 21
506.6680369501718
 31
0.0
  0
TEXT
  5
D87
330
2E1
100
AcDbEntity
  8
寸法線_1
  6
Continuous
 62
     7
100
AcDbText
 10
678.5030611755992
 20
561.3763704424512
 30
0.0
 40
7.055555343627929
  1
100
 50
90.0
  7
STYLE1
100
AcDbText
  0
LINE
  5
D88
330
2E1
100
AcDbEntity
  8
寸法線_1
  6
Continuous
 62
     7
100
AcDbLine
 10
680.5319963298783
 20
516.6680369501718
 30
0.0
 11
680.5319963298783
 21
566.6680369501721
 31
0.0
  0
SOLID
  5
D89
330
2E1
100
AcDbEntity
  8
寸法線_1
  6
Continuous
 62
     7
100
AcDbTrace
 10
680.5319963298783
 20
521.1680369501719
 30
0.0
 11
681.6569963298783
 21
521.1680369501719
 31
0.0
 12
682.0319963298783
 22
522.6680369501718
 32
0.0
 13
682.0319963298783
 23
522.6680369501718
 33
0.0
  0
SOLID
  5
D8A
330
2E1
100
AcDbEntity
  8
寸法線_1
  6
Continuous
 62
     7
100
AcDbTrace
 10
679.4069963298783
 20
521.1680369501719
 30
0.0
 11
680.5319963298783
 21
521.1680369501719
 31
0.0
 12
679.0319963298783
 22
522.6680369501718
 32
0.0
 13
679.0319963298783
 23
522.6680369501718
 33
0.0
  0
SOLID
  5
D8B
330
2E1
100
AcDbEntity
  8
寸法線_1
  6
Continuous
 62
     7
100
AcDbTrace
 10
680.5319963298783
 20
516.6680369501718
 30
0.0
 11
680.5319963298783
 21
516.6680369501718
 31
0.0
 12
679.4069963298783
 22
521.1680369501719
 32
0.0
 13
681.6569963298783
 23
521.1680369501719
 33
0.0
  0
LINE
  5
D8C
330
2E1
100
AcDbEntity
  8
寸法線_1
  6
Continuous
 62
     7
100
AcDbLine
 10
680.5319963298783
 20
616.6680369501722
 30
0.0
 11
680.5319963298783
 21
566.6680369501721
 31
0.0
  0
SOLID
  5
D8D
330
2E1
100
AcDbEntity
  8
寸法線_1
  6
Continuous
 62
     7
100
AcDbTrace
 10
679.4069963298783
 20
612.1680369501722
 30
0.0
 11
681.6569963298783
 21
612.1680369501722
 31
0.0
 12
680.5319963298783
 22
616.6680369501722
 32
0.0
 13
680.5319963298783
 23
616.6680369501722
 33
0.0
  0
SOLID
  5
D8E
330
2E1
100
AcDbEntity
  8
寸法線_1
  6
Continuous
 62
     7
100
AcDbTrace
 10
682.0319963298783
 20
610.6680369501722
 30
0.0
 11
682.0319963298783
 21
610.6680369501722
 31
0.0
 12
680.5319963298783
 22
612.1680369501722
 32
0.0
 13
681.6569963298783
 23
612.1680369501722
 33
0.0
  0
SOLID
  5
D8F
330
2E1
100
AcDbEntity
  8
寸法線_1
  6
Continuous
 62
     7
100
AcDbTrace
 10
679.0319963298783
 20
610.6680369501722
 30
0.0
 11
679.0319963298783
 21
610.6680369501722
 31
0.0
 12
679.4069963298783
 22
612.1680369501722
 32
0.0
 13
680.5319963298783
 23
612.1680369501722
 33
0.0
  0
LINE
  5
D90
330
2E1
100
AcDbEntity
  8
寸法線_1
  6
Continuous
 62
     7
100
AcDbLine
 10
661.0319963298783
 20
616.6680369501722
 30
0.0
 11
681.0319963298783
 21
616.6680369501722
 31
0.0
  0
LINE
  5
D91
330
2E1
100
AcDbEntity
  8
寸法線_1
  6
Continuous
 62
     7
100
AcDbLine
 10
650.03199632988
 20
516.6680369501718
 30
0.0
 11
681.0319963298783
 21
516.6680369501718
 31
0.0
  0
TEXT
  5
D92
330
2E1
100
AcDbEntity
  8
寸法線_1
  6
Continuous
 62
     7
100
AcDbText
 10
907.3963633380889
 20
686.6470535926957
 30
0.0
 40
7.055555343627929
  1
300（天板側）
  7
STYLE1
100
AcDbText
  0
LINE
  5
D93
330
2E1
100
AcDbEntity
  8
寸法線_1
  6
Continuous
 62
     7
100
AcDbLine
 10
1080.326918204879
 20
684.6181184384168
 30
0.0
 11
930.3269182048795
 21
684.6181184384168
 31
0.0
  0
SOLID
  5
D94
330
2E1
100
AcDbEntity
  8
寸法線_1
  6
Continuous
 62
     7
100
AcDbTrace
 10
1075.826918204879
 20
684.6181184384168
 30
0.0
 11
1080.326918204879
 21
684.6181184384168
 31
0.0
 12
1074.326918204879
 22
686.1181184384167
 32
0.0
 13
1074.326918204879
 23
686.1181184384167
 33
0.0
  0
SOLID
  5
D95
330
2E1
100
AcDbEntity
  8
寸法線_1
  6
Continuous
 62
     7
100
AcDbTrace
 10
1074.326918204879
 20
683.1181184384168
 30
0.0
 11
1074.326918204879
 21
683.1181184384168
 31
0.0
 12
1075.826918204879
 22
684.6181184384168
 32
0.0
 13
1080.326918204879
 23
684.6181184384168
 33
0.0
  0
LINE
  5
D96
330
2E1
100
AcDbEntity
  8
寸法線_1
  6
Continuous
 62
     7
100
AcDbLine
 10
780.3269182048795
 20
684.6181184384168
 30
0.0
 11
930.3269182048795
 21
684.6181184384168
 31
0.0
  0
SOLID
  5
D97
330
2E1
100
AcDbEntity
  8
寸法線_1
  6
Continuous
 62
     7
100
AcDbTrace
 10
780.3269182048795
 20
684.6181184384168
 30
0.0
 11
784.8269182048795
 21
684.6181184384168
 31
0.0
 12
786.3269182048796
 22
686.1181184384167
 32
0.0
 13
786.3269182048796
 23
686.1181184384167
 33
0.0
  0
SOLID
  5
D98
330
2E1
100
AcDbEntity
  8
寸法線_1
  6
Continuous
 62
     7
100
AcDbTrace
 10
786.3269182048796
 20
683.1181184384168
 30
0.0
 11
786.3269182048796
 21
683.1181184384168
 31
0.0
 12
780.3269182048795
 22
684.6181184384168
 32
0.0
 13
784.8269182048795
 23
684.6181184384168
 33
0.0
  0
LINE
  5
D99
330
2E1
100
AcDbEntity
  8
寸法線_1
  6
Continuous
 62
     7
100
AcDbLine
 10
780.3269182048795
 20
657.6680369501722
 30
0.0
 11
780.3269182048795
 21
685.1181184384167
 31
0.0
  0
LINE
  5
D9A
330
2E1
100
AcDbEntity
  8
寸法線_1
  6
Continuous
 62
     7
100
AcDbLine
 10
1080.326918204879
 20
653.1680369501722
 30
0.0
 11
1080.326918204879
 21
685.1181184384167
 31
0.0
  0
TEXT
  5
D9B
330
2E1
100
AcDbEntity
  8
寸法線_1
  6
Continuous
 62
     7
100
AcDbText
 10
1105.142773456283
 20
562.2652597551954
 30
0.0
 40
7.055555343627929
  1
150（壁側）
 50
90.0
  7
STYLE1
100
AcDbText
  0
LINE
  5
D9C
330
2E1
100
AcDbEntity
  8
寸法線_1
  6
Continuous
 62
     7
100
AcDbLine
 10
1107.171708610562
 20
506.6680369501721
 30
0.0
 11
1107.171708610562
 21
581.6680369501722
 31
0.0
  0
SOLID
  5
D9D
330
2E1
100
AcDbEntity
  8
寸法線_1
  6
Continuous
 62
     7
100
AcDbTrace
 10
1107.171708610562
 20
511.1680369501721
 30
0.0
 11
1108.296708610562
 21
511.1680369501721
 31
0.0
 12
1108.671708610562
 22
512.6680369501721
 32
0.0
 13
1108.671708610562
 23
512.6680369501721
 33
0.0
  0
SOLID
  5
D9E
330
2E1
100
AcDbEntity
  8
寸法線_1
  6
Continuous
 62
     7
100
AcDbTrace
 10
1106.046708610562
 20
511.1680369501721
 30
0.0
 11
1107.171708610562
 21
511.1680369501721
 31
0.0
 12
1105.671708610562
 22
512.6680369501721
 32
0.0
 13
1105.671708610562
 23
512.6680369501721
 33
0.0
  0
SOLID
  5
D9F
330
2E1
100
AcDbEntity
  8
寸法線_1
  6
Continuous
 62
     7
100
AcDbTrace
 10
1107.171708610562
 20
506.6680369501721
 30
0.0
 11
1107.171708610562
 21
506.6680369501721
 31
0.0
 12
1106.046708610562
 22
511.1680369501721
 32
0.0
 13
1108.296708610562
 23
511.1680369501721
 33
0.0
  0
LINE
  5
DA0
330
2E1
100
AcDbEntity
  8
寸法線_1
  6
Continuous
 62
     7
100
AcDbLine
 10
1107.171708610562
 20
656.6680369501722
 30
0.0
 11
1107.171708610562
 21
581.6680369501722
 31
0.0
  0
SOLID
  5
DA1
330
2E1
100
AcDbEntity
  8
寸法線_1
  6
Continuous
 62
     7
100
AcDbTrace
 10
1106.046708610562
 20
652.1680369501722
 30
0.0
 11
1108.296708610562
 21
652.1680369501722
 31
0.0
 12
1107.171708610562
 22
656.6680369501722
 32
0.0
 13
1107.171708610562
 23
656.6680369501722
 33
0.0
  0
SOLID
  5
DA2
330
2E1
100
AcDbEntity
  8
寸法線_1
  6
Continuous
 62
     7
100
AcDbTrace
 10
1108.671708610562
 20
650.6680369501722
 30
0.0
 11
1108.671708610562
 21
650.6680369501722
 31
0.0
 12
1107.171708610562
 22
652.1680369501722
 32
0.0
 13
1108.296708610562
 23
652.1680369501722
 33
0.0
  0
SOLID
  5
DA3
330
2E1
100
AcDbEntity
  8
寸法線_1
  6
Continuous
 62
     7
100
AcDbTrace
 10
1105.671708610562
 20
650.6680369501722
 30
0.0
 11
1105.671708610562
 21
650.6680369501722
 31
0.0
 12
1106.046708610562
 22
652.1680369501722
 32
0.0
 13
1107.171708610562
 23
652.1680369501722
 33
0.0
  0
LINE
  5
DA4
330
2E1
100
AcDbEntity
  8
寸法線_1
  6
Continuous
 62
     7
100
AcDbLine
 10
1076.826918204879
 20
656.6680369501722
 30
0.0
 11
1107.671708610562
 21
656.6680369501722
 31
0.0
  0
LINE
  5
DA5
330
2E1
100
AcDbEntity
  8
寸法線_1
  6
Continuous
 62
     7
100
AcDbLine
 10
1081.755522925335
 20
506.6680369501721
 30
0.0
 11
1107.671708610562
 21
506.6680369501721
 31
0.0
  0
TEXT
  5
DA6
330
2E1
100
AcDbEntity
  8
寸法線_1
  6
Continuous
 62
     7
100
AcDbText
 10
977.4288768741714
 20
609.4883429576372
 30
0.0
 40
7.055555343627929
  1
25
 50
62.16261152348653
  7
STYLE1
100
AcDbText
  0
LINE
  5
DA7
330
2E1
100
AcDbEntity
  8
寸法線_1
  6
Continuous
 62
     7
100
AcDbLine
 10
986.5225142126243
 20
622.3637616827062
 30
0.0
 11
987.9234055409231
 21
625.0165910187732
 31
0.0
  0
SOLID
  5
DA8
330
2E1
100
AcDbEntity
  8
寸法線_1
  6
Continuous
 62
     7
100
AcDbTrace
 10
987.6537606033094
 20
626.9689746906908
 30
0.0
 11
988.4305289580472
 21
626.9689746906908
 31
0.0
 12
987.9978822011883
 22
628.3698660189895
 32
0.0
 13
987.9978822011883
 23
628.3698660189895
 33
0.0
  0
SOLID
  5
DA9
330
2E1
100
AcDbEntity
  8
寸法線_1
  6
Continuous
 62
     7
100
AcDbTrace
 10
988.6238512050724
 20
626.3430056868067
 30
0.0
 11
990.0895814521417
 21
626.3430056868067
 31
0.0
 12
990.6507115372548
 22
626.9689746906908
 32
0.0
 13
990.6507115372548
 23
626.9689746906908
 33
0.0
  0
SOLID
  5
DAA
330
2E1
100
AcDbEntity
  8
寸法線_1
  6
Continuous
 62
     7
100
AcDbTrace
 10
987.4999946048427
 20
626.3430056868067
 30
0.0
 11
988.6238512050724
 21
626.3430056868067
 31
0.0
 12
987.6537606033094
 22
626.9689746906908
 32
0.0
 13
988.4305289580472
 23
626.9689746906908
 33
0.0
  0
SOLID
  5
DAB
330
2E1
100
AcDbEntity
  8
寸法線_1
  6
Continuous
 62
     7
100
AcDbTrace
 10
986.5225142126243
 20
622.3637616827062
 30
0.0
 11
986.5225142126243
 21
622.3637616827062
 31
0.0
 12
987.4999946048427
 22
626.3430056868067
 32
0.0
 13
990.0895814521417
 23
626.3430056868067
 33
0.0
  0
LINE
  5
DAC
330
2E1
100
AcDbEntity
  8
寸法線_1
  6
Continuous
 62
     7
100
AcDbLine
 10
974.8484198101348
 20
600.2568505488148
 30
0.0
 11
973.4475284818364
 21
597.6040212127478
 31
0.0
  0
SOLID
  5
DAD
330
2E1
100
AcDbEntity
  8
寸法線_1
  6
Continuous
 62
     7
100
AcDbTrace
 10
971.2813525706176
 20
596.2776065447143
 30
0.0
 11
973.8709394179167
 21
596.2776065447143
 31
0.0
 12
974.8484198101348
 22
600.2568505488148
 32
0.0
 13
974.8484198101348
 23
600.2568505488148
 33
0.0
  0
SOLID
  5
DAE
330
2E1
100
AcDbEntity
  8
寸法線_1
  6
Continuous
 62
     7
100
AcDbTrace
 10
972.9404050647119
 20
595.6516375408301
 30
0.0
 11
973.7171734194497
 21
595.6516375408301
 31
0.0
 12
972.7470828176867
 22
596.2776065447143
 32
0.0
 13
973.8709394179167
 23
596.2776065447143
 33
0.0
  0
SOLID
  5
DAF
330
2E1
100
AcDbEntity
  8
寸法線_1
  6
Continuous
 62
     7
100
AcDbTrace
 10
970.720222485504
 20
595.6516375408301
 30
0.0
 11
970.720222485504
 21
595.6516375408301
 31
0.0
 12
971.2813525706176
 22
596.2776065447143
 32
0.0
 13
972.7470828176867
 23
596.2776065447143
 33
0.0
  0
SOLID
  5
DB0
330
2E1
100
AcDbEntity
  8
寸法線_1
  6
Continuous
 62
     7
100
AcDbTrace
 10
973.3730518215711
 20
594.2507462125315
 30
0.0
 11
973.3730518215711
 21
594.2507462125315
 31
0.0
 12
972.9404050647119
 22
595.6516375408301
 32
0.0
 13
973.7171734194497
 23
595.6516375408301
 33
0.0
  0
LINE
  5
DB1
330
2E1
100
AcDbEntity
  8
寸法線_1
  6
Continuous
 62
     7
100
AcDbLine
 10
982.050775282385
 20
596.4534708186438
 30
0.0
 11
974.4062815874571
 21
600.4903324368646
 31
0.0
  0
LINE
  5
DB2
330
2E1
100
AcDbEntity
  8
寸法線_1
  6
Continuous
 62
     7
100
AcDbLine
 10
993.7248696848742
 20
618.5603819525352
 30
0.0
 11
986.0803759899463
 21
622.5972435707561
 31
0.0
  0
LINE
  5
DB3
330
2E1
100
AcDbEntity
  8
寸法線_1
  6
Continuous
 62
     7
100
AcDbLine
 10
974.8484198101348
 20
600.2568505488148
 30
0.0
 11
986.5225142126243
 21
622.3637616827062
 31
0.0
  0
TEXT
  5
DB4
330
2E1
100
AcDbEntity
  8
寸法線_1
  6
Continuous
 62
     7
100
AcDbText
 10
951.0124753925341
 20
488.6969721044513
 30
0.0
 40
7.055555343627929
  1
補強(215)
  7
STYLE1
100
AcDbText
  0
LINE
  5
DB5
330
2E1
100
AcDbEntity
  8
寸法線_1
  6
Continuous
 62
     7
100
AcDbLine
 10
858.4480316265143
 20
486.6680369501721
 30
0.0
 11
966.8874749156969
 21
486.6680369501721
 31
0.0
  0
SOLID
  5
DB6
330
2E1
100
AcDbEntity
  8
寸法線_1
  6
Continuous
 62
     7
100
AcDbTrace
 10
858.4480316265143
 20
486.6680369501721
 30
0.0
 11
862.9480316265143
 21
486.6680369501721
 31
0.0
 12
864.4480316265143
 22
488.1680369501721
 32
0.0
 13
864.4480316265143
 23
488.1680369501721
 33
0.0
  0
SOLID
  5
DB7
330
2E1
100
AcDbEntity
  8
寸法線_1
  6
Continuous
 62
     7
100
AcDbTrace
 10
864.4480316265143
 20
485.1680369501721
 30
0.0
 11
864.4480316265143
 21
485.1680369501721
 31
0.0
 12
858.4480316265143
 22
486.6680369501721
 32
0.0
 13
862.9480316265143
 23
486.6680369501721
 33
0.0
  0
LINE
  5
DB8
330
2E1
100
AcDbEntity
  8
寸法線_1
  6
Continuous
 62
     7
100
AcDbLine
 10
1075.326918204879
 20
486.6680369501721
 30
0.0
 11
966.8874749156969
 21
486.6680369501721
 31
0.0
  0
SOLID
  5
DB9
330
2E1
100
AcDbEntity
  8
寸法線_1
  6
Continuous
 62
     7
100
AcDbTrace
 10
1070.826918204879
 20
486.6680369501721
 30
0.0
 11
1075.326918204879
 21
486.6680369501721
 31
0.0
 12
1069.326918204879
 22
488.1680369501721
 32
0.0
 13
1069.326918204879
 23
488.1680369501721
 33
0.0
  0
SOLID
  5
DBA
330
2E1
100
AcDbEntity
  8
寸法線_1
  6
Continuous
 62
     7
100
AcDbTrace
 10
1069.326918204879
 20
485.1680369501721
 30
0.0
 11
1069.326918204879
 21
485.1680369501721
 31
0.0
 12
1070.826918204879
 22
486.6680369501721
 32
0.0
 13
1075.326918204879
 23
486.6680369501721
 33
0.0
  0
LINE
  5
DBB
330
2E1
100
AcDbEntity
  8
寸法線_1
  6
Continuous
 62
     7
100
AcDbLine
 10
1075.326918204879
 20
505.6680369501721
 30
0.0
 11
1075.326918204879
 21
486.1680369501721
 31
0.0
  0
LINE
  5
DBC
330
2E1
100
AcDbEntity
  8
寸法線_1
  6
Continuous
 62
     7
100
AcDbLine
 10
858.4480316265143
 20
650.6680369501729
 30
0.0
 11
858.4480316265143
 21
486.1680369501721
 31
0.0
  0
TEXT
  5
DBD
330
2E1
100
AcDbEntity
  8
寸法線_1
  6
Continuous
 62
     7
100
AcDbText
 10
758.2979830506005
 20
578.293037427009
 30
0.0
 40
7.055555343627929
  1
補強(115)
 50
90.0
  7
STYLE1
100
AcDbText
  0
LINE
  5
DBE
330
2E1
100
AcDbEntity
  8
寸法線_1
  6
Continuous
 62
     7
100
AcDbLine
 10
760.3269182048795
 20
651.6680369501722
 30
0.0
 11
760.3269182048795
 21
594.1680369501718
 31
0.0
  0
SOLID
  5
DBF
330
2E1
100
AcDbEntity
  8
寸法線_1
  6
Continuous
 62
     7
100
AcDbTrace
 10
759.2019182048796
 20
647.1680369501722
 30
0.0
 11
761.4519182048796
 21
647.1680369501722
 31
0.0
 12
760.3269182048795
 22
651.6680369501722
 32
0.0
 13
760.3269182048795
 23
651.6680369501722
 33
0.0
  0
SOLID
  5
DC0
330
2E1
100
AcDbEntity
  8
寸法線_1
  6
Continuous
 62
     7
100
AcDbTrace
 10
761.8269182048796
 20
645.6680369501722
 30
0.0
 11
761.8269182048796
 21
645.6680369501722
 31
0.0
 12
760.3269182048795
 22
647.1680369501722
 32
0.0
 13
761.4519182048796
 23
647.1680369501722
 33
0.0
  0
SOLID
  5
DC1
330
2E1
100
AcDbEntity
  8
寸法線_1
  6
Continuous
 62
     7
100
AcDbTrace
 10
758.8269182048795
 20
645.6680369501722
 30
0.0
 11
758.8269182048795
 21
645.6680369501722
 31
0.0
 12
759.2019182048796
 22
647.1680369501722
 32
0.0
 13
760.3269182048795
 23
647.1680369501722
 33
0.0
  0
LINE
  5
DC2
330
2E1
100
AcDbEntity
  8
寸法線_1
  6
Continuous
 62
     7
100
AcDbLine
 10
760.3269182048795
 20
536.6680369501716
 30
0.0
 11
760.3269182048795
 21
594.1680369501718
 31
0.0
  0
SOLID
  5
DC3
330
2E1
100
AcDbEntity
  8
寸法線_1
  6
Continuous
 62
     7
100
AcDbTrace
 10
760.3269182048795
 20
541.1680369501716
 30
0.0
 11
761.4519182048796
 21
541.1680369501716
 31
0.0
 12
761.8269182048796
 22
542.6680369501716
 32
0.0
 13
761.8269182048796
 23
542.6680369501716
 33
0.0
  0
SOLID
  5
DC4
330
2E1
100
AcDbEntity
  8
寸法線_1
  6
Continuous
 62
     7
100
AcDbTrace
 10
759.2019182048796
 20
541.1680369501716
 30
0.0
 11
760.3269182048795
 21
541.1680369501716
 31
0.0
 12
758.8269182048795
 22
542.6680369501716
 32
0.0
 13
758.8269182048795
 23
542.6680369501716
 33
0.0
  0
SOLID
  5
DC5
330
2E1
100
AcDbEntity
  8
寸法線_1
  6
Continuous
 62
     7
100
AcDbTrace
 10
760.3269182048795
 20
536.6680369501716
 30
0.0
 11
760.3269182048795
 21
536.6680369501716
 31
0.0
 12
759.2019182048796
 22
541.1680369501716
 32
0.0
 13
761.4519182048796
 23
541.1680369501716
 33
0.0
  0
LINE
  5
DC6
330
2E1
100
AcDbEntity
  8
寸法線_1
  6
Continuous
 62
     7
100
AcDbLine
 10
1074.326918204879
 20
536.6680369501716
 30
0.0
 11
759.8269182048795
 21
536.6680369501716
 31
0.0
  0
LINE
  5
DC7
330
2E1
100
AcDbEntity
  8
寸法線_1
  6
Continuous
 62
     7
100
AcDbLine
 10
779.3269182048796
 20
651.6680369501722
 30
0.0
 11
759.8269182048795
 21
651.6680369501722
 31
0.0
  0
TEXT
  5
DC8
330
2E1
100
AcDbEntity
  8
寸法線_1
  6
Continuous
 62
     7
100
AcDbText
 10
981.8297997530081
 20
546.1222250132668
 30
0.0
 40
7.055555343627932
  1
(R700)
 50
60.0
  7
STYLE1
100
AcDbText
  0
LINE
  5
DC9
330
2E1
100
AcDbEntity
  8
寸法線_1
  6
Continuous
 62
     7
100
AcDbLine
 10
1006.06040845804
 20
583.2107779426943
 30
0.0
 11
983.9429417685382
 21
544.9022019017645
 31
0.0
  0
SOLID
  5
DCA
330
2E1
100
AcDbEntity
  8
寸法線_1
  6
Continuous
 62
     7
100
AcDbTrace
 10
1002.29224188203
 20
579.3136636256644
 30
0.0
 11
1004.945596310646
 21
579.3136636256644
 31
0.0
 12
1006.06040845804
 22
583.2107779426943
 32
0.0
 13
1006.06040845804
 23
583.2107779426943
 33
0.0
  0
SOLID
  5
DCB
330
2E1
100
AcDbEntity
  8
寸法線_1
  6
Continuous
 62
     7
100
AcDbTrace
 10
1003.95752277507
 20
578.7646255199876
 30
0.0
 11
1004.788537959313
 21
578.7646255199876
 31
0.0
 12
1003.81040845804
 22
579.3136636256644
 32
0.0
 13
1004.945596310646
 23
579.3136636256644
 33
0.0
  0
SOLID
  5
DCC
330
2E1
100
AcDbEntity
  8
寸法線_1
  6
Continuous
 62
     7
100
AcDbTrace
 10
1001.761370352364
 20
578.7646255199876
 30
0.0
 11
1001.761370352364
 21
578.7646255199876
 31
0.0
 12
1002.29224188203
 22
579.3136636256644
 32
0.0
 13
1003.81040845804
 23
579.3136636256644
 33
0.0
  0
SOLID
  5
DCD
330
2E1
100
AcDbEntity
  8
寸法線_1
  6
Continuous
 62
     7
100
AcDbTrace
 10
1004.359446563717
 20
577.2646255199877
 30
0.0
 11
1004.359446563717
 21
577.2646255199877
 31
0.0
 12
1003.95752277507
 22
578.7646255199876
 32
0.0
 13
1004.788537959313
 23
578.7646255199876
 33
0.0
  0
TEXT
  5
DCE
330
2E1
100
AcDbEntity
  8
寸法線_1
  6
Continuous
 62
     7
100
AcDbText
 10
624.7681074939714
 20
688.4801077572478
 30
0.0
 40
7.055555343627929
  1
8
  7
STYLE1
100
AcDbText
  0
LINE
  5
DCF
330
2E1
100
AcDbEntity
  8
寸法線_1
  6
Continuous
 62
     7
100
AcDbLine
 10
630.5319963298783
 20
686.4511726029688
 30
0.0
 11
633.5319963298783
 21
686.4511726029688
 31
0.0
  0
SOLID
  5
DD0
330
2E1
100
AcDbEntity
  8
寸法線_1
  6
Continuous
 62
     7
100
AcDbTrace
 10
630.5319963298783
 20
686.4511726029688
 30
0.0
 11
635.0319963298783
 21
686.4511726029688
 31
0.0
 12
636.5319963298783
 22
687.9511726029687
 32
0.0
 13
636.5319963298783
 23
687.9511726029687
 33
0.0
  0
SOLID
  5
DD1
330
2E1
100
AcDbEntity
  8
寸法線_1
  6
Continuous
 62
     7
100
AcDbTrace
 10
636.5319963298783
 20
684.9511726029687
 30
0.0
 11
636.5319963298783
 21
684.9511726029687
 31
0.0
 12
630.5319963298783
 22
686.4511726029688
 32
0.0
 13
635.0319963298783
 23
686.4511726029688
 33
0.0
  0
LINE
  5
DD2
330
2E1
100
AcDbEntity
  8
寸法線_1
  6
Continuous
 62
     7
100
AcDbLine
 10
622.5319963298783
 20
686.4511726029688
 30
0.0
 11
619.5319963298783
 21
686.4511726029688
 31
0.0
  0
SOLID
  5
DD3
330
2E1
100
AcDbEntity
  8
寸法線_1
  6
Continuous
 62
     7
100
AcDbTrace
 10
618.0319963298783
 20
686.4511726029688
 30
0.0
 11
622.5319963298783
 21
686.4511726029688
 31
0.0
 12
616.5319963298783
 22
687.9511726029687
 32
0.0
 13
616.5319963298783
 23
687.9511726029687
 33
0.0
  0
SOLID
  5
DD4
330
2E1
100
AcDbEntity
  8
寸法線_1
  6
Continuous
 62
     7
100
AcDbTrace
 10
616.5319963298783
 20
684.9511726029687
 30
0.0
 11
616.5319963298783
 21
684.9511726029687
 31
0.0
 12
618.0319963298783
 22
686.4511726029688
 32
0.0
 13
622.5319963298783
 23
686.4511726029688
 33
0.0
  0
LINE
  5
DD5
330
2E1
100
AcDbEntity
  8
寸法線_1
  6
Continuous
 62
     7
100
AcDbLine
 10
622.5319963298783
 20
657.6680369501722
 30
0.0
 11
622.5319963298783
 21
686.9511726029688
 31
0.0
  0
LINE
  5
DD6
330
2E1
100
AcDbEntity
  8
寸法線_1
  6
Continuous
 62
     7
100
AcDbLine
 10
630.5319963298783
 20
635.1680369501722
 30
0.0
 11
630.5319963298783
 21
686.9511726029688
 31
0.0
  0
LINE
  5
DD7
330
2E1
100
AcDbEntity
  8
寸法線_1
  6
Continuous
 62
     7
100
AcDbLine
 10
622.5319963298783
 20
686.4511726029688
 30
0.0
 11
630.5319963298783
 21
686.4511726029688
 31
0.0
  0
TEXT
  5
DD8
330
2E1
100
AcDbEntity
  8
寸法線_1
  6
Continuous
 62
     7
100
AcDbText
 10
609.0838209381314
 20
482.4750883112923
 30
0.0
 40
7.055555343627929
  1
R50
 50
54.99999999999976
  7
STYLE1
100
AcDbText
  0
LINE
  5
DD9
330
2E1
100
AcDbEntity
  8
寸法線_1
  6
Continuous
 62
     7
100
AcDbLine
 10
629.9541816786098
 20
508.0269616341304
 30
0.0
 11
611.0825897898653
 21
481.0755352941693
 31
0.0
  0
SOLID
  5
DDA
330
2E1
100
AcDbEntity
  8
寸法線_1
  6
Continuous
 62
     7
100
AcDbTrace
 10
625.708290394278
 20
504.3407774348301
 30
0.0
 11
628.5418628392707
 21
504.3407774348301
 31
0.0
 12
629.9541816786098
 22
508.0269616341304
 32
0.0
 13
629.9541816786098
 23
508.0269616341304
 33
0.0
  0
SOLID
  5
DDB
330
2E1
100
AcDbEntity
  8
寸法線_1
  6
Continuous
 62
     7
100
AcDbTrace
 10
627.4380401232551
 20
503.9724140229231
 30
0.0
 11
628.4007286587113
 21
503.9724140229231
 31
0.0
 12
627.37308771503
 22
504.3407774348301
 32
0.0
 13
628.5418628392707
 23
504.3407774348301
 33
0.0
  0
SOLID
  5
DDC
330
2E1
100
AcDbEntity
  8
寸法線_1
  6
Continuous
 62
     7
100
AcDbTrace
 10
625.28399499407
 20
503.9724140229231
 30
0.0
 11
625.28399499407
 21
503.9724140229231
 31
0.0
 12
625.708290394278
 22
504.3407774348301
 32
0.0
 13
627.37308771503
 23
504.3407774348301
 33
0.0
  0
SOLID
  5
DDD
330
2E1
100
AcDbEntity
  8
寸法線_1
  6
Continuous
 62
     7
100
AcDbTrace
 10
627.7414511269371
 20
502.25168471387
 30
0.0
 11
627.7414511269371
 21
502.25168471387
 31
0.0
 12
627.4380401232551
 22
503.9724140229231
 32
0.0
 13
628.4007286587113
 23
503.9724140229231
 33
0.0
  0
TEXT
  5
DDE
330
2E1
100
AcDbEntity
  8
寸法線_1
  6
Continuous
 62
     7
100
AcDbText
 10
1059.095033775135
 20
642.566282794416
 30
0.0
 40
7.055555343627929
  1
90ﾟ
 50
315.7703758354427
  7
STYLE1
100
AcDbText
  0
LINE
  5
DDF
330
2E1
100
AcDbEntity
  8
寸法線_1
  6
Continuous
 62
     7
100
AcDbLine
 10
784.3269182048795
 20
652.1680369501722
 30
0.0
 11
1058.130092633193
 21
652.1680369501722
 31
0.0
  0
LINE
  5
DE0
330
2E1
100
AcDbEntity
  8
寸法線_1
  6
Continuous
 62
     7
100
AcDbLine
 10
1075.826918204879
 20
510.6680369501721
 30
0.0
 11
1075.826918204879
 21
634.4712113784853
 31
0.0
  0
SOLID
  5
DE1
330
2E1
100
AcDbEntity
  8
寸法線_1
  6
Continuous
 62
     7
100
AcDbTrace
 10
1053.738959281794
 20
647.7235249803463
 30
0.0
 11
1056.020632624701
 21
647.7235249803463
 31
0.0
 12
1054.130092633193
 22
652.1680369501722
 32
0.0
 13
1054.130092633193
 23
652.1680369501722
 33
0.0
  0
SOLID
  5
DE2
330
2E1
100
AcDbEntity
  8
寸法線_1
  6
Continuous
 62
     7
100
AcDbTrace
 10
1056.550923427062
 20
646.4768526913863
 30
0.0
 11
1056.550923427062
 21
646.4768526913863
 31
0.0
 12
1054.834587736139
 22
647.7235249803463
 32
0.0
 13
1056.020632624701
 23
647.7235249803463
 33
0.0
  0
SOLID
  5
DE3
330
2E1
100
AcDbEntity
  8
寸法線_1
  6
Continuous
 62
     7
100
AcDbTrace
 10
1053.62924754881
 20
646.4768526913863
 30
0.0
 11
1053.929058704563
 21
646.4768526913863
 31
0.0
 12
1053.738959281794
 22
647.7235249803463
 32
0.0
 13
1054.834587736139
 23
647.7235249803463
 33
0.0
  0
SOLID
  5
DE4
330
2E1
100
AcDbEntity
  8
寸法線_1
  6
Continuous
 62
     7
100
AcDbTrace
 10
1053.587915447179
 20
646.0071892894224
 30
0.0
 11
1053.587915447179
 21
646.0071892894224
 31
0.0
 12
1053.62924754881
 22
646.4768526913863
 32
0.0
 13
1053.929058704563
 23
646.4768526913863
 33
0.0
  0
ARC
  5
DE5
330
2E1
100
AcDbEntity
  8
寸法線_1
  6
Continuous
 62
     7
100
AcDbCircle
 10
1075.826918204879
 20
652.1680369501722
 30
0.0
 40
21.69682557168676
100
AcDbArc
 50
180.0
 51
246.6603804338863
  0
SOLID
  5
DE6
330
2E1
100
AcDbEntity
  8
寸法線_1
  6
Continuous
 62
     7
100
AcDbTrace
 10
1071.382406235054
 20
631.1757064814313
 30
0.0
 11
1074.170705201298
 21
631.1757064814313
 31
0.0
 12
1070.135733946094
 22
632.8920421723553
 32
0.0
 13
1070.135733946094
 23
632.8920421723553
 33
0.0
  0
SOLID
  5
DE7
330
2E1
100
AcDbEntity
  8
寸法線_1
  6
Continuous
 62
     7
100
AcDbTrace
 10
1070.41250412046
 20
630.4712113784853
 30
0.0
 11
1075.826918204879
 21
630.4712113784853
 31
0.0
 12
1071.382406235054
 22
631.1757064814313
 32
0.0
 13
1074.170705201298
 23
631.1757064814313
 33
0.0
  0
SOLID
  5
DE8
330
2E1
100
AcDbEntity
  8
寸法線_1
  6
Continuous
 62
     7
100
AcDbTrace
 10
1069.66607054413
 20
629.9290341924715
 30
0.0
 11
1069.66607054413
 21
629.9290341924715
 31
0.0
 12
1070.41250412046
 22
630.4712113784853
 32
0.0
 13
1075.826918204879
 23
630.4712113784853
 33
0.0
  0
ARC
  5
DE9
330
2E1
100
AcDbEntity
  8
寸法線_1
  6
Continuous
 62
     7
100
AcDbCircle
 10
1075.826918204879
 20
652.1680369501722
 30
0.0
 40
21.69682557168682
100
AcDbArc
 50
204.8803712369994
 51
270.0
  0
TEXT
  5
DEA
330
2E1
100
AcDbEntity
  8
寸法線_1
  6
Continuous
 62
     7
100
AcDbText
 10
636.2403298221574
 20
674.196972104451
 30
0.0
 40
7.055555343627929
  1
4.5
  7
STYLE1
100
AcDbText
  0
LINE
  5
DEB
330
2E1
100
AcDbEntity
  8
寸法線_1
  6
Continuous
 62
     7
100
AcDbLine
 10
643.7819963298783
 20
672.1680369501719
 30
0.0
 11
646.7819963298783
 21
672.1680369501719
 31
0.0
  0
SOLID
  5
DEC
330
2E1
100
AcDbEntity
  8
寸法線_1
  6
Continuous
 62
     7
100
AcDbTrace
 10
643.7819963298783
 20
672.1680369501719
 30
0.0
 11
648.2819963298783
 21
672.1680369501719
 31
0.0
 12
649.7819963298783
 22
673.6680369501719
 32
0.0
 13
649.7819963298783
 23
673.6680369501719
 33
0.0
  0
SOLID
  5
DED
330
2E1
100
AcDbEntity
  8
寸法線_1
  6
Continuous
 62
     7
100
AcDbTrace
 10
649.7819963298783
 20
670.668036950172
 30
0.0
 11
649.7819963298783
 21
670.668036950172
 31
0.0
 12
643.7819963298783
 22
672.1680369501719
 32
0.0
 13
648.2819963298783
 23
672.1680369501719
 33
0.0
  0
LINE
  5
DEE
330
2E1
100
AcDbEntity
  8
寸法線_1
  6
Continuous
 62
     7
100
AcDbLine
 10
639.2819963298783
 20
672.1680369501719
 30
0.0
 11
636.2819963298782
 21
672.1680369501719
 31
0.0
  0
SOLID
  5
DEF
330
2E1
100
AcDbEntity
  8
寸法線_1
  6
Continuous
 62
     7
100
AcDbTrace
 10
634.7819963298783
 20
672.1680369501719
 30
0.0
 11
639.2819963298783
 21
672.1680369501719
 31
0.0
 12
633.2819963298783
 22
673.6680369501719
 32
0.0
 13
633.2819963298783
 23
673.6680369501719
 33
0.0
  0
SOLID
  5
DF0
330
2E1
100
AcDbEntity
  8
寸法線_1
  6
Continuous
 62
     7
100
AcDbTrace
 10
633.2819963298783
 20
670.668036950172
 30
0.0
 11
633.2819963298783
 21
670.668036950172
 31
0.0
 12
634.7819963298783
 22
672.1680369501719
 32
0.0
 13
639.2819963298783
 23
672.1680369501719
 33
0.0
  0
LINE
  5
DF1
330
2E1
100
AcDbEntity
  8
寸法線_1
  6
Continuous
 62
     7
100
AcDbLine
 10
639.2819963298783
 20
653.168036950172
 30
0.0
 11
639.2819963298783
 21
672.6680369501719
 31
0.0
  0
LINE
  5
DF2
330
2E1
100
AcDbEntity
  8
寸法線_1
  6
Continuous
 62
     7
100
AcDbLine
 10
643.7819963298783
 20
653.168036950172
 30
0.0
 11
643.7819963298783
 21
672.6680369501719
 31
0.0
  0
LINE
  5
DF3
330
2E1
100
AcDbEntity
  8
寸法線_1
  6
Continuous
 62
     7
100
AcDbLine
 10
639.2819963298783
 20
672.1680369501719
 30
0.0
 11
643.7819963298783
 21
672.1680369501719
 31
0.0
  0
LINE
  5
DF4
330
2E1
100
AcDbEntity
  8
0
  6
CENTER
 62
     3
100
AcDbLine
 10
634.0319963298798
 20
516.6680369501718
 30
0.0
 11
649.0319963298799
 21
516.6680369501718
 31
0.0
  0
LINE
  5
DF5
330
2E1
100
AcDbEntity
  8
0
  6
CENTER
 62
     3
100
AcDbLine
 10
645.0319963298783
 20
616.6680369501722
 30
0.0
 11
660.0319963298783
 21
616.6680369501722
 31
0.0
  0
CIRCLE
  5
DF6
330
2E1
100
AcDbEntity
  8
0
  6
Continuous
 62
     5
100
AcDbCircle
 10
652.5319963298783
 20
616.6680369501722
 30
0.0
 40
5.500000000000133
  0
ARC
  5
DF7
330
2E1
100
AcDbEntity
  8
0
  6
Continuous
 62
     5
100
AcDbCircle
 10
1072.326918204879
 20
648.6680369501722
 30
0.0
 40
3.5
100
AcDbArc
 50
0.0
 51
90.0
  0
LINE
  5
DF8
330
2E1
100
AcDbEntity
  8
0
  6
Continuous
 62
     5
100
AcDbLine
 10
1075.826918204879
 20
648.6680369501722
 30
0.0
 11
1075.826918204879
 21
506.6680369501721
 31
0.0
  0
LINE
  5
DF9
330
2E1
100
AcDbEntity
  8
0
  6
Continuous
 62
     5
100
AcDbLine
 10
780.3269182048795
 20
652.1680369501722
 30
0.0
 11
1072.326918204879
 21
652.1680369501722
 31
0.0
  0
ARC
  5
DFA
330
2E1
100
AcDbEntity
  8
0
  6
Continuous
 62
     5
100
AcDbCircle
 10
1072.326918204879
 20
648.6680369501722
 30
0.0
 40
8.0
100
AcDbArc
 50
0.0
 51
90.0
  0
LINE
  5
DFB
330
2E1
100
AcDbEntity
  8
0
  6
Continuous
 62
     5
100
AcDbLine
 10
1080.326918204879
 20
648.6680369501722
 30
0.0
 11
1080.326918204879
 21
506.6680369501721
 31
0.0
  0
LINE
  5
DFC
330
2E1
100
AcDbEntity
  8
0
  6
Continuous
 62
     5
100
AcDbLine
 10
780.3269182048795
 20
656.6680369501722
 30
0.0
 11
1072.326918204879
 21
656.6680369501722
 31
0.0
  0
LINE
  5
DFD
330
2E1
100
AcDbEntity
  8
0
  6
Continuous
 62
     5
100
AcDbLine
 10
660.5319963298783
 20
652.1680369501722
 30
0.0
 11
622.5319963298783
 21
652.1680369501722
 31
0.0
  0
LINE
  5
DFE
330
2E1
100
AcDbEntity
  8
0
  6
CENTER
 62
     3
100
AcDbLine
 10
623.0319963298783
 20
626.6680369501722
 30
0.0
 11
638.0319963298783
 21
626.6680369501722
 31
0.0
  0
CIRCLE
  5
DFF
330
2E1
100
AcDbEntity
  8
0
  6
Continuous
 62
     5
100
AcDbCircle
 10
630.5319963298783
 20
626.6680369501722
 30
0.0
 40
3.000000000000264
  0
CIRCLE
  5
E00
330
2E1
100
AcDbEntity
  8
0
  6
Continuous
 62
     5
100
AcDbCircle
 10
630.5319963298783
 20
626.6680369501722
 30
0.0
 40
5.500000000000133
  0
CIRCLE
  5
E01
330
2E1
100
AcDbEntity
  8
0
  6
Continuous
 62
     5
100
AcDbCircle
 10
641.5319963298799
 20
516.6680369501718
 30
0.0
 40
3.000000000000264
  0
LINE
  5
E02
330
2E1
100
AcDbEntity
  8
0
  6
Continuous
 62
     5
100
AcDbLine
 10
622.5319963298783
 20
656.6680369501722
 30
0.0
 11
622.5319963298783
 21
510.4187126307841
 31
0.0
  0
LINE
  5
E03
330
2E1
100
AcDbEntity
  8
0
  6
Continuous
 62
     5
100
AcDbLine
 10
643.7819963298783
 20
652.1680369501719
 30
0.0
 11
643.7819963298783
 21
537.1680369501721
 31
0.0
  0
LINE
  5
E04
330
2E1
100
AcDbEntity
  8
0
  6
Continuous
 62
     5
100
AcDbLine
 10
639.2819963298783
 20
652.1680369501719
 30
0.0
 11
639.2819963298783
 21
537.1680369501721
 31
0.0
  0
LINE
  5
E05
330
2E1
100
AcDbEntity
  8
0
  6
Continuous
 62
     5
100
AcDbLine
 10
643.7819963298783
 20
537.1680369501721
 30
0.0
 11
639.2819963298783
 21
537.1680369501721
 31
0.0
  0
CIRCLE
  5
E06
330
2E1
100
AcDbEntity
  8
0
  6
Continuous
 62
     5
100
AcDbCircle
 10
641.5319963298799
 20
516.6680369501718
 30
0.0
 40
5.500000000000133
  0
LINE
  5
E07
330
2E1
100
AcDbEntity
  8
0
  6
CENTER
 62
     3
100
AcDbLine
 10
652.5319963298783
 20
624.1680369501722
 30
0.0
 11
652.5319963298783
 21
609.1680369501722
 31
0.0
  0
CIRCLE
  5
E08
330
2E1
100
AcDbEntity
  8
0
  6
Continuous
 62
     5
100
AcDbCircle
 10
652.5319963298783
 20
616.6680369501722
 30
0.0
 40
3.000000000000264
  0
ARC
  5
E09
330
2E1
100
AcDbEntity
  8
0
  6
Continuous
 62
     5
100
AcDbCircle
 10
641.5319963298795
 20
556.6680369501721
 30
0.0
 40
50.00000000000015
100
AcDbArc
 50
247.6663173421919
 51
292.3336826578037
  0
LINE
  5
E0A
330
2E1
100
AcDbEntity
  8
0
  6
Continuous
 62
     5
100
AcDbLine
 10
660.5319963298783
 20
656.6680369501722
 30
0.0
 11
622.5319963298783
 21
656.6680369501722
 31
0.0
  0
LINE
  5
E0B
330
2E1
100
AcDbEntity
  8
0
  6
Continuous
 62
     5
100
AcDbLine
 10
1075.826918204879
 20
506.6680369501721
 30
0.0
 11
1080.326918204879
 21
506.6680369501721
 31
0.0
  0
LINE
  5
E0C
330
2E1
100
AcDbEntity
  8
0
  6
Continuous
 62
     5
100
AcDbLine
 10
660.5319963298783
 20
656.6680369501722
 30
0.0
 11
660.5319963298783
 21
510.4187126307828
 31
0.0
  0
LINE
  5
E0D
330
2E1
100
AcDbEntity
  8
0
  6
Continuous
 62
     5
100
AcDbLine
 10
780.3269182048795
 20
656.6680369501722
 30
0.0
 11
780.3269182048795
 21
652.1680369501722
 31
0.0
  0
LINE
  5
E0E
330
2E1
100
AcDbEntity
  8
0
  6
CENTER
 62
     3
100
AcDbLine
 10
641.5319963298783
 20
662.1680369501722
 30
0.0
 11
641.5319963298783
 21
501.1680369501721
 31
0.0
  0
LINE
  5
E0F
330
2E1
100
AcDbEntity
  8
0
  6
CENTER
 62
     3
100
AcDbLine
 10
641.5319963298799
 20
524.1680369501718
 30
0.0
 11
641.5319963298799
 21
509.1680369501719
 31
0.0
  0
LINE
  5
E10
330
2E1
100
AcDbEntity
  8
0
  6
CENTER
 62
     3
100
AcDbLine
 10
630.5319963298783
 20
634.1680369501722
 30
0.0
 11
630.5319963298783
 21
619.1680369501722
 31
0.0
  0
TEXT
  5
FE1
330
2E1
100
AcDbEntity
  8
____1
  6
Continuous
 62
     0
100
AcDbText
 10
1143.966242709352
 20
700.3447840400177
 30
0.0
 40
4.93888874053955
  1
ブラック色を追加
  7
STYLE1
100
AcDbText
  0
LINE
  5
FE2
330
2E1
100
AcDbEntity
  8
____1
  6
Continuous
 62
     0
100
AcDbLine
 10
1079.301006746548
 20
697.8243470988178
 30
0.0
 11
1259.301006746547
 21
697.8243470988178
 31
0.0
  0
TEXT
  5
FE3
330
2E1
100
AcDbEntity
  8
____1
  6
Continuous
 62
     0
100
AcDbText
 10
1103.078727771436
 20
700.3447840400177
 30
0.0
 40
4.93888874053955
  1
2020.03.10
  7
STYLE1
100
AcDbText
  0
TEXT
  5
FE4
330
2E1
100
AcDbEntity
  8
____1
  6
Continuous
 62
     0
100
AcDbText
 10
1087.269114155229
 20
699.7858792289402
 30
0.0
 40
4.682630310058594
  1
4
  7
STYLE1
100
AcDbText
  0
LINE
  5
FE5
330
2E1
100
AcDbEntity
  8
____1
  6
Continuous
 62
     0
100
AcDbLine
 10
1088.732435974462
 20
707.2595820982903
 30
0.0
 11
1093.682435974462
 21
698.6859306008243
 31
0.0
  0
LINE
  5
FE6
330
2E1
100
AcDbEntity
  8
____1
  6
Continuous
 62
     0
100
AcDbLine
 10
1088.732435974462
 20
707.2595820982903
 30
0.0
 11
1083.782435974462
 21
698.6859306008243
 31
0.0
  0
LINE
  5
FE7
330
2E1
100
AcDbEntity
  8
____1
  6
Continuous
 62
     0
100
AcDbLine
 10
1083.782435974462
 20
698.6859306008243
 30
0.0
 11
1093.682435974462
 21
698.6859306008243
 31
0.0
  0
TEXT
  5
FF0
330
2E1
100
AcDbEntity
  8
____1
  6
Continuous
 62
     7
100
AcDbText
 10
1146.790656028544
 20
235.0982067684439
 30
0.0
 40
6.773332977294922
  1
ＬＹ-８３３／８３３Ｂ
  7
STYLE1
100
AcDbText
  0
LINE
  5
FF1
330
2E1
100
AcDbEntity
  8
____1
  6
Continuous
 62
     0
100
AcDbLine
 10
1182.269860550469
 20
252.7097296839219
 30
0.0
 11
1177.319860550469
 21
244.1360781864559
 31
0.0
  0
LINE
  5
FF2
330
2E1
100
AcDbEntity
  8
____1
  6
Continuous
 62
     0
100
AcDbLine
 10
1182.269860550469
 20
252.7097296839219
 30
0.0
 11
1187.219860550469
 21
244.1360781864559
 31
0.0
  0
LINE
  5
FF3
330
2E1
100
AcDbEntity
  8
____1
  6
Continuous
 62
     0
100
AcDbLine
 10
1177.319860550469
 20
244.1360781864559
 30
0.0
 11
1187.219860550469
 21
244.1360781864559
 31
0.0
  0
TEXT
  5
FF4
330
2E1
100
AcDbEntity
  8
____1
  6
Continuous
 62
     0
100
AcDbText
 10
1180.806538731236
 20
245.2360268145717
 30
0.0
 40
4.682630310058594
  1
3
  7
STYLE1
100
AcDbText
  0
LINE
  5
FF5
330
2E1
100
AcDbEntity
  8
____1
  6
Continuous
 62
     0
100
AcDbLine
 10
1217.412275652541
 20
252.7097296839219
 30
0.0
 11
1212.462275652541
 21
244.1360781864559
 31
0.0
  0
LINE
  5
FF6
330
2E1
100
AcDbEntity
  8
____1
  6
Continuous
 62
     0
100
AcDbLine
 10
1217.412275652541
 20
252.7097296839219
 30
0.0
 11
1222.36227565254
 21
244.1360781864559
 31
0.0
  0
LINE
  5
FF7
330
2E1
100
AcDbEntity
  8
____1
  6
Continuous
 62
     0
100
AcDbLine
 10
1212.462275652541
 20
244.1360781864559
 30
0.0
 11
1222.36227565254
 21
244.1360781864559
 31
0.0
  0
TEXT
  5
FF8
330
2E1
100
AcDbEntity
  8
____1
  6
Continuous
 62
     0
100
AcDbText
 10
1215.948953833307
 20
245.2360268145717
 30
0.0
 40
4.682630310058594
  1
4
  7
STYLE1
100
AcDbText
  0
TEXT
  5
FF9
330
2E1
100
AcDbEntity
  8
____1
  6
Continuous
 62
     7
100
AcDbText
 10
1160.696115870367
 20
193.7953005911434
 30
0.0
 40
6.773332977294922
  1
ＳＲＫ００００２
  7
STYLE1
100
AcDbText
  0
TEXT
  5
FFD
330
2E1
100
AcDbEntity
  8
____1
  6
Continuous
 62
     7
100
AcDbText
 10
966.2657707297734
 20
261.8393264587663
 30
0.0
 40
6.773332977294922
  1
表面処理：粉体塗装仕上げ
  7
STYLE1
100
AcDbText
  0
LINE
  5
FFE
330
2E1
100
AcDbEntity
  8
____1
  6
Continuous
 62
     7
100
AcDbLine
 10
915.4948905247008
 20
253.8243470988177
 30
0.0
 11
630.6744798375603
 21
253.8243470988177
 31
0.0
  0
LINE
  5
FFF
330
2E1
100
AcDbEntity
  8
____1
  6
Continuous
 62
     7
100
AcDbLine
 10
630.6744798375603
 20
253.8243470988177
 30
0.0
 11
630.6744798375603
 21
211.2619098506686
 31
0.0
  0
LINE
  5
1000
330
2E1
100
AcDbEntity
  8
____1
  6
Continuous
 62
     7
100
AcDbLine
 10
686.9707263990562
 20
253.8243470988177
 30
0.0
 11
686.9707263990561
 21
211.2619098506687
 31
0.0
  0
TEXT
  5
1001
330
2E1
100
AcDbEntity
  8
____1
  6
Continuous
 62
     7
100
AcDbText
 10
641.2852987708647
 20
235.1378438193536
 30
0.0
 40
5.644444274902344
  1
 型　　番
  7
STYLE1
 72
     1
 11
657.7888515746401
 21
235.1378438193536
 31
0.0
100
AcDbText
  0
LINE
  5
1002
330
2E1
100
AcDbEntity
  8
____1
  6
Continuous
 62
     7
100
AcDbLine
 10
630.6744798375603
 20
232.5431284747431
 30
0.0
 11
915.4948905247008
 21
232.543128474743
 31
0.0
  0
LINE
  5
1003
330
2E1
100
AcDbEntity
  8
____1
  6
Continuous
 62
     7
100
AcDbLine
 10
630.6744798375603
 20
221.9025191627059
 30
0.0
 11
757.2352398799116
 21
221.902519162706
 31
0.0
  0
LINE
  5
1004
330
2E1
100
AcDbEntity
  8
____1
  6
Continuous
 62
     7
100
AcDbLine
 10
874.6880288344815
 20
221.902519162706
 30
0.0
 11
915.4948905247008
 21
221.9025191627059
 31
0.0
  0
TEXT
  5
1005
330
2E1
100
AcDbEntity
  8
____1
  6
Continuous
 62
     7
100
AcDbText
 10
630.7930806296606
 20
224.4972345073164
 30
0.0
 40
5.644444274902344
  1
 ＬＹ-８３３
  7
STYLE1
100
AcDbText
  0
LINE
  5
1006
330
2E1
100
AcDbEntity
  8
____1
  6
Continuous
 62
     7
100
AcDbLine
 10
630.6744798375603
 20
211.2619098506687
 30
0.0
 11
915.4948905247008
 21
211.2619098506687
 31
0.0
  0
TEXT
  5
1007
330
2E1
100
AcDbEntity
  8
____1
  6
Continuous
 62
     7
100
AcDbText
 10
630.7930806296606
 20
213.8566251952791
 30
0.0
 40
5.644444274902344
  1
 ＬＹ-８３３Ｂ
  7
STYLE1
100
AcDbText
  0
LINE
  5
1008
330
2E1
100
AcDbEntity
  8
____1
  6
Continuous
 62
     7
100
AcDbLine
 10
757.2352398799116
 20
253.8243470988176
 30
0.0
 11
757.2352398799115
 21
211.2619098506686
 31
0.0
  0
TEXT
  5
1009
330
2E1
100
AcDbEntity
  8
____1
  6
Continuous
 62
     7
100
AcDbText
 10
699.8580330945815
 20
235.1378438193535
 30
0.0
 40
5.644444274902344
  1
 本体塗装色
  7
STYLE1
 72
     1
 11
720.0290420769736
 21
235.1378438193535
 31
0.0
100
AcDbText
  0
TEXT
  5
100A
330
2E1
100
AcDbEntity
  8
____1
  6
Continuous
 62
     7
100
AcDbText
 10
688.8556645587311
 20
224.4972345073163
 30
0.0
 40
5.644444274902344
  1
 ホワイト(艶あり)
  7
STYLE1
 72
     1
 11
720.0290420769736
 21
224.4972345073163
 31
0.0
100
AcDbText
  0
TEXT
  5
100B
330
2E1
100
AcDbEntity
  8
____1
  6
Continuous
 62
     7
100
AcDbText
 10
688.8556645587311
 20
213.8566251952791
 30
0.0
 40
5.644444274902344
  1
 ブラック(艶消し)
  7
STYLE1
 72
     1
 11
720.0290420769736
 21
213.8566251952791
 31
0.0
100
AcDbText
  0
TEXT
  5
100C
330
2E1
100
AcDbEntity
  8
____1
  6
Continuous
 62
     7
100
AcDbText
 10
785.3724486169381
 20
245.7784531313909
 30
0.0
 40
5.644444274902344
  1
 【付属品】取付ビスセット
  7
STYLE1
 72
     1
 11
831.2156508496475
 21
245.7784531313909
 31
0.0
100
AcDbText
  0
TEXT
  5
100D
330
2E1
100
AcDbEntity
  8
____1
  6
Continuous
 62
     0
100
AcDbText
 10
619.3067952676743
 20
224.1561801399309
 30
0.0
 40
4.682630310058594
  1
1
  7
STYLE1
100
AcDbText
  0
LINE
  5
100E
330
2E1
100
AcDbEntity
  8
____1
  6
Continuous
 62
     0
100
AcDbLine
 10
615.8201170869075
 20
223.0562315118151
 30
0.0
 11
625.7201170869076
 21
223.0562315118151
 31
0.0
  0
LINE
  5
100F
330
2E1
100
AcDbEntity
  8
____1
  6
Continuous
 62
     0
100
AcDbLine
 10
620.7701170869073
 20
231.6298830092811
 30
0.0
 11
625.7201170869076
 21
223.0562315118151
 31
0.0
  0
LINE
  5
1010
330
2E1
100
AcDbEntity
  8
____1
  6
Continuous
 62
     0
100
AcDbLine
 10
620.7701170869073
 20
231.6298830092811
 30
0.0
 11
615.8201170869075
 21
223.0562315118151
 31
0.0
  0
LINE
  5
1011
330
2E1
100
AcDbEntity
  8
____1
  6
Continuous
 62
     0
100
AcDbLine
 10
620.4189694410035
 20
221.375035861113
 30
0.0
 11
615.4689694410035
 21
212.801384363647
 31
0.0
  0
LINE
  5
1012
330
2E1
100
AcDbEntity
  8
____1
  6
Continuous
 62
     0
100
AcDbLine
 10
620.4189694410035
 20
221.375035861113
 30
0.0
 11
625.3689694410032
 21
212.801384363647
 31
0.0
  0
LINE
  5
1013
330
2E1
100
AcDbEntity
  8
____1
  6
Continuous
 62
     0
100
AcDbLine
 10
615.4689694410035
 20
212.801384363647
 30
0.0
 11
625.3689694410032
 21
212.801384363647
 31
0.0
  0
TEXT
  5
1014
330
2E1
100
AcDbEntity
  8
____1
  6
Continuous
 62
     0
100
AcDbText
 10
618.9556476217699
 20
213.9013329917628
 30
0.0
 40
4.682630310058594
  1
4
  7
STYLE1
100
AcDbText
  0
TEXT
  5
1015
330
2E1
100
AcDbEntity
  8
____1
  6
Continuous
 62
     7
100
AcDbText
 10
763.5608102994731
 20
235.1378438193535
 30
0.0
 40
5.644444274902344
  1
 仕　　様 ／ 頭部の塗装色(本体と同等色)
  7
STYLE1
 72
     1
 11
835.0762057824997
 21
235.1378438193535
 31
0.0
100
AcDbText
  0
TEXT
  5
1016
330
2E1
100
AcDbEntity
  8
____1
  6
Continuous
 62
     7
100
AcDbText
 10
763.2539321892092
 20
224.4972345073163
 30
0.0
 40
5.644444274902344
  1
＜壁　側＞ 鉄 皿ﾀｯﾋﾟﾝﾈｼﾞ 5x45
  7
STYLE1
100
AcDbText
  0
TEXT
  5
1017
330
2E1
100
AcDbEntity
  8
____1
  6
Continuous
 62
     7
100
AcDbText
 10
763.2539321892094
 20
213.8566251952791
 30
0.0
 40
5.644444274902344
  1
＜天板側＞ 鉄 皿ﾀｯﾋﾟﾝﾈｼﾞ 5x16
  7
STYLE1
100
AcDbText
  0
TEXT
  5
1018
330
2E1
100
AcDbEntity
  8
____1
  6
Continuous
 62
     7
100
AcDbText
 10
880.6952872831336
 20
224.4972345073163
 30
0.0
 40
5.644444274902344
  1
ホワイト
  7
STYLE1
100
AcDbText
  0
TEXT
  5
1019
330
2E1
100
AcDbEntity
  8
____1
  6
Continuous
 62
     7
100
AcDbText
 10
880.6952872831336
 20
213.8566251952791
 30
0.0
 40
5.644444274902344
  1
ブラック
  7
STYLE1
100
AcDbText
  0
LINE
  5
101A
330
2E1
100
AcDbEntity
  8
____1
  6
Continuous
 62
     7
100
AcDbLine
 10
874.6880288344813
 20
232.543128474743
 30
0.0
 11
874.6880288344813
 21
211.2619098506686
 31
0.0
  0
LINE
  5
101B
330
2E1
100
AcDbEntity
  8
____1
  6
Continuous
 62
     7
100
AcDbLine
 10
915.494890524701
 20
253.8243470988176
 30
0.0
 11
915.4948905247008
 21
211.2619098506686
 31
0.0
  0
TEXT
  5
101C
330
2E1
100
AcDbEntity
  8
____1
  6
Continuous
 62
     0
100
AcDbText
 10
797.6232039476977
 20
259.0250605260919
 30
0.0
 40
4.682630310058594
  1
1
  7
STYLE1
100
AcDbText
  0
LINE
  5
101D
330
2E1
100
AcDbEntity
  8
____1
  6
Continuous
 62
     0
100
AcDbLine
 10
794.1365257669307
 20
257.9251118979761
 30
0.0
 11
804.0365257669307
 21
257.9251118979761
 31
0.0
  0
LINE
  5
101E
330
2E1
100
AcDbEntity
  8
____1
  6
Continuous
 62
     0
100
AcDbLine
 10
799.0865257669305
 20
266.4987633954421
 30
0.0
 11
804.0365257669307
 21
257.9251118979761
 31
0.0
  0
LINE
  5
101F
330
2E1
100
AcDbEntity
  8
____1
  6
Continuous
 62
     0
100
AcDbLine
 10
799.0865257669305
 20
266.4987633954421
 30
0.0
 11
794.1365257669307
 21
257.9251118979761
 31
0.0
  0
LINE
  5
1020
330
2E1
100
AcDbEntity
  8
____1
  6
Continuous
 62
     0
100
AcDbLine
 10
811.8080983043659
 20
266.4987633954421
 30
0.0
 11
806.8580983043661
 21
257.9251118979761
 31
0.0
  0
LINE
  5
1021
330
2E1
100
AcDbEntity
  8
____1
  6
Continuous
 62
     0
100
AcDbLine
 10
811.8080983043659
 20
266.4987633954421
 30
0.0
 11
816.7580983043661
 21
257.9251118979761
 31
0.0
  0
LINE
  5
1022
330
2E1
100
AcDbEntity
  8
____1
  6
Continuous
 62
     0
100
AcDbLine
 10
806.8580983043661
 20
257.9251118979761
 30
0.0
 11
816.7580983043661
 21
257.9251118979761
 31
0.0
  0
TEXT
  5
1023
330
2E1
100
AcDbEntity
  8
____1
  6
Continuous
 62
     0
100
AcDbText
 10
810.3447764851331
 20
259.0250605260919
 30
0.0
 40
4.682630310058594
  1
3
  7
STYLE1
100
AcDbText
  0
ENDSEC
  0
SECTION
  2
OBJECTS
  0
DICTIONARY
  5
2CD
330
0
100
AcDbDictionary
281
     1
  3
ACAD_CIP_PREVIOUS_PRODUCT_INFO
350
E68
  3
ACAD_COLOR
350
2DC
  3
ACAD_DETAILVIEWSTYLE
350
E62
  3
ACAD_GROUP
350
2CE
  3
ACAD_LAYOUT
350
2DA
  3
ACAD_MATERIAL
350
2DB
  3
ACAD_MLEADERSTYLE
350
E5E
  3
ACAD_MLINESTYLE
350
2D7
  3
ACAD_PLOTSETTINGS
350
2D9
  3
ACAD_PLOTSTYLENAME
350
2CF
  3
ACAD_SCALELIST
350
E4C
  3
ACAD_SECTIONVIEWSTYLE
350
E60
  3
ACAD_TABLESTYLE
350
E4A
  3
ACAD_VISUALSTYLE
350
E31
  3
ACDB_RECOMPOSE_DATA
350
107E
  3
AcDbVariableDictionary
350
105A
  3
AcDsDecomposeData
350
1085
  3
DWGPROPS
350
107F
  0
DICTIONARY
  5
4A6
330
2C3
100
AcDbDictionary
280
     1
281
     1
  3
ACAD_LAYERSTATES
360
4A7
  0
DICTIONARY
  5
1024
330
2D1
100
AcDbDictionary
280
     1
281
     1
  3
ADSK_XREC_LAYER_RECONCILED
360
1025
  0
DICTIONARY
  5
1026
330
2F1
100
AcDbDictionary
280
     1
281
     1
  3
ADSK_XREC_LAYER_RECONCILED
360
1027
  0
DICTIONARY
  5
1028
330
2F2
100
AcDbDictionary
280
     1
281
     1
  3
ADSK_XREC_LAYER_RECONCILED
360
1029
  0
DICTIONARY
  5
102A
330
2F3
100
AcDbDictionary
280
     1
281
     1
  3
ADSK_XREC_LAYER_RECONCILED
360
102B
  0
DICTIONARY
  5
102C
330
2F4
100
AcDbDictionary
280
     1
281
     1
  3
ADSK_XREC_LAYER_RECONCILED
360
102D
  0
DICTIONARY
  5
102E
330
2F5
100
AcDbDictionary
280
     1
281
     1
  3
ADSK_XREC_LAYER_RECONCILED
360
102F
  0
DICTIONARY
  5
1030
330
2F6
100
AcDbDictionary
280
     1
281
     1
  3
ADSK_XREC_LAYER_RECONCILED
360
1031
  0
DICTIONARY
  5
1032
330
2F7
100
AcDbDictionary
280
     1
281
     1
  3
ADSK_XREC_LAYER_RECONCILED
360
1033
  0
DICTIONARY
  5
1034
330
2F8
100
AcDbDictionary
280
     1
281
     1
  3
ADSK_XREC_LAYER_RECONCILED
360
1035
  0
DICTIONARY
  5
1036
330
2F9
100
AcDbDictionary
280
     1
281
     1
  3
ADSK_XREC_LAYER_RECONCILED
360
1037
  0
XRECORD
  5
E68
102
{ACAD_REACTORS
330
2CD
102
}
330
2CD
100
AcDbXrecord
280
     1
300
ACDLT
300
2015
300
ACDLT_F_S
  0
DICTIONARY
  5
2DC
102
{ACAD_REACTORS
330
2CD
102
}
330
2CD
100
AcDbDictionary
281
     1
  0
DICTIONARY
  5
E62
102
{ACAD_REACTORS
330
2CD
102
}
330
2CD
100
AcDbDictionary
281
     1
  3
Imperial24
350
E63
  0
DICTIONARY
  5
2CE
102
{ACAD_REACTORS
330
2CD
102
}
330
2CD
100
AcDbDictionary
281
     1
  0
DICTIONARY
  5
2DA
102
{ACAD_REACTORS
330
2CD
102
}
330
2CD
100
AcDbDictionary
281
     1
  3
Model
350
2E4
  3
レイアウト1
350
2E0
  0
DICTIONARY
  5
2DB
102
{ACAD_REACTORS
330
2CD
102
}
330
2CD
100
AcDbDictionary
281
     1
  3
ByBlock
350
E21
  3
ByLayer
350
E19
  3
Global
350
E29
  0
DICTIONARY
  5
E5E
102
{ACAD_REACTORS
330
2CD
102
}
330
2CD
100
AcDbDictionary
281
     1
  3
Standard
350
E5F
  0
DICTIONARY
  5
2D7
102
{ACAD_REACTORS
330
2CD
102
}
330
2CD
100
AcDbDictionary
281
     1
  3
Standard
350
2D8
  0
DICTIONARY
  5
2D9
102
{ACAD_REACTORS
330
2CD
102
}
330
2CD
100
AcDbDictionary
281
     1
  0
ACDBDICTIONARYWDFLT
  5
2CF
102
{ACAD_REACTORS
330
2CD
102
}
330
2CD
100
AcDbDictionary
281
     1
  3
Normal
350
2D0
100
AcDbDictionaryWithDefault
340
2D0
  0
DICTIONARY
  5
E4C
102
{ACAD_REACTORS
330
2CD
102
}
330
2CD
100
AcDbDictionary
281
     1
  3
A0
350
E4D
  3
A1
350
E4E
  3
A2
350
E4F
  3
A3
350
E50
  3
A4
350
E51
  3
A5
350
E52
  3
A6
350
E53
  3
A7
350
E54
  3
A8
350
E55
  3
A9
350
E56
  3
B0
350
E57
  3
B1
350
E58
  3
B2
350
E59
  3
B3
350
E5A
  3
B4
350
E5B
  3
B5
350
E5C
  3
B6
350
E5D
  0
DICTIONARY
  5
E60
102
{ACAD_REACTORS
330
2CD
102
}
330
2CD
100
AcDbDictionary
281
     1
  3
Imperial24
350
E61
  0
DICTIONARY
  5
E4A
102
{ACAD_REACTORS
330
2CD
102
}
330
2CD
100
AcDbDictionary
281
     1
  3
Standard
350
E4B
  0
DICTIONARY
  5
E31
102
{ACAD_REACTORS
330
2CD
102
}
330
2CD
100
AcDbDictionary
281
     1
  3
2dWireframe
350
E37
  3
Basic
350
E36
  3
Brighten
350
E3D
  3
ColorChange
350
E41
  3
Conceptual
350
E3A
  3
Dim
350
E3C
  3
EdgeColorOff
350
E49
  3
Facepattern
350
E40
  3
Flat
350
E32
  3
FlatWithEdges
350
E33
  3
Gouraud
350
E34
  3
GouraudWithEdges
350
E35
  3
Hidden
350
E39
  3
JitterOff
350
E47
  3
Linepattern
350
E3F
  3
OverhangOff
350
E48
  3
Realistic
350
E3B
  3
Shaded
350
E46
  3
Shaded with edges
350
E45
  3
Shades of Gray
350
E42
  3
Sketchy
350
E43
  3
Thicken
350
E3E
  3
Wireframe
350
E38
  3
X-Ray
350
E44
  0
XRECORD
  5
107E
102
{ACAD_REACTORS
330
2CD
102
}
330
2CD
100
AcDbXrecord
280
     1
 90
        1
330
E4B
  0
DICTIONARY
  5
105A
102
{ACAD_REACTORS
330
2CD
102
}
330
2CD
100
AcDbDictionary
281
     1
  3
CANNOSCALE
350
1060
  3
CMLEADERSTYLE
350
105C
  3
CTABLESTYLE
350
105B
  3
CVIEWDETAILSTYLE
350
105D
  3
CVIEWSECTIONSTYLE
350
105E
  3
DIMASSOC
350
107B
  3
INDEXCTL
350
1079
  3
LAYEREVAL
350
1062
  3
LAYERNOTIFY
350
1063
  3
LIGHTINGUNITS
350
1061
  3
MSLTSCALE
350
105F
  3
SORTENTS
350
1078
  3
XCLIPFRAME
350
107A
  0
DICTIONARY
  5
1085
102
{ACAD_REACTORS
330
2CD
102
}
330
2CD
100
AcDbDictionary
281
     1
  3
AcDsRecords
350
1087
  3
AcDsSchemas
350
1086
1001
ACAD
1070
     2
  0
XRECORD
  5
107F
102
{ACAD_REACTORS
330
2CD
102
}
330
2CD
100
AcDbXrecord
280
     1
  1
DWGPROPS COOKIE
  2

  3

  4

  6

  7

  8
峰輝行
  9

300
=
301
=
302
=
303
=
304
=
305
=
306
=
307
=
308
=
309
=
 40
0.0203540046296296
 41
2455539.456782408
 42
2458918.465272905
  1

 90
        0
  0
DICTIONARY
  5
4A7
102
{ACAD_REACTORS
330
4A6
102
}
330
4A6
100
AcDbDictionary
281
     1
  0
XRECORD
  5
1025
102
{ACAD_REACTORS
330
1024
102
}
330
1024
100
AcDbXrecord
280
     1
290
     1
  0
XRECORD
  5
1027
102
{ACAD_REACTORS
330
1026
102
}
330
1026
100
AcDbXrecord
280
     1
290
     1
  0
XRECORD
  5
1029
102
{ACAD_REACTORS
330
1028
102
}
330
1028
100
AcDbXrecord
280
     1
290
     1
  0
XRECORD
  5
102B
102
{ACAD_REACTORS
330
102A
102
}
330
102A
100
AcDbXrecord
280
     1
290
     1
  0
XRECORD
  5
102D
102
{ACAD_REACTORS
330
102C
102
}
330
102C
100
AcDbXrecord
280
     1
290
     1
  0
XRECORD
  5
102F
102
{ACAD_REACTORS
330
102E
102
}
330
102E
100
AcDbXrecord
280
     1
290
     1
  0
XRECORD
  5
1031
102
{ACAD_REACTORS
330
1030
102
}
330
1030
100
AcDbXrecord
280
     1
290
     1
  0
XRECORD
  5
1033
102
{ACAD_REACTORS
330
1032
102
}
330
1032
100
AcDbXrecord
280
     1
290
     1
  0
XRECORD
  5
1035
102
{ACAD_REACTORS
330
1034
102
}
330
1034
100
AcDbXrecord
280
     1
290
     1
  0
XRECORD
  5
1037
102
{ACAD_REACTORS
330
1036
102
}
330
1036
100
AcDbXrecord
280
     1
290
     1
  0
ACDBDETAILVIEWSTYLE
  5
E63
102
{ACAD_XDICTIONARY
360
1057
102
}
102
{ACAD_REACTORS
330
E62
102
}
330
E62
100
AcDbModelDocViewStyle
 70
     0
  3
Imperial24
290
     0
100
AcDbDetailViewStyle
 70
     0
 71
     0
 90
        3
 71
     1
340
2D2
 40
0.24
340
0
 40
0.24
300

 40
0.36
280
     3
 71
     2
340
2D6
 90
       25
 71
     3
340
2D2
 40
0.24
 90
        1
 40
0.75
 90
        1
300
%<\AcVar ViewType \f "%tc1">% %<\AcVar ViewDetailId>%\PSCALE %<\AcVar ViewScale \f "%sn">%
 71
     4
340
2D6
 90
       25
340
2D6
 90
       25
280
     0
  0
LAYOUT
  5
2E4
102
{ACAD_XDICTIONARY
360
108A
102
}
102
{ACAD_REACTORS
330
2DA
102
}
330
2DA
100
AcDbPlotSettings
  1

  2
クセロPDF2.pc3
  4
A3
  6

 40
3.174999952316284
 41
3.174999952316284
 42
3.17498779296875
 43
3.17498779296875
 44
419.9466552734374
 45
296.9259948730469
 46
0.0
 47
0.0
 48
439.3010067465467
 49
167.8243470988175
140
1281.296006746545
141
763.1743470988176
142
1.0
143
2.048861521241269
 70
 11952
 72
     1
 73
     0
 74
     4
  7
monochrome.ctb
 75
     0
147
0.4880759336991044
148
-439.3010067465467
149
-167.8243470988175
100
AcDbLayout
  1
Model
 70
     1
 71
     0
 10
0.0
 20
0.0
 11
12.0
 21
9.0
 12
0.0
 22
0.0
 32
0.0
 14
0.0
 24
0.0
 34
0.0
 15
0.0
 25
0.0
 35
0.0
146
0.0
 13
0.0
 23
0.0
 33
0.0
 16
1.0
 26
0.0
 36
0.0
 17
0.0
 27
1.0
 37
0.0
 76
     0
330
2E1
331
E17
  0
LAYOUT
  5
2E0
102
{ACAD_XDICTIONARY
360
1088
102
}
102
{ACAD_REACTORS
330
2DA
102
}
330
2DA
100
AcDbPlotSettings
  1

  2
PX-1700F(ネットワーク)
  4

  6

 40
0.0
 41
0.0
 42
0.0
 43
0.0
 44
0.0
 45
0.0
 46
0.0
 47
0.0
 48
0.0
 49
0.0
140
0.0
141
0.0
142
1.0
143
1.0
 70
   688
 72
     0
 73
     0
 74
     5
  7
monochrome.ctb
 75
    16
147
1.0
148
0.0
149
0.0
100
AcDbLayout
  1
レイアウト1
 70
     1
 71
     1
 10
0.0
 20
0.0
 11
12.0
 21
9.0
 12
0.0
 22
0.0
 32
0.0
 14
1.000000000000000E+20
 24
1.000000000000000E+20
 34
1.000000000000000E+20
 15
-1.000000000000000E+20
 25
-1.000000000000000E+20
 35
-1.000000000000000E+20
146
0.0
 13
0.0
 23
0.0
 33
0.0
 16
1.0
 26
0.0
 36
0.0
 17
0.0
 27
1.0
 37
0.0
 76
     0
330
2DD
  0
MATERIAL
  5
E21
102
{ACAD_XDICTIONARY
360
E22
102
}
102
{ACAD_REACTORS
330
2DB
102
}
330
2DB
100
AcDbMaterial
  1
ByBlock
 72
     0
 43
0.0208333333333333
 43
0.0
 43
0.0
 43
0.0
 43
0.0
 43
0.0208333333333333
 43
0.0
 43
0.0
 43
0.0
 43
0.0
 43
1.0
 43
0.0
 43
0.0
 43
0.0
 43
0.0
 43
1.0
 77
     0
 47
0.0208333333333333
 47
0.0
 47
0.0
 47
0.0
 47
0.0
 47
0.0208333333333333
 47
0.0
 47
0.0
 47
0.0
 47
0.0
 47
1.0
 47
0.0
 47
0.0
 47
0.0
 47
0.0
 47
1.0
171
     0
 49
0.0208333333333333
 49
0.0
 49
0.0
 49
0.0
 49
0.0
 49
0.0208333333333333
 49
0.0
 49
0.0
 49
0.0
 49
0.0
 49
1.0
 49
0.0
 49
0.0
 49
0.0
 49
0.0
 49
1.0
175
     0
142
0.0208333333333333
142
0.0
142
0.0
142
0.0
142
0.0
142
0.0208333333333333
142
0.0
142
0.0
142
0.0
142
0.0
142
1.0
142
0.0
142
0.0
142
0.0
142
0.0
142
1.0
179
     0
144
0.0208333333333333
144
0.0
144
0.0
144
0.0
144
0.0
144
0.0208333333333333
144
0.0
144
0.0
144
0.0
144
0.0
144
1.0
144
0.0
144
0.0
144
0.0
144
0.0
144
1.0
147
0.0208333333333333
147
0.0
147
0.0
147
0.0
147
0.0
147
0.0208333333333333
147
0.0
147
0.0
147
0.0
147
0.0
147
1.0
147
0.0
147
0.0
147
0.0
147
0.0
147
1.0
  0
MATERIAL
  5
E19
102
{ACAD_XDICTIONARY
360
E1A
102
}
102
{ACAD_REACTORS
330
2DB
102
}
330
2DB
100
AcDbMaterial
  1
ByLayer
 72
     0
 43
0.0208333333333333
 43
0.0
 43
0.0
 43
0.0
 43
0.0
 43
0.0208333333333333
 43
0.0
 43
0.0
 43
0.0
 43
0.0
 43
1.0
 43
0.0
 43
0.0
 43
0.0
 43
0.0
 43
1.0
 77
     0
 47
0.0208333333333333
 47
0.0
 47
0.0
 47
0.0
 47
0.0
 47
0.0208333333333333
 47
0.0
 47
0.0
 47
0.0
 47
0.0
 47
1.0
 47
0.0
 47
0.0
 47
0.0
 47
0.0
 47
1.0
171
     0
 49
0.0208333333333333
 49
0.0
 49
0.0
 49
0.0
 49
0.0
 49
0.0208333333333333
 49
0.0
 49
0.0
 49
0.0
 49
0.0
 49
1.0
 49
0.0
 49
0.0
 49
0.0
 49
0.0
 49
1.0
175
     0
142
0.0208333333333333
142
0.0
142
0.0
142
0.0
142
0.0
142
0.0208333333333333
142
0.0
142
0.0
142
0.0
142
0.0
142
1.0
142
0.0
142
0.0
142
0.0
142
0.0
142
1.0
179
     0
144
0.0208333333333333
144
0.0
144
0.0
144
0.0
144
0.0
144
0.0208333333333333
144
0.0
144
0.0
144
0.0
144
0.0
144
1.0
144
0.0
144
0.0
144
0.0
144
0.0
144
1.0
147
0.0208333333333333
147
0.0
147
0.0
147
0.0
147
0.0
147
0.0208333333333333
147
0.0
147
0.0
147
0.0
147
0.0
147
1.0
147
0.0
147
0.0
147
0.0
147
0.0
147
1.0
  0
MATERIAL
  5
E29
102
{ACAD_XDICTIONARY
360
E2A
102
}
102
{ACAD_REACTORS
330
2DB
102
}
330
2DB
100
AcDbMaterial
  1
Global
 72
     0
 43
0.0208333333333333
 43
0.0
 43
0.0
 43
0.0
 43
0.0
 43
0.0208333333333333
 43
0.0
 43
0.0
 43
0.0
 43
0.0
 43
1.0
 43
0.0
 43
0.0
 43
0.0
 43
0.0
 43
1.0
 77
     0
 47
0.0208333333333333
 47
0.0
 47
0.0
 47
0.0
 47
0.0
 47
0.0208333333333333
 47
0.0
 47
0.0
 47
0.0
 47
0.0
 47
1.0
 47
0.0
 47
0.0
 47
0.0
 47
0.0
 47
1.0
171
     0
 49
0.0208333333333333
 49
0.0
 49
0.0
 49
0.0
 49
0.0
 49
0.0208333333333333
 49
0.0
 49
0.0
 49
0.0
 49
0.0
 49
1.0
 49
0.0
 49
0.0
 49
0.0
 49
0.0
 49
1.0
175
     0
142
0.0208333333333333
142
0.0
142
0.0
142
0.0
142
0.0
142
0.0208333333333333
142
0.0
142
0.0
142
0.0
142
0.0
142
1.0
142
0.0
142
0.0
142
0.0
142
0.0
142
1.0
179
     0
144
0.0208333333333333
144
0.0
144
0.0
144
0.0
144
0.0
144
0.0208333333333333
144
0.0
144
0.0
144
0.0
144
0.0
144
1.0
144
0.0
144
0.0
144
0.0
144
0.0
144
1.0
147
0.0208333333333333
147
0.0
147
0.0
147
0.0
147
0.0
147
0.0208333333333333
147
0.0
147
0.0
147
0.0
147
0.0
147
1.0
147
0.0
147
0.0
147
0.0
147
0.0
147
1.0
  0
MLEADERSTYLE
  5
E5F
102
{ACAD_XDICTIONARY
360
10C1
102
}
102
{ACAD_REACTORS
330
E5E
102
}
330
E5E
100
AcDbMLeaderStyle
170
     2
171
     1
172
     0
 90
        2
 40
0.0
 41
0.0
173
     1
 91
-1056964608
340
2D4
 92
       -2
290
     1
 42
0.09
291
     1
 43
0.36
  3
Standard
 44
0.18
300

342
2D2
174
     1
178
     6
175
     1
176
     0
 93
-1056964608
 45
0.18
292
     0
297
     0
 46
0.18
 94
-1056964608
 47
1.0
 49
1.0
140
1.0
293
     1
141
0.0
294
     1
177
     0
142
1.0
295
     0
296
     0
143
0.125
1001
ACAD_MLEADERVER
1070
     2
  0
MLINESTYLE
  5
2D8
102
{ACAD_REACTORS
330
2D7
102
}
330
2D7
100
AcDbMlineStyle
  2
STANDARD
 70
     0
  3

 62
   256
 51
90.0
 52
90.0
 71
     2
 49
0.5
 62
   256
  6
BYLAYER
 49
-0.5
 62
   256
  6
BYLAYER
  0
ACDBPLACEHOLDER
  5
2D0
102
{ACAD_REACTORS
330
2CF
102
}
330
2CF
  0
SCALE
  5
E4D
102
{ACAD_REACTORS
330
E4C
102
}
330
E4C
100
AcDbScale
 70
     0
300
1:1
140
1.0
141
1.0
290
     1
  0
SCALE
  5
E4E
102
{ACAD_REACTORS
330
E4C
102
}
330
E4C
100
AcDbScale
 70
     0
300
1/128" = 1'-0"
140
0.0078125
141
12.0
290
     0
  0
SCALE
  5
E4F
102
{ACAD_REACTORS
330
E4C
102
}
330
E4C
100
AcDbScale
 70
     0
300
1/64" = 1'-0"
140
0.015625
141
12.0
290
     0
  0
SCALE
  5
E50
102
{ACAD_REACTORS
330
E4C
102
}
330
E4C
100
AcDbScale
 70
     0
300
1/32" = 1'-0"
140
0.03125
141
12.0
290
     0
  0
SCALE
  5
E51
102
{ACAD_REACTORS
330
E4C
102
}
330
E4C
100
AcDbScale
 70
     0
300
1/16" = 1'-0"
140
0.0625
141
12.0
290
     0
  0
SCALE
  5
E52
102
{ACAD_REACTORS
330
E4C
102
}
330
E4C
100
AcDbScale
 70
     0
300
3/32" = 1'-0"
140
0.09375
141
12.0
290
     0
  0
SCALE
  5
E53
102
{ACAD_REACTORS
330
E4C
102
}
330
E4C
100
AcDbScale
 70
     0
300
1/8" = 1'-0"
140
0.125
141
12.0
290
     0
  0
SCALE
  5
E54
102
{ACAD_REACTORS
330
E4C
102
}
330
E4C
100
AcDbScale
 70
     0
300
3/16" = 1'-0"
140
0.1875
141
12.0
290
     0
  0
SCALE
  5
E55
102
{ACAD_REACTORS
330
E4C
102
}
330
E4C
100
AcDbScale
 70
     0
300
1/4" = 1'-0"
140
0.25
141
12.0
290
     0
  0
SCALE
  5
E56
102
{ACAD_REACTORS
330
E4C
102
}
330
E4C
100
AcDbScale
 70
     0
300
3/8" = 1'-0"
140
0.375
141
12.0
290
     0
  0
SCALE
  5
E57
102
{ACAD_REACTORS
330
E4C
102
}
330
E4C
100
AcDbScale
 70
     0
300
1/2" = 1'-0"
140
0.5
141
12.0
290
     0
  0
SCALE
  5
E58
102
{ACAD_REACTORS
330
E4C
102
}
330
E4C
100
AcDbScale
 70
     0
300
3/4" = 1'-0"
140
0.75
141
12.0
290
     0
  0
SCALE
  5
E59
102
{ACAD_REACTORS
330
E4C
102
}
330
E4C
100
AcDbScale
 70
     0
300
1" = 1'-0"
140
1.0
141
12.0
290
     0
  0
SCALE
  5
E5A
102
{ACAD_REACTORS
330
E4C
102
}
330
E4C
100
AcDbScale
 70
     0
300
1-1/2" = 1'-0"
140
1.5
141
12.0
290
     0
  0
SCALE
  5
E5B
102
{ACAD_REACTORS
330
E4C
102
}
330
E4C
100
AcDbScale
 70
     0
300
3" = 1'-0"
140
3.0
141
12.0
290
     0
  0
SCALE
  5
E5C
102
{ACAD_REACTORS
330
E4C
102
}
330
E4C
100
AcDbScale
 70
     0
300
6" = 1'-0"
140
6.0
141
12.0
290
     0
  0
SCALE
  5
E5D
102
{ACAD_REACTORS
330
E4C
102
}
330
E4C
100
AcDbScale
 70
     0
300
1'-0" = 1'-0"
140
12.0
141
12.0
290
     0
  0
ACDBSECTIONVIEWSTYLE
  5
E61
102
{ACAD_XDICTIONARY
360
1055
102
}
102
{ACAD_REACTORS
330
E60
102
}
330
E60
100
AcDbModelDocViewStyle
 70
     0
  3
Imperial24
290
     0
100
AcDbSectionViewStyle
 70
     0
 71
     0
 90
       78
 71
     1
340
2D2
 40
0.24
340
0
340
0
 40
0.24
300
I, O, Q, S, X, Z
 40
0.48
 90
        3
 40
0.18
 90
        1
 71
     2
340
2D6
 90
       25
340
2D6
 90
       50
 40
0.24
 40
0.0
 40
0.24
 71
     3
340
2D2
 40
0.24
 90
        1
 40
0.75
 90
        1
300
%<\AcVar ViewType \f "%tc1">% %<\AcVar ViewSectionStartId>%-%<\AcVar ViewSectionEndId>%\PSCALE %<\AcVar ViewScale \f "%sn">%
 71
     4
300
ANSI31
 40
1.0
 90
        0
290
     0
290
     0
 90
        6
 40
0.0
 40
1.570796326794896
 40
0.2617993877991494
 40
1.308996938995747
 40
-0.2617993877991494
 40
1.832595714594046
  0
TABLESTYLE
  5
E4B
102
{ACAD_XDICTIONARY
360
107C
102
}
102
{ACAD_REACTORS
330
E4A
102
}
330
E4A
100
AcDbTableStyle
  3
Standard
 70
     0
 71
     0
 40
0.06
 41
0.06
280
     0
281
     0
  7
STANDARD
140
0.18
170
     2
 62
     0
 63
     7
283
     0
274
    -2
284
     1
 64
     0
275
    -2
285
     1
 65
     0
276
    -2
286
     1
 66
     0
277
    -2
287
     1
 67
     0
278
    -2
288
     1
 68
     0
279
    -2
289
     1
 69
     0
  7
STANDARD
140
0.25
170
     5
 62
     0
 63
     7
283
     0
274
    -2
284
     1
 64
     0
275
    -2
285
     1
 65
     0
276
    -2
286
     1
 66
     0
277
    -2
287
     1
 67
     0
278
    -2
288
     1
 68
     0
279
    -2
289
     1
 69
     0
  7
STANDARD
140
0.18
170
     5
 62
     0
 63
     7
283
     0
274
    -2
284
     1
 64
     0
275
    -2
285
     1
 65
     0
276
    -2
286
     1
 66
     0
277
    -2
287
     1
 67
     0
278
    -2
288
     1
 68
     0
279
    -2
289
     1
 69
     0
  0
VISUALSTYLE
  5
E37
102
{ACAD_XDICTIONARY
360
1099
102
}
102
{ACAD_REACTORS
330
E31
102
}
330
E31
100
AcDbVisualStyle
  2
2dWireframe
 70
     4
 71
     0
 72
     2
 73
     0
 90
        0
 40
-0.6
 41
-30.0
 62
     5
 63
     7
 74
     1
 91
        4
 64
     7
 65
   257
 75
     1
175
     1
 42
1.0
 92
        0
 66
   257
 43
1.0
 76
     1
 77
     6
 78
     2
 67
     7
 79
     5
170
     0
171
     0
290
     0
174
     0
 93
        1
 44
0.0
173
     0
291
     0
 45
0.0
1001
ACAD
1000
AcDbSavedByObjectVersion
1070
     0
  0
VISUALSTYLE
  5
E36
102
{ACAD_XDICTIONARY
360
1097
102
}
102
{ACAD_REACTORS
330
E31
102
}
330
E31
100
AcDbVisualStyle
  2
Basic
 70
     7
 71
     1
 72
     0
 73
     1
 90
        0
 40
-0.6
 41
-30.0
 62
     5
 63
     7
 74
     0
 91
        4
 64
     7
 65
   257
 75
     1
175
     1
 42
1.0
 92
        8
 66
     7
 43
1.0
 76
     1
 77
     6
 78
     2
 67
     7
 79
     5
170
     0
171
     0
290
     0
174
     0
 93
        1
 44
0.0
173
     0
291
     1
 45
0.0
1001
ACAD
1000
AcDbSavedByObjectVersion
1070
     0
  0
VISUALSTYLE
  5
E3D
102
{ACAD_XDICTIONARY
360
10A5
102
}
102
{ACAD_REACTORS
330
E31
102
}
330
E31
100
AcDbVisualStyle
  2
Brighten
 70
    12
 71
     2
 72
     2
 73
     0
 90
        0
 40
-0.6
 41
-30.0
 62
     5
 63
     7
 74
     1
 91
        4
 64
     7
 65
   257
 75
     1
175
     1
 42
1.0
 92
        8
 66
     7
 43
1.0
 76
     1
 77
     6
 78
     2
 67
     7
 79
     5
170
     0
171
     0
290
     0
174
     0
 93
        1
 44
50.0
173
     0
291
     1
 45
0.0
1001
ACAD
1000
AcDbSavedByObjectVersion
1070
     0
  0
VISUALSTYLE
  5
E41
102
{ACAD_XDICTIONARY
360
10AD
102
}
102
{ACAD_REACTORS
330
E31
102
}
330
E31
100
AcDbVisualStyle
  2
ColorChange
 70
    16
 71
     2
 72
     2
 73
     3
 90
        0
 40
-0.6
 41
-30.0
 62
     5
 63
     8
 74
     1
 91
        4
 64
     7
 65
   257
 75
     1
175
     1
 42
1.0
 92
        8
 66
     8
 43
1.0
 76
     1
 77
     6
 78
     2
 67
     7
 79
     5
170
     0
171
     0
290
     0
174
     0
 93
        1
 44
0.0
173
     0
291
     1
 45
0.0
1001
ACAD
1000
AcDbSavedByObjectVersion
1070
     0
  0
VISUALSTYLE
  5
E3A
102
{ACAD_XDICTIONARY
360
109F
102
}
102
{ACAD_REACTORS
330
E31
102
}
330
E31
100
AcDbVisualStyle
  2
Conceptual
 70
     9
 71
     3
 72
     2
 73
     0
 90
        0
 40
-0.6
 41
-30.0
 62
     5
 63
     7
 74
     2
 91
        2
 64
     7
 65
   257
 75
     1
175
     1
 42
179.0
 92
        8
 66
     7
 43
1.0
 76
     1
 77
     6
 78
     2
 67
     7
 79
     3
170
     0
171
     0
290
     0
174
     0
 93
        1
 44
0.0
173
     0
291
     0
 45
0.0
1001
ACAD
1000
AcDbSavedByObjectVersion
1070
     0
  0
VISUALSTYLE
  5
E3C
102
{ACAD_XDICTIONARY
360
10A3
102
}
102
{ACAD_REACTORS
330
E31
102
}
330
E31
100
AcDbVisualStyle
  2
Dim
 70
    11
 71
     2
 72
     2
 73
     0
 90
        0
 40
-0.6
 41
-30.0
 62
     5
 63
     7
 74
     1
 91
        4
 64
     7
 65
   257
 75
     1
175
     1
 42
1.0
 92
        8
 66
     7
 43
1.0
 76
     1
 77
     6
 78
     2
 67
     7
 79
     5
170
     0
171
     0
290
     0
174
     0
 93
        1
 44
-50.0
173
     0
291
     1
 45
0.0
1001
ACAD
1000
AcDbSavedByObjectVersion
1070
     0
  0
VISUALSTYLE
  5
E49
102
{ACAD_XDICTIONARY
360
10BD
102
}
102
{ACAD_REACTORS
330
E31
102
}
330
E31
100
AcDbVisualStyle
  2
EdgeColorOff
 70
    22
 71
     2
 72
     2
 73
     0
 90
        0
 40
-0.6
 41
-30.0
 62
     5
 63
     7
 74
     1
 91
        4
 64
     7
 65
   257
 75
     1
175
     1
 42
1.0
 92
        8
 66
     7
 43
1.0
 76
     1
 77
     6
 78
     2
 67
     7
 79
     5
170
     0
171
     0
290
     0
174
     0
 93
        1
 44
0.0
173
     0
291
     1
 45
0.0
1001
ACAD
1000
AcDbSavedByObjectVersion
1070
     0
  0
VISUALSTYLE
  5
E40
102
{ACAD_XDICTIONARY
360
10AB
102
}
102
{ACAD_REACTORS
330
E31
102
}
330
E31
100
AcDbVisualStyle
  2
Facepattern
 70
    15
 71
     2
 72
     2
 73
     0
 90
        0
 40
-0.6
 41
-30.0
 62
     5
 63
     7
 74
     1
 91
        4
 64
     7
 65
   257
 75
     1
175
     1
 42
1.0
 92
        8
 66
     7
 43
1.0
 76
     1
 77
     6
 78
     2
 67
     7
 79
     5
170
     0
171
     0
290
     0
174
     0
 93
        1
 44
0.0
173
     0
291
     1
 45
0.0
1001
ACAD
1000
AcDbSavedByObjectVersion
1070
     0
  0
VISUALSTYLE
  5
E32
102
{ACAD_XDICTIONARY
360
108F
102
}
102
{ACAD_REACTORS
330
E31
102
}
330
E31
100
AcDbVisualStyle
  2
Flat
 70
     0
 71
     2
 72
     1
 73
     1
 90
        2
 40
-0.6
 41
30.0
 62
     5
 63
     7
 74
     0
 91
        0
 64
     7
 65
   257
 75
     1
175
     1
 42
1.0
 92
        8
 66
     7
 43
1.0
 76
     1
 77
     6
 78
     2
 67
     7
 79
     5
170
     0
171
     0
290
     0
174
     0
 93
       13
 44
0.0
173
     0
291
     1
 45
0.0
1001
ACAD
1000
AcDbSavedByObjectVersion
1070
     0
  0
VISUALSTYLE
  5
E33
102
{ACAD_XDICTIONARY
360
1091
102
}
102
{ACAD_REACTORS
330
E31
102
}
330
E31
100
AcDbVisualStyle
  2
FlatWithEdges
 70
     1
 71
     2
 72
     1
 73
     1
 90
        2
 40
-0.6
 41
30.0
 62
     5
 63
     7
 74
     1
 91
        0
 64
     7
 65
   257
 75
     1
175
     1
 42
1.0
 92
        0
 66
   257
 43
1.0
 76
     1
 77
     6
 78
     2
 67
     7
 79
     5
170
     0
171
     0
290
     0
174
     0
 93
       13
 44
0.0
173
     0
291
     1
 45
0.0
1001
ACAD
1000
AcDbSavedByObjectVersion
1070
     0
  0
VISUALSTYLE
  5
E34
102
{ACAD_XDICTIONARY
360
1093
102
}
102
{ACAD_REACTORS
330
E31
102
}
330
E31
100
AcDbVisualStyle
  2
Gouraud
 70
     2
 71
     2
 72
     2
 73
     1
 90
        2
 40
-0.6
 41
30.0
 62
     5
 63
     7
 74
     0
 91
        0
 64
     7
 65
   257
 75
     1
175
     1
 42
1.0
 92
        0
 66
     7
 43
1.0
 76
     1
 77
     6
 78
     2
 67
     7
 79
     5
170
     0
171
     0
290
     0
174
     0
 93
       13
 44
0.0
173
     0
291
     1
 45
0.0
1001
ACAD
1000
AcDbSavedByObjectVersion
1070
     0
  0
VISUALSTYLE
  5
E35
102
{ACAD_XDICTIONARY
360
1095
102
}
102
{ACAD_REACTORS
330
E31
102
}
330
E31
100
AcDbVisualStyle
  2
GouraudWithEdges
 70
     3
 71
     2
 72
     2
 73
     1
 90
        2
 40
-0.6
 41
30.0
 62
     5
 63
     7
 74
     1
 91
        0
 64
     7
 65
   257
 75
     1
175
     1
 42
1.0
 92
        0
 66
   257
 43
1.0
 76
     1
 77
     6
 78
     2
 67
     7
 79
     5
170
     0
171
     0
290
     0
174
     0
 93
       13
 44
0.0
173
     0
291
     1
 45
0.0
1001
ACAD
1000
AcDbSavedByObjectVersion
1070
     0
  0
VISUALSTYLE
  5
E39
102
{ACAD_XDICTIONARY
360
109D
102
}
102
{ACAD_REACTORS
330
E31
102
}
330
E31
100
AcDbVisualStyle
  2
Hidden
 70
     6
 71
     1
 72
     2
 73
     2
 90
        0
 40
-0.6
 41
-30.0
 62
     5
 63
     7
 74
     2
 91
        2
 64
     7
 65
   257
 75
     2
175
     1
 42
40.0
 92
        0
 66
   257
 43
1.0
 76
     1
 77
     6
 78
     2
 67
     7
 79
     3
170
     0
171
     0
290
     0
174
     0
 93
        1
 44
0.0
173
     0
291
     0
 45
0.0
1001
ACAD
1000
AcDbSavedByObjectVersion
1070
     0
  0
VISUALSTYLE
  5
E47
102
{ACAD_XDICTIONARY
360
10B9
102
}
102
{ACAD_REACTORS
330
E31
102
}
330
E31
100
AcDbVisualStyle
  2
JitterOff
 70
    20
 71
     2
 72
     2
 73
     0
 90
        0
 40
-0.6
 41
-30.0
 62
     5
 63
     7
 74
     1
 91
        4
 64
     7
 65
   257
 75
     1
175
     1
 42
1.0
 92
       10
 66
     7
 43
1.0
 76
     1
 77
     6
 78
     2
 67
     7
 79
     5
170
     0
171
     0
290
     0
174
     0
 93
        1
 44
0.0
173
     0
291
     1
 45
0.0
1001
ACAD
1000
AcDbSavedByObjectVersion
1070
     0
  0
VISUALSTYLE
  5
E3F
102
{ACAD_XDICTIONARY
360
10A9
102
}
102
{ACAD_REACTORS
330
E31
102
}
330
E31
100
AcDbVisualStyle
  2
Linepattern
 70
    14
 71
     2
 72
     2
 73
     0
 90
        0
 40
-0.6
 41
-30.0
 62
     5
 63
     7
 74
     1
 91
        4
 64
     7
 65
   257
 75
     7
175
     7
 42
1.0
 92
        8
 66
     7
 43
1.0
 76
     1
 77
     6
 78
     2
 67
     7
 79
     5
170
     0
171
     0
290
     0
174
     0
 93
        1
 44
0.0
173
     0
291
     1
 45
0.0
1001
ACAD
1000
AcDbSavedByObjectVersion
1070
     0
  0
VISUALSTYLE
  5
E48
102
{ACAD_XDICTIONARY
360
10BB
102
}
102
{ACAD_REACTORS
330
E31
102
}
330
E31
100
AcDbVisualStyle
  2
OverhangOff
 70
    21
 71
     2
 72
     2
 73
     0
 90
        0
 40
-0.6
 41
-30.0
 62
     5
 63
     7
 74
     1
 91
        4
 64
     7
 65
   257
 75
     1
175
     1
 42
1.0
 92
        9
 66
     7
 43
1.0
 76
     1
 77
     6
 78
     2
 67
     7
 79
     5
170
     0
171
     0
290
     0
174
     0
 93
        1
 44
0.0
173
     0
291
     1
 45
0.0
1001
ACAD
1000
AcDbSavedByObjectVersion
1070
     0
  0
VISUALSTYLE
  5
E3B
102
{ACAD_XDICTIONARY
360
10A1
102
}
102
{ACAD_REACTORS
330
E31
102
}
330
E31
100
AcDbVisualStyle
  2
Realistic
 70
     8
 71
     2
 72
     3
 73
     0
 90
        2
 40
-0.6
 41
30.0
 62
     5
 63
     7
 74
     0
 91
        0
 64
     7
 65
   257
 75
     1
175
     1
 42
1.0
 92
        8
 66
   257
 43
1.0
 76
     1
 77
     6
 78
     2
 67
     7
 79
     3
170
     0
171
     0
290
     0
174
     0
 93
       13
 44
0.0
173
     0
291
     0
 45
0.0
1001
ACAD
1000
AcDbSavedByObjectVersion
1070
     0
  0
VISUALSTYLE
  5
E46
102
{ACAD_XDICTIONARY
360
10B7
102
}
102
{ACAD_REACTORS
330
E31
102
}
330
E31
100
AcDbVisualStyle
  2
Shaded
 70
    27
 71
     2
 72
     2
 73
     1
 90
        2
 40
-0.6
 41
30.0
 62
     5
 63
     7
 74
     0
 91
        4
 64
     7
 65
   257
 75
     1
175
     1
 42
1.0
 92
        8
 66
   257
 43
1.0
 76
     1
 77
     6
 78
     2
 67
     8
 79
     3
170
     0
171
     0
290
     0
174
     0
 93
        5
 44
0.0
173
     0
291
     0
 45
0.0
1001
ACAD
1000
AcDbSavedByObjectVersion
1070
     0
  0
VISUALSTYLE
  5
E45
102
{ACAD_XDICTIONARY
360
10B5
102
}
102
{ACAD_REACTORS
330
E31
102
}
330
E31
100
AcDbVisualStyle
  2
Shaded with edges
 70
    26
 71
     2
 72
     2
 73
     1
 90
        2
 40
-0.6
 41
30.0
 62
     5
 63
     7
 74
     1
 91
       10
 64
     7
 65
   257
 75
     2
175
     1
 42
1.0
 92
        8
 66
   257
 43
1.0
 76
     1
 77
     6
 78
     2
 67
     7
 79
     3
170
     0
171
     0
290
     0
174
     0
 93
        5
 44
0.0
173
     0
291
     0
 45
0.0
1001
ACAD
1000
AcDbSavedByObjectVersion
1070
     0
  0
VISUALSTYLE
  5
E42
102
{ACAD_XDICTIONARY
360
10AF
102
}
102
{ACAD_REACTORS
330
E31
102
}
330
E31
100
AcDbVisualStyle
  2
Shades of Gray
 70
    23
 71
     2
 72
     2
 73
     3
 90
        0
 40
-0.6
 41
-30.0
 62
     5
 63
     7
 74
     2
 91
        2
 64
     7
 65
     7
 75
     1
175
     1
 42
40.0
 92
        8
 66
     7
 43
1.0
 76
     1
 77
     6
 78
     2
 67
     7
 79
     3
170
     0
171
     0
290
     0
174
     0
 93
        1
 44
0.0
173
     0
291
     0
 45
0.0
1001
ACAD
1000
AcDbSavedByObjectVersion
1070
     0
  0
VISUALSTYLE
  5
E43
102
{ACAD_XDICTIONARY
360
10B1
102
}
102
{ACAD_REACTORS
330
E31
102
}
330
E31
100
AcDbVisualStyle
  2
Sketchy
 70
    24
 71
     1
 72
     2
 73
     2
 90
        0
 40
-0.6
 41
-30.0
 62
     5
 63
     7
 74
     2
 91
        2
 64
     7
 65
     7
 75
     1
175
     1
 42
40.0
 92
       11
 66
     7
 43
1.0
 76
     1
 77
     6
 78
     2
 67
     7
 79
     6
170
     0
171
     0
290
     0
174
     0
 93
        1
 44
0.0
173
     0
291
     0
 45
0.0
1001
ACAD
1000
AcDbSavedByObjectVersion
1070
     0
  0
VISUALSTYLE
  5
E3E
102
{ACAD_XDICTIONARY
360
10A7
102
}
102
{ACAD_REACTORS
330
E31
102
}
330
E31
100
AcDbVisualStyle
  2
Thicken
 70
    13
 71
     2
 72
     2
 73
     0
 90
        0
 40
-0.6
 41
-30.0
 62
     5
 63
     7
 74
     1
 91
        4
 64
     7
 65
   257
 75
     1
175
     1
 42
1.0
 92
       12
 66
     7
 43
1.0
 76
     1
 77
     6
 78
     2
 67
     7
 79
     5
170
     0
171
     0
290
     0
174
     0
 93
        1
 44
0.0
173
     0
291
     1
 45
0.0
1001
ACAD
1000
AcDbSavedByObjectVersion
1070
     0
  0
VISUALSTYLE
  5
E38
102
{ACAD_XDICTIONARY
360
109B
102
}
102
{ACAD_REACTORS
330
E31
102
}
330
E31
100
AcDbVisualStyle
  2
Wireframe
 70
     5
 71
     0
 72
     2
 73
     0
 90
        0
 40
-0.6
 41
-30.0
 62
     5
 63
     7
 74
     1
 91
        4
 64
     7
 65
   257
 75
     1
175
     1
 42
1.0
 92
        0
 66
   257
 43
1.0
 76
     1
 77
     6
 78
     2
 67
     7
 79
     3
170
     0
171
     0
290
     0
174
     0
 93
        1
 44
0.0
173
     0
291
     0
 45
0.0
1001
ACAD
1000
AcDbSavedByObjectVersion
1070
     0
  0
VISUALSTYLE
  5
E44
102
{ACAD_XDICTIONARY
360
10B3
102
}
102
{ACAD_REACTORS
330
E31
102
}
330
E31
100
AcDbVisualStyle
  2
X-Ray
 70
    25
 71
     2
 72
     2
 73
     1
 90
        1
 40
0.5
 41
-30.0
 62
     5
 63
     7
 74
     1
 91
        0
 64
     7
 65
   257
 75
     1
175
     1
 42
1.0
 92
        8
 66
     7
 43
1.0
 76
     1
 77
     6
 78
     2
 67
     7
 79
     3
170
     0
171
     0
290
     0
174
     0
 93
       13
 44
0.0
173
     0
291
     0
 45
0.0
1001
ACAD
1000
AcDbSavedByObjectVersion
1070
     0
  0
DICTIONARYVAR
  5
1060
102
{ACAD_REACTORS
330
105A
102
}
330
105A
100
DictionaryVariables
280
     0
  1
1:1
  0
DICTIONARYVAR
  5
105C
102
{ACAD_REACTORS
330
105A
102
}
330
105A
100
DictionaryVariables
280
     0
  1
STANDARD
  0
DICTIONARYVAR
  5
105B
102
{ACAD_REACTORS
330
105A
102
}
330
105A
100
DictionaryVariables
280
     0
  1
STANDARD
  0
DICTIONARYVAR
  5
105D
102
{ACAD_REACTORS
330
105A
102
}
330
105A
100
DictionaryVariables
280
     0
  1
Imperial24
  0
DICTIONARYVAR
  5
105E
102
{ACAD_REACTORS
330
105A
102
}
330
105A
100
DictionaryVariables
280
     0
  1
Imperial24
  0
DICTIONARYVAR
  5
107B
102
{ACAD_REACTORS
330
105A
102
}
330
105A
100
DictionaryVariables
280
     0
  1
1
  0
DICTIONARYVAR
  5
1079
102
{ACAD_REACTORS
330
105A
102
}
330
105A
100
DictionaryVariables
280
     0
  1
0
  0
DICTIONARYVAR
  5
1062
102
{ACAD_REACTORS
330
105A
102
}
330
105A
100
DictionaryVariables
280
     0
  1
1
  0
DICTIONARYVAR
  5
1063
102
{ACAD_REACTORS
330
105A
102
}
330
105A
100
DictionaryVariables
280
     0
  1
15
  0
DICTIONARYVAR
  5
1061
102
{ACAD_REACTORS
330
105A
102
}
330
105A
100
DictionaryVariables
280
     0
  1
0
  0
DICTIONARYVAR
  5
105F
102
{ACAD_REACTORS
330
105A
102
}
330
105A
100
DictionaryVariables
280
     0
  1
0
  0
DICTIONARYVAR
  5
1078
102
{ACAD_REACTORS
330
105A
102
}
330
105A
100
DictionaryVariables
280
     0
  1
127
  0
DICTIONARYVAR
  5
107A
102
{ACAD_REACTORS
330
105A
102
}
330
105A
100
DictionaryVariables
280
     0
  1
0
  0
DICTIONARY
  5
1087
102
{ACAD_REACTORS
330
1085
102
}
330
1085
100
AcDbDictionary
281
     1
  0
DICTIONARY
  5
1086
102
{ACAD_REACTORS
330
1085
102
}
330
1085
100
AcDbDictionary
281
     1
  3
2129676800
350
1080
  3
2129676808
350
1081
  3
2129676816
350
1082
  3
2129676824
350
1083
  3
2129676832
350
1084
  0
DICTIONARY
  5
1057
330
E63
100
AcDbDictionary
280
     1
281
     1
  3
ACAD_XREC_ROUNDTRIP
360
10C4
  0
DICTIONARY
  5
108A
330
2E4
100
AcDbDictionary
280
     1
281
     1
  3
ACAD_XREC_ROUNDTRIP
360
108B
  0
DICTIONARY
  5
1088
330
2E0
100
AcDbDictionary
280
     1
281
     1
  3
ACAD_XREC_ROUNDTRIP
360
1089
  0
DICTIONARY
  5
E22
330
E21
100
AcDbDictionary
280
     1
281
     1
  3
ACAD_XREC_ROUNDTRIP
360
108D
  3
BUMPTILE
360
E24
  3
DIFFUSETILE
360
E23
  3
OPACITYTILE
360
E27
  3
REFLECTIONTILE
360
E26
  3
REFRACTIONTILE
360
E28
  3
SPECULARTILE
360
E25
  0
DICTIONARY
  5
E1A
330
E19
100
AcDbDictionary
280
     1
281
     1
  3
ACAD_XREC_ROUNDTRIP
360
108C
  3
BUMPTILE
360
E1C
  3
DIFFUSETILE
360
E1B
  3
OPACITYTILE
360
E1F
  3
REFLECTIONTILE
360
E1E
  3
REFRACTIONTILE
360
E20
  3
SPECULARTILE
360
E1D
  0
DICTIONARY
  5
E2A
330
E29
100
AcDbDictionary
280
     1
281
     1
  3
ACAD_XREC_ROUNDTRIP
360
108E
  3
BUMPTILE
360
E2C
  3
DIFFUSETILE
360
E2B
  3
OPACITYTILE
360
E2F
  3
REFLECTIONTILE
360
E2E
  3
REFRACTIONTILE
360
E30
  3
SPECULARTILE
360
E2D
  0
DICTIONARY
  5
10C1
330
E5F
100
AcDbDictionary
280
     1
281
     1
  3
ACAD_XREC_ROUNDTRIP
360
10C2
  0
DICTIONARY
  5
1055
330
E61
100
AcDbDictionary
280
     1
281
     1
  3
ACAD_XREC_ROUNDTRIP
360
10C3
  0
DICTIONARY
  5
107C
330
E4B
100
AcDbDictionary
280
     1
281
     1
  3
ACAD_ROUNDTRIP_2008_TABLESTYLE_CELLSTYLEMAP
360
107D
  3
ACAD_XREC_ROUNDTRIP
360
10BF
  0
DICTIONARY
  5
1099
330
E37
100
AcDbDictionary
280
     1
281
     1
  3
ACAD_XREC_ROUNDTRIP
360
109A
  0
DICTIONARY
  5
1097
330
E36
100
AcDbDictionary
280
     1
281
     1
  3
ACAD_XREC_ROUNDTRIP
360
1098
  0
DICTIONARY
  5
10A5
330
E3D
100
AcDbDictionary
280
     1
281
     1
  3
ACAD_XREC_ROUNDTRIP
360
10A6
  0
DICTIONARY
  5
10AD
330
E41
100
AcDbDictionary
280
     1
281
     1
  3
ACAD_XREC_ROUNDTRIP
360
10AE
  0
DICTIONARY
  5
109F
330
E3A
100
AcDbDictionary
280
     1
281
     1
  3
ACAD_XREC_ROUNDTRIP
360
10A0
  0
DICTIONARY
  5
10A3
330
E3C
100
AcDbDictionary
280
     1
281
     1
  3
ACAD_XREC_ROUNDTRIP
360
10A4
  0
DICTIONARY
  5
10BD
330
E49
100
AcDbDictionary
280
     1
281
     1
  3
ACAD_XREC_ROUNDTRIP
360
10BE
  0
DICTIONARY
  5
10AB
330
E40
100
AcDbDictionary
280
     1
281
     1
  3
ACAD_XREC_ROUNDTRIP
360
10AC
  0
DICTIONARY
  5
108F
330
E32
100
AcDbDictionary
280
     1
281
     1
  3
ACAD_XREC_ROUNDTRIP
360
1090
  0
DICTIONARY
  5
1091
330
E33
100
AcDbDictionary
280
     1
281
     1
  3
ACAD_XREC_ROUNDTRIP
360
1092
  0
DICTIONARY
  5
1093
330
E34
100
AcDbDictionary
280
     1
281
     1
  3
ACAD_XREC_ROUNDTRIP
360
1094
  0
DICTIONARY
  5
1095
330
E35
100
AcDbDictionary
280
     1
281
     1
  3
ACAD_XREC_ROUNDTRIP
360
1096
  0
DICTIONARY
  5
109D
330
E39
100
AcDbDictionary
280
     1
281
     1
  3
ACAD_XREC_ROUNDTRIP
360
109E
  0
DICTIONARY
  5
10B9
330
E47
100
AcDbDictionary
280
     1
281
     1
  3
ACAD_XREC_ROUNDTRIP
360
10BA
  0
DICTIONARY
  5
10A9
330
E3F
100
AcDbDictionary
280
     1
281
     1
  3
ACAD_XREC_ROUNDTRIP
360
10AA
  0
DICTIONARY
  5
10BB
330
E48
100
AcDbDictionary
280
     1
281
     1
  3
ACAD_XREC_ROUNDTRIP
360
10BC
  0
DICTIONARY
  5
10A1
330
E3B
100
AcDbDictionary
280
     1
281
     1
  3
ACAD_XREC_ROUNDTRIP
360
10A2
  0
DICTIONARY
  5
10B7
330
E46
100
AcDbDictionary
280
     1
281
     1
  3
ACAD_XREC_ROUNDTRIP
360
10B8
  0
DICTIONARY
  5
10B5
330
E45
100
AcDbDictionary
280
     1
281
     1
  3
ACAD_XREC_ROUNDTRIP
360
10B6
  0
DICTIONARY
  5
10AF
330
E42
100
AcDbDictionary
280
     1
281
     1
  3
ACAD_XREC_ROUNDTRIP
360
10B0
  0
DICTIONARY
  5
10B1
330
E43
100
AcDbDictionary
280
     1
281
     1
  3
ACAD_XREC_ROUNDTRIP
360
10B2
  0
DICTIONARY
  5
10A7
330
E3E
100
AcDbDictionary
280
     1
281
     1
  3
ACAD_XREC_ROUNDTRIP
360
10A8
  0
DICTIONARY
  5
109B
330
E38
100
AcDbDictionary
280
     1
281
     1
  3
ACAD_XREC_ROUNDTRIP
360
109C
  0
DICTIONARY
  5
10B3
330
E44
100
AcDbDictionary
280
     1
281
     1
  3
ACAD_XREC_ROUNDTRIP
360
10B4
  0
XRECORD
  5
1080
102
{ACAD_REACTORS
330
1086
102
}
330
1086
100
AcDbXrecord
280
     1
  1
AcDb_Thumbnail_Schema
102
{ATTRRECORD
341
1081
  2
AcDbDs::TreatedAsObjectData
280
     1
291
     1
102
ATTRRECORD}
102
{ATTRRECORD
341
1082
  2
AcDbDs::Legacy
280
     1
291
     1
102
ATTRRECORD}
  2
AcDbDs::ID
280
    10
 91
        8
102
{ATTRRECORD
341
1083
  2
AcDs:Indexable
280
     1
291
     1
102
ATTRRECORD}
102
{ATTRRECORD
341
1084
  2
AcDbDs::HandleAttribute
280
     7
282
     1
102
ATTRRECORD}
  2
Thumbnail_Data
280
    15
 91
        0
  0
XRECORD
  5
1081
102
{ACAD_REACTORS
330
1086
102
}
330
1086
100
AcDbXrecord
280
     1
  1
AcDbDs::TreatedAsObjectDataSchema
  2
AcDbDs::TreatedAsObjectData
280
     1
 91
        0
  0
XRECORD
  5
1082
102
{ACAD_REACTORS
330
1086
102
}
330
1086
100
AcDbXrecord
280
     1
  1
AcDbDs::LegacySchema
  2
AcDbDs::Legacy
280
     1
 91
        0
  0
XRECORD
  5
1083
102
{ACAD_REACTORS
330
1086
102
}
330
1086
100
AcDbXrecord
280
     1
  1
AcDbDs::IndexedPropertySchema
  2
AcDs:Indexable
280
     1
 91
        0
  0
XRECORD
  5
1084
102
{ACAD_REACTORS
330
1086
102
}
330
1086
100
AcDbXrecord
280
     1
  1
AcDbDs::HandleAttributeSchema
  2
AcDbDs::HandleAttribute
280
     7
 91
        1
284
     1
  0
XRECORD
  5
10C4
102
{ACAD_REACTORS
330
1057
102
}
330
1057
100
AcDbXrecord
280
     1
102
DISPLAYNAME
  1
Imperial24
102
FLAGS
 90
        0
  0
XRECORD
  5
108B
102
{ACAD_REACTORS
330
108A
102
}
330
108A
100
AcDbXrecord
280
     1
102
SHADEPLOT
 70
     0
102
SHADEPLOTRESLEVEL
 70
     2
102
SHADEPLOTCUSTOMDPI
 70
   150
  0
XRECORD
  5
1089
102
{ACAD_REACTORS
330
1088
102
}
330
1088
100
AcDbXrecord
280
     1
102
SHADEPLOT
 70
     0
102
SHADEPLOTRESLEVEL
 70
     2
102
SHADEPLOTCUSTOMDPI
 70
   300
  0
XRECORD
  5
108D
102
{ACAD_REACTORS
330
E22
102
}
330
E22
100
AcDbXrecord
280
     1
102
MATERIAL
148
0.0
149
0.0
149
0.0
 93
        0
 94
      127
282
     0
 72
     0
 77
     0
171
     0
175
     0
179
     0
273
     0
  0
XRECORD
  5
E24
102
{ACAD_REACTORS
330
E22
102
}
330
E22
100
AcDbXrecord
280
     1
270
     1
271
     1
  0
XRECORD
  5
E23
102
{ACAD_REACTORS
330
E22
102
}
330
E22
100
AcDbXrecord
280
     1
270
     1
271
     1
  0
XRECORD
  5
E27
102
{ACAD_REACTORS
330
E22
102
}
330
E22
100
AcDbXrecord
280
     1
270
     1
271
     1
  0
XRECORD
  5
E26
102
{ACAD_REACTORS
330
E22
102
}
330
E22
100
AcDbXrecord
280
     1
270
     1
271
     1
  0
XRECORD
  5
E28
102
{ACAD_REACTORS
330
E22
102
}
330
E22
100
AcDbXrecord
280
     1
270
     1
271
     1
  0
XRECORD
  5
E25
102
{ACAD_REACTORS
330
E22
102
}
330
E22
100
AcDbXrecord
280
     1
270
     1
271
     1
  0
XRECORD
  5
108C
102
{ACAD_REACTORS
330
E1A
102
}
330
E1A
100
AcDbXrecord
280
     1
102
MATERIAL
148
0.0
149
0.0
149
0.0
 93
        0
 94
      127
282
     0
 72
     0
 77
     0
171
     0
175
     0
179
     0
273
     0
  0
XRECORD
  5
E1C
102
{ACAD_REACTORS
330
E1A
102
}
330
E1A
100
AcDbXrecord
280
     1
270
     1
271
     1
  0
XRECORD
  5
E1B
102
{ACAD_REACTORS
330
E1A
102
}
330
E1A
100
AcDbXrecord
280
     1
270
     1
271
     1
  0
XRECORD
  5
E1F
102
{ACAD_REACTORS
330
E1A
102
}
330
E1A
100
AcDbXrecord
280
     1
270
     1
271
     1
  0
XRECORD
  5
E1E
102
{ACAD_REACTORS
330
E1A
102
}
330
E1A
100
AcDbXrecord
280
     1
270
     1
271
     1
  0
XRECORD
  5
E20
102
{ACAD_REACTORS
330
E1A
102
}
330
E1A
100
AcDbXrecord
280
     1
270
     1
271
     1
  0
XRECORD
  5
E1D
102
{ACAD_REACTORS
330
E1A
102
}
330
E1A
100
AcDbXrecord
280
     1
270
     1
271
     1
  0
XRECORD
  5
108E
102
{ACAD_REACTORS
330
E2A
102
}
330
E2A
100
AcDbXrecord
280
     1
102
MATERIAL
148
0.0
149
0.0
149
0.0
 93
        0
 94
      127
282
     0
 72
     0
 77
     0
171
     0
175
     0
179
     0
273
     0
  0
XRECORD
  5
E2C
102
{ACAD_REACTORS
330
E2A
102
}
330
E2A
100
AcDbXrecord
280
     1
270
     1
271
     1
  0
XRECORD
  5
E2B
102
{ACAD_REACTORS
330
E2A
102
}
330
E2A
100
AcDbXrecord
280
     1
270
     1
271
     1
  0
XRECORD
  5
E2F
102
{ACAD_REACTORS
330
E2A
102
}
330
E2A
100
AcDbXrecord
280
     1
270
     1
271
     1
  0
XRECORD
  5
E2E
102
{ACAD_REACTORS
330
E2A
102
}
330
E2A
100
AcDbXrecord
280
     1
270
     1
271
     1
  0
XRECORD
  5
E30
102
{ACAD_REACTORS
330
E2A
102
}
330
E2A
100
AcDbXrecord
280
     1
270
     1
271
     1
  0
XRECORD
  5
E2D
102
{ACAD_REACTORS
330
E2A
102
}
330
E2A
100
AcDbXrecord
280
     1
270
     1
271
     1
  0
XRECORD
  5
10C2
102
{ACAD_REACTORS
330
10C1
102
}
330
10C1
100
AcDbXrecord
280
     1
102
ACAD_ROUNDTRIP_2012_MLEADER_STYLE
298
     1
  0
XRECORD
  5
10C3
102
{ACAD_REACTORS
330
1055
102
}
330
1055
100
AcDbXrecord
280
     1
102
DISPLAYNAME
  1
Imperial24
102
FLAGS
 90
        0
  0
CELLSTYLEMAP
  5
107D
102
{ACAD_REACTORS
330
107C
102
}
330
107C
100
AcDbCellStyleMap
 90
        3
300
CELLSTYLE
  1
TABLEFORMAT_BEGIN
 90
        5
170
     1
 91
        0
 92
    32768
 62
   257
 93
        1
300
CONTENTFORMAT
  1
CONTENTFORMAT_BEGIN
 90
        0
 91
        0
 92
      512
 93
        0
300

 40
0.0
140
1.0
 94
        5
 62
     0
340
2D2
144
0.25
309
CONTENTFORMAT_END
171
     0
 94
        0
309
TABLEFORMAT_END
  1
CELLSTYLE_BEGIN
 90
        1
 91
        1
300
_TITLE
309
CELLSTYLE_END
300
CELLSTYLE
  1
TABLEFORMAT_BEGIN
 90
        5
170
     1
 91
        0
 92
        0
 62
   257
 93
        1
300
CONTENTFORMAT
  1
CONTENTFORMAT_BEGIN
 90
        0
 91
        0
 92
      512
 93
        0
300

 40
0.0
140
1.0
 94
        5
 62
     0
340
2D2
144
0.18
309
CONTENTFORMAT_END
171
     0
 94
        0
309
TABLEFORMAT_END
  1
CELLSTYLE_BEGIN
 90
        2
 91
        1
300
_HEADER
309
CELLSTYLE_END
300
CELLSTYLE
  1
TABLEFORMAT_BEGIN
 90
        5
170
     1
 91
        0
 92
        0
 62
   257
 93
        1
300
CONTENTFORMAT
  1
CONTENTFORMAT_BEGIN
 90
        0
 91
        0
 92
      512
 93
        0
300

 40
0.0
140
1.0
 94
        2
 62
     0
340
2D2
144
0.18
309
CONTENTFORMAT_END
171
     0
 94
        0
309
TABLEFORMAT_END
  1
CELLSTYLE_BEGIN
 90
        3
 91
        2
300
_DATA
309
CELLSTYLE_END
  0
XRECORD
  5
10BF
102
{ACAD_REACTORS
330
107C
102
}
330
107C
100
AcDbXrecord
280
     1
102
ACAD_ROUNDTRIP_PRE2007_TABLESTYLE
 90
      512
 91
        0
  1

 92
      512
 93
        0
  2

 94
      512
 95
        0
  3

  0
XRECORD
  5
109A
102
{ACAD_REACTORS
330
1099
102
}
330
1099
100
AcDbXrecord
280
     1
102
RTVSPost2010Prop28
280
     1
102
RTVSPost2010PropOp28
 70
     1
102
RTVSPost2010Prop29
280
     1
102
RTVSPost2010PropOp29
 70
     1
102
RTVSPost2010Prop30
280
     0
102
RTVSPost2010PropOp30
 70
     1
102
RTVSPost2010Prop31
280
     0
102
RTVSPost2010PropOp31
 70
     1
102
RTVSPost2010Prop32
280
     0
102
RTVSPost2010PropOp32
 70
     1
102
RTVSPost2010Prop33
280
     0
102
RTVSPost2010PropOp33
 70
     1
102
RTVSPost2010Prop34
280
     0
102
RTVSPost2010PropOp34
 70
     1
102
RTVSPost2010Prop35
280
     0
102
RTVSPost2010PropOp35
 70
     1
102
RTVSPost2010Prop36
280
     0
102
RTVSPost2010PropOp36
 70
     1
102
RTVSPost2010Prop37
 90
       50
102
RTVSPost2010PropOp37
 70
     1
102
RTVSPost2010Prop38
140
0.0
102
RTVSPost2010PropOp38
 70
     1
102
RTVSPost2010Prop39
140
1.0
102
RTVSPost2010PropOp39
 70
     1
102
RTVSPost2010Prop40
 90
        0
102
RTVSPost2010PropOp40
 70
     1
102
RTVSPost2010Prop41ColorIndex
 90
       18
102
RTVSPost2010Prop41ColorRGB
 90
        0
102
RTVSPost2010PropOp41
 70
     1
102
RTVSPost2010Prop42
 90
       50
102
RTVSPost2010PropOp42
 70
     1
102
RTVSPost2010Prop43
 90
        3
102
RTVSPost2010PropOp43
 70
     1
102
RTVSPost2010Prop44ColorIndex
 90
        5
102
RTVSPost2010Prop44ColorRGB
 90
      255
102
RTVSPost2010PropOp44
 70
     1
102
RTVSPost2010Prop45
280
     0
102
RTVSPost2010PropOp45
 70
     1
102
RTVSPost2010Prop46
 90
       50
102
RTVSPost2010PropOp46
 70
     1
102
RTVSPost2010Prop47
 90
       50
102
RTVSPost2010PropOp47
 70
     1
102
RTVSPost2010Prop48
 90
       50
102
RTVSPost2010PropOp48
 70
     1
102
RTVSPost2010Prop49
280
     0
102
RTVSPost2010PropOp49
 70
     1
102
RTVSPost2010Prop50
 90
       50
102
RTVSPost2010PropOp50
 70
     1
102
RTVSPost2010Prop51ColorIndex
 90
      256
102
RTVSPost2010Prop51ColorRGB
 90
-16777216
102
RTVSPost2010PropOp51
 70
     0
102
RTVSPost2010Prop52
140
1.0
102
RTVSPost2010PropOp52
 70
     0
102
RTVSPost2010Prop53
 90
        2
102
RTVSPost2010PropOp53
 70
     1
102
RTVSPost2010Prop54
  1
strokes_ogs.tif
102
RTVSPost2010PropOp54
 70
     1
102
RTVSPost2010Prop55
280
     0
102
RTVSPost2010PropOp55
 70
     1
102
RTVSPost2010Prop56
140
1.0
102
RTVSPost2010PropOp56
 70
     1
102
RTVSPost2010Prop57
140
1.0
102
RTVSPost2010PropOp57
 70
     1
102
RTVSPropertyOp0
 70
     1
102
RTVSPropertyOp1
 70
     1
102
RTVSPropertyOp2
 70
     1
102
RTVSPropertyOp3
 70
     1
102
RTVSPropertyOp4
 70
     1
102
RTVSPropertyOp5
 70
     1
102
RTVSPropertyOp6
 70
     1
102
RTVSPropertyOp7
 70
     1
102
RTVSPropertyOp8
 70
     1
102
RTVSPropertyOp9
 70
     1
102
RTVSPropertyOp10
 70
     1
102
RTVSPropertyOp11
 70
     1
102
RTVSPropertyOp12
 70
     1
102
RTVSPropertyOp13
 70
     1
102
RTVSPropertyOp14
 70
     1
102
RTVSPropertyOp15
 70
     1
102
RTVSPropertyOp16
 70
     1
102
RTVSPropertyOp17
 70
     1
102
RTVSPropertyOp18
 70
     1
102
RTVSPropertyOp19
 70
     1
102
RTVSPropertyOp20
 70
     1
102
RTVSPropertyOp21
 70
     1
102
RTVSPropertyOp22
 70
     1
102
RTVSPropertyOp23
 70
     1
102
RTVSPropertyOp24
 70
     1
102
RTVSPropertyOp25
 70
     1
102
RTVSPropertyOp26
 70
     1
102
RTVSPropertyOp27
 70
     1
102
RTVSPropertyOp28
 70
     1
102
RTVSPropertyOp29
 70
     1
102
RTVSPropertyOp30
 70
     1
102
RTVSPropertyOp31
 70
     1
102
RTVSPropertyOp32
 70
     1
102
RTVSPropertyOp33
 70
     1
102
RTVSPropertyOp34
 70
     1
102
RTVSPropertyOp35
 70
     1
102
RTVSPropertyOp36
 70
     1
102
RTVSPropertyOp37
 70
     1
102
RTVSPropertyOp38
 70
     1
102
RTVSPropertyOp39
 70
     1
102
RTVSPropertyOp40
 70
     1
102
RTVSPropertyOp41
 70
     1
102
RTVSPropertyOp42
 70
     1
102
RTVSPropertyOp43
 70
     1
102
RTVSPropertyOp44
 70
     1
102
RTVSPropertyOp45
 70
     1
102
RTVSPropertyOp46
 70
     1
102
RTVSPropertyOp47
 70
     1
102
RTVSPropertyOp48
 70
     1
102
RTVSPropertyOp49
 70
     1
102
RTVSPropertyOp50
 70
     1
102
RTVSPropertyOp51
 70
     0
102
RTVSPropertyOp52
 70
     0
102
RTVSPropertyOp53
 70
     1
102
RTVSPropertyOp54
 70
     1
102
RTVSPropertyOp55
 70
     1
102
RTVSPropertyOp56
 70
     1
102
RTVSPropertyOp57
 70
     1
102
RTVSPropertyOp58
 70
     1
102
RTVSPropertyOp59
 70
     1
102
RTVSPropertyOp60
 70
     1
102
RTVSPropertyOp61
 70
     1
102
RTVSPropertyOp62
 70
     1
  0
XRECORD
  5
1098
102
{ACAD_REACTORS
330
1097
102
}
330
1097
100
AcDbXrecord
280
     1
102
RTVSPost2010Prop28
280
     0
102
RTVSPost2010PropOp28
 70
     1
102
RTVSPost2010Prop29
280
     1
102
RTVSPost2010PropOp29
 70
     1
102
RTVSPost2010Prop30
280
     1
102
RTVSPost2010PropOp30
 70
     1
102
RTVSPost2010Prop31
280
     0
102
RTVSPost2010PropOp31
 70
     1
102
RTVSPost2010Prop32
280
     0
102
RTVSPost2010PropOp32
 70
     1
102
RTVSPost2010Prop33
280
     0
102
RTVSPost2010PropOp33
 70
     1
102
RTVSPost2010Prop34
280
     0
102
RTVSPost2010PropOp34
 70
     1
102
RTVSPost2010Prop35
280
     0
102
RTVSPost2010PropOp35
 70
     1
102
RTVSPost2010Prop36
280
     0
102
RTVSPost2010PropOp36
 70
     1
102
RTVSPost2010Prop37
 90
       50
102
RTVSPost2010PropOp37
 70
     1
102
RTVSPost2010Prop38
140
0.0
102
RTVSPost2010PropOp38
 70
     1
102
RTVSPost2010Prop39
140
1.0
102
RTVSPost2010PropOp39
 70
     1
102
RTVSPost2010Prop40
 90
        0
102
RTVSPost2010PropOp40
 70
     1
102
RTVSPost2010Prop41ColorIndex
 90
       18
102
RTVSPost2010Prop41ColorRGB
 90
        0
102
RTVSPost2010PropOp41
 70
     1
102
RTVSPost2010Prop42
 90
       50
102
RTVSPost2010PropOp42
 70
     1
102
RTVSPost2010Prop43
 90
        3
102
RTVSPost2010PropOp43
 70
     1
102
RTVSPost2010Prop44ColorIndex
 90
        5
102
RTVSPost2010Prop44ColorRGB
 90
      255
102
RTVSPost2010PropOp44
 70
     1
102
RTVSPost2010Prop45
280
     0
102
RTVSPost2010PropOp45
 70
     1
102
RTVSPost2010Prop46
 90
       50
102
RTVSPost2010PropOp46
 70
     1
102
RTVSPost2010Prop47
 90
       50
102
RTVSPost2010PropOp47
 70
     1
102
RTVSPost2010Prop48
 90
       50
102
RTVSPost2010PropOp48
 70
     1
102
RTVSPost2010Prop49
280
     0
102
RTVSPost2010PropOp49
 70
     1
102
RTVSPost2010Prop50
 90
       50
102
RTVSPost2010PropOp50
 70
     1
102
RTVSPost2010Prop51ColorIndex
 90
      256
102
RTVSPost2010Prop51ColorRGB
 90
-16777216
102
RTVSPost2010PropOp51
 70
     0
102
RTVSPost2010Prop52
140
1.0
102
RTVSPost2010PropOp52
 70
     0
102
RTVSPost2010Prop53
 90
        2
102
RTVSPost2010PropOp53
 70
     1
102
RTVSPost2010Prop54
  1
strokes_ogs.tif
102
RTVSPost2010PropOp54
 70
     1
102
RTVSPost2010Prop55
280
     0
102
RTVSPost2010PropOp55
 70
     1
102
RTVSPost2010Prop56
140
1.0
102
RTVSPost2010PropOp56
 70
     1
102
RTVSPost2010Prop57
140
1.0
102
RTVSPost2010PropOp57
 70
     1
102
RTVSPropertyOp0
 70
     1
102
RTVSPropertyOp1
 70
     1
102
RTVSPropertyOp2
 70
     1
102
RTVSPropertyOp3
 70
     1
102
RTVSPropertyOp4
 70
     1
102
RTVSPropertyOp5
 70
     1
102
RTVSPropertyOp6
 70
     1
102
RTVSPropertyOp7
 70
     1
102
RTVSPropertyOp8
 70
     1
102
RTVSPropertyOp9
 70
     1
102
RTVSPropertyOp10
 70
     1
102
RTVSPropertyOp11
 70
     1
102
RTVSPropertyOp12
 70
     1
102
RTVSPropertyOp13
 70
     1
102
RTVSPropertyOp14
 70
     1
102
RTVSPropertyOp15
 70
     1
102
RTVSPropertyOp16
 70
     1
102
RTVSPropertyOp17
 70
     1
102
RTVSPropertyOp18
 70
     1
102
RTVSPropertyOp19
 70
     1
102
RTVSPropertyOp20
 70
     1
102
RTVSPropertyOp21
 70
     1
102
RTVSPropertyOp22
 70
     1
102
RTVSPropertyOp23
 70
     1
102
RTVSPropertyOp24
 70
     1
102
RTVSPropertyOp25
 70
     1
102
RTVSPropertyOp26
 70
     1
102
RTVSPropertyOp27
 70
     1
102
RTVSPropertyOp28
 70
     1
102
RTVSPropertyOp29
 70
     1
102
RTVSPropertyOp30
 70
     1
102
RTVSPropertyOp31
 70
     1
102
RTVSPropertyOp32
 70
     1
102
RTVSPropertyOp33
 70
     1
102
RTVSPropertyOp34
 70
     1
102
RTVSPropertyOp35
 70
     1
102
RTVSPropertyOp36
 70
     1
102
RTVSPropertyOp37
 70
     1
102
RTVSPropertyOp38
 70
     1
102
RTVSPropertyOp39
 70
     1
102
RTVSPropertyOp40
 70
     1
102
RTVSPropertyOp41
 70
     1
102
RTVSPropertyOp42
 70
     1
102
RTVSPropertyOp43
 70
     1
102
RTVSPropertyOp44
 70
     1
102
RTVSPropertyOp45
 70
     1
102
RTVSPropertyOp46
 70
     1
102
RTVSPropertyOp47
 70
     1
102
RTVSPropertyOp48
 70
     1
102
RTVSPropertyOp49
 70
     1
102
RTVSPropertyOp50
 70
     1
102
RTVSPropertyOp51
 70
     0
102
RTVSPropertyOp52
 70
     0
102
RTVSPropertyOp53
 70
     1
102
RTVSPropertyOp54
 70
     1
102
RTVSPropertyOp55
 70
     1
102
RTVSPropertyOp56
 70
     1
102
RTVSPropertyOp57
 70
     1
102
RTVSPropertyOp58
 70
     1
102
RTVSPropertyOp59
 70
     1
102
RTVSPropertyOp60
 70
     1
102
RTVSPropertyOp61
 70
     1
102
RTVSPropertyOp62
 70
     1
  0
XRECORD
  5
10A6
102
{ACAD_REACTORS
330
10A5
102
}
330
10A5
100
AcDbXrecord
280
     1
102
RTVSPost2010Prop28
280
     0
102
RTVSPost2010PropOp28
 70
     1
102
RTVSPost2010Prop29
280
     1
102
RTVSPost2010PropOp29
 70
     1
102
RTVSPost2010Prop30
280
     1
102
RTVSPost2010PropOp30
 70
     1
102
RTVSPost2010Prop31
280
     0
102
RTVSPost2010PropOp31
 70
     1
102
RTVSPost2010Prop32
280
     0
102
RTVSPost2010PropOp32
 70
     1
102
RTVSPost2010Prop33
280
     0
102
RTVSPost2010PropOp33
 70
     1
102
RTVSPost2010Prop34
280
     0
102
RTVSPost2010PropOp34
 70
     1
102
RTVSPost2010Prop35
280
     0
102
RTVSPost2010PropOp35
 70
     1
102
RTVSPost2010Prop36
280
     0
102
RTVSPost2010PropOp36
 70
     1
102
RTVSPost2010Prop37
 90
       50
102
RTVSPost2010PropOp37
 70
     1
102
RTVSPost2010Prop38
140
0.0
102
RTVSPost2010PropOp38
 70
     1
102
RTVSPost2010Prop39
140
1.0
102
RTVSPost2010PropOp39
 70
     1
102
RTVSPost2010Prop40
 90
        0
102
RTVSPost2010PropOp40
 70
     1
102
RTVSPost2010Prop41ColorIndex
 90
       18
102
RTVSPost2010Prop41ColorRGB
 90
        0
102
RTVSPost2010PropOp41
 70
     1
102
RTVSPost2010Prop42
 90
       50
102
RTVSPost2010PropOp42
 70
     1
102
RTVSPost2010Prop43
 90
        3
102
RTVSPost2010PropOp43
 70
     1
102
RTVSPost2010Prop44ColorIndex
 90
        5
102
RTVSPost2010Prop44ColorRGB
 90
      255
102
RTVSPost2010PropOp44
 70
     1
102
RTVSPost2010Prop45
280
     0
102
RTVSPost2010PropOp45
 70
     1
102
RTVSPost2010Prop46
 90
       50
102
RTVSPost2010PropOp46
 70
     1
102
RTVSPost2010Prop47
 90
       50
102
RTVSPost2010PropOp47
 70
     1
102
RTVSPost2010Prop48
 90
       50
102
RTVSPost2010PropOp48
 70
     1
102
RTVSPost2010Prop49
280
     0
102
RTVSPost2010PropOp49
 70
     1
102
RTVSPost2010Prop50
 90
       50
102
RTVSPost2010PropOp50
 70
     1
102
RTVSPost2010Prop51ColorIndex
 90
      256
102
RTVSPost2010Prop51ColorRGB
 90
-16777216
102
RTVSPost2010PropOp51
 70
     0
102
RTVSPost2010Prop52
140
1.0
102
RTVSPost2010PropOp52
 70
     0
102
RTVSPost2010Prop53
 90
        2
102
RTVSPost2010PropOp53
 70
     1
102
RTVSPost2010Prop54
  1
strokes_ogs.tif
102
RTVSPost2010PropOp54
 70
     1
102
RTVSPost2010Prop55
280
     0
102
RTVSPost2010PropOp55
 70
     1
102
RTVSPost2010Prop56
140
1.0
102
RTVSPost2010PropOp56
 70
     1
102
RTVSPost2010Prop57
140
1.0
102
RTVSPost2010PropOp57
 70
     1
102
RTVSPropertyOp0
 70
     1
102
RTVSPropertyOp1
 70
     1
102
RTVSPropertyOp2
 70
     1
102
RTVSPropertyOp3
 70
     1
102
RTVSPropertyOp4
 70
     1
102
RTVSPropertyOp5
 70
     1
102
RTVSPropertyOp6
 70
     1
102
RTVSPropertyOp7
 70
     1
102
RTVSPropertyOp8
 70
     1
102
RTVSPropertyOp9
 70
     1
102
RTVSPropertyOp10
 70
     1
102
RTVSPropertyOp11
 70
     1
102
RTVSPropertyOp12
 70
     1
102
RTVSPropertyOp13
 70
     1
102
RTVSPropertyOp14
 70
     1
102
RTVSPropertyOp15
 70
     1
102
RTVSPropertyOp16
 70
     1
102
RTVSPropertyOp17
 70
     1
102
RTVSPropertyOp18
 70
     1
102
RTVSPropertyOp19
 70
     1
102
RTVSPropertyOp20
 70
     1
102
RTVSPropertyOp21
 70
     1
102
RTVSPropertyOp22
 70
     1
102
RTVSPropertyOp23
 70
     1
102
RTVSPropertyOp24
 70
     1
102
RTVSPropertyOp25
 70
     1
102
RTVSPropertyOp26
 70
     1
102
RTVSPropertyOp27
 70
     1
102
RTVSPropertyOp28
 70
     1
102
RTVSPropertyOp29
 70
     1
102
RTVSPropertyOp30
 70
     1
102
RTVSPropertyOp31
 70
     1
102
RTVSPropertyOp32
 70
     1
102
RTVSPropertyOp33
 70
     1
102
RTVSPropertyOp34
 70
     1
102
RTVSPropertyOp35
 70
     1
102
RTVSPropertyOp36
 70
     1
102
RTVSPropertyOp37
 70
     1
102
RTVSPropertyOp38
 70
     1
102
RTVSPropertyOp39
 70
     1
102
RTVSPropertyOp40
 70
     1
102
RTVSPropertyOp41
 70
     1
102
RTVSPropertyOp42
 70
     1
102
RTVSPropertyOp43
 70
     1
102
RTVSPropertyOp44
 70
     1
102
RTVSPropertyOp45
 70
     1
102
RTVSPropertyOp46
 70
     1
102
RTVSPropertyOp47
 70
     1
102
RTVSPropertyOp48
 70
     1
102
RTVSPropertyOp49
 70
     1
102
RTVSPropertyOp50
 70
     1
102
RTVSPropertyOp51
 70
     0
102
RTVSPropertyOp52
 70
     0
102
RTVSPropertyOp53
 70
     1
102
RTVSPropertyOp54
 70
     1
102
RTVSPropertyOp55
 70
     1
102
RTVSPropertyOp56
 70
     1
102
RTVSPropertyOp57
 70
     1
102
RTVSPropertyOp58
 70
     1
102
RTVSPropertyOp59
 70
     1
102
RTVSPropertyOp60
 70
     1
102
RTVSPropertyOp61
 70
     1
102
RTVSPropertyOp62
 70
     1
  0
XRECORD
  5
10AE
102
{ACAD_REACTORS
330
10AD
102
}
330
10AD
100
AcDbXrecord
280
     1
102
RTVSPost2010Prop28
280
     0
102
RTVSPost2010PropOp28
 70
     1
102
RTVSPost2010Prop29
280
     1
102
RTVSPost2010PropOp29
 70
     1
102
RTVSPost2010Prop30
280
     1
102
RTVSPost2010PropOp30
 70
     1
102
RTVSPost2010Prop31
280
     0
102
RTVSPost2010PropOp31
 70
     1
102
RTVSPost2010Prop32
280
     0
102
RTVSPost2010PropOp32
 70
     1
102
RTVSPost2010Prop33
280
     0
102
RTVSPost2010PropOp33
 70
     1
102
RTVSPost2010Prop34
280
     0
102
RTVSPost2010PropOp34
 70
     1
102
RTVSPost2010Prop35
280
     0
102
RTVSPost2010PropOp35
 70
     1
102
RTVSPost2010Prop36
280
     0
102
RTVSPost2010PropOp36
 70
     1
102
RTVSPost2010Prop37
 90
       50
102
RTVSPost2010PropOp37
 70
     1
102
RTVSPost2010Prop38
140
0.0
102
RTVSPost2010PropOp38
 70
     1
102
RTVSPost2010Prop39
140
1.0
102
RTVSPost2010PropOp39
 70
     1
102
RTVSPost2010Prop40
 90
        0
102
RTVSPost2010PropOp40
 70
     1
102
RTVSPost2010Prop41ColorIndex
 90
       18
102
RTVSPost2010Prop41ColorRGB
 90
        0
102
RTVSPost2010PropOp41
 70
     1
102
RTVSPost2010Prop42
 90
       50
102
RTVSPost2010PropOp42
 70
     1
102
RTVSPost2010Prop43
 90
        3
102
RTVSPost2010PropOp43
 70
     1
102
RTVSPost2010Prop44ColorIndex
 90
        5
102
RTVSPost2010Prop44ColorRGB
 90
      255
102
RTVSPost2010PropOp44
 70
     1
102
RTVSPost2010Prop45
280
     0
102
RTVSPost2010PropOp45
 70
     1
102
RTVSPost2010Prop46
 90
       50
102
RTVSPost2010PropOp46
 70
     1
102
RTVSPost2010Prop47
 90
       50
102
RTVSPost2010PropOp47
 70
     1
102
RTVSPost2010Prop48
 90
       50
102
RTVSPost2010PropOp48
 70
     1
102
RTVSPost2010Prop49
280
     0
102
RTVSPost2010PropOp49
 70
     1
102
RTVSPost2010Prop50
 90
       50
102
RTVSPost2010PropOp50
 70
     1
102
RTVSPost2010Prop51ColorIndex
 90
      256
102
RTVSPost2010Prop51ColorRGB
 90
-16777216
102
RTVSPost2010PropOp51
 70
     0
102
RTVSPost2010Prop52
140
1.0
102
RTVSPost2010PropOp52
 70
     0
102
RTVSPost2010Prop53
 90
        2
102
RTVSPost2010PropOp53
 70
     1
102
RTVSPost2010Prop54
  1
strokes_ogs.tif
102
RTVSPost2010PropOp54
 70
     1
102
RTVSPost2010Prop55
280
     0
102
RTVSPost2010PropOp55
 70
     1
102
RTVSPost2010Prop56
140
1.0
102
RTVSPost2010PropOp56
 70
     1
102
RTVSPost2010Prop57
140
1.0
102
RTVSPost2010PropOp57
 70
     1
102
RTVSPropertyOp0
 70
     1
102
RTVSPropertyOp1
 70
     1
102
RTVSPropertyOp2
 70
     1
102
RTVSPropertyOp3
 70
     1
102
RTVSPropertyOp4
 70
     1
102
RTVSPropertyOp5
 70
     1
102
RTVSPropertyOp6
 70
     1
102
RTVSPropertyOp7
 70
     1
102
RTVSPropertyOp8
 70
     1
102
RTVSPropertyOp9
 70
     1
102
RTVSPropertyOp10
 70
     1
102
RTVSPropertyOp11
 70
     1
102
RTVSPropertyOp12
 70
     1
102
RTVSPropertyOp13
 70
     1
102
RTVSPropertyOp14
 70
     1
102
RTVSPropertyOp15
 70
     1
102
RTVSPropertyOp16
 70
     1
102
RTVSPropertyOp17
 70
     1
102
RTVSPropertyOp18
 70
     1
102
RTVSPropertyOp19
 70
     1
102
RTVSPropertyOp20
 70
     1
102
RTVSPropertyOp21
 70
     1
102
RTVSPropertyOp22
 70
     1
102
RTVSPropertyOp23
 70
     1
102
RTVSPropertyOp24
 70
     1
102
RTVSPropertyOp25
 70
     1
102
RTVSPropertyOp26
 70
     1
102
RTVSPropertyOp27
 70
     1
102
RTVSPropertyOp28
 70
     1
102
RTVSPropertyOp29
 70
     1
102
RTVSPropertyOp30
 70
     1
102
RTVSPropertyOp31
 70
     1
102
RTVSPropertyOp32
 70
     1
102
RTVSPropertyOp33
 70
     1
102
RTVSPropertyOp34
 70
     1
102
RTVSPropertyOp35
 70
     1
102
RTVSPropertyOp36
 70
     1
102
RTVSPropertyOp37
 70
     1
102
RTVSPropertyOp38
 70
     1
102
RTVSPropertyOp39
 70
     1
102
RTVSPropertyOp40
 70
     1
102
RTVSPropertyOp41
 70
     1
102
RTVSPropertyOp42
 70
     1
102
RTVSPropertyOp43
 70
     1
102
RTVSPropertyOp44
 70
     1
102
RTVSPropertyOp45
 70
     1
102
RTVSPropertyOp46
 70
     1
102
RTVSPropertyOp47
 70
     1
102
RTVSPropertyOp48
 70
     1
102
RTVSPropertyOp49
 70
     1
102
RTVSPropertyOp50
 70
     1
102
RTVSPropertyOp51
 70
     0
102
RTVSPropertyOp52
 70
     0
102
RTVSPropertyOp53
 70
     1
102
RTVSPropertyOp54
 70
     1
102
RTVSPropertyOp55
 70
     1
102
RTVSPropertyOp56
 70
     1
102
RTVSPropertyOp57
 70
     1
102
RTVSPropertyOp58
 70
     1
102
RTVSPropertyOp59
 70
     1
102
RTVSPropertyOp60
 70
     1
102
RTVSPropertyOp61
 70
     1
102
RTVSPropertyOp62
 70
     1
  0
XRECORD
  5
10A0
102
{ACAD_REACTORS
330
109F
102
}
330
109F
100
AcDbXrecord
280
     1
102
RTVSPost2010Prop28
280
     0
102
RTVSPost2010PropOp28
 70
     1
102
RTVSPost2010Prop29
280
     1
102
RTVSPost2010PropOp29
 70
     1
102
RTVSPost2010Prop30
280
     1
102
RTVSPost2010PropOp30
 70
     1
102
RTVSPost2010Prop31
280
     0
102
RTVSPost2010PropOp31
 70
     1
102
RTVSPost2010Prop32
280
     0
102
RTVSPost2010PropOp32
 70
     1
102
RTVSPost2010Prop33
280
     0
102
RTVSPost2010PropOp33
 70
     1
102
RTVSPost2010Prop34
280
     0
102
RTVSPost2010PropOp34
 70
     1
102
RTVSPost2010Prop35
280
     0
102
RTVSPost2010PropOp35
 70
     1
102
RTVSPost2010Prop36
280
     0
102
RTVSPost2010PropOp36
 70
     1
102
RTVSPost2010Prop37
 90
       50
102
RTVSPost2010PropOp37
 70
     1
102
RTVSPost2010Prop38
140
0.0
102
RTVSPost2010PropOp38
 70
     1
102
RTVSPost2010Prop39
140
1.0
102
RTVSPost2010PropOp39
 70
     1
102
RTVSPost2010Prop40
 90
        0
102
RTVSPost2010PropOp40
 70
     1
102
RTVSPost2010Prop41ColorIndex
 90
       18
102
RTVSPost2010Prop41ColorRGB
 90
        0
102
RTVSPost2010PropOp41
 70
     1
102
RTVSPost2010Prop42
 90
       50
102
RTVSPost2010PropOp42
 70
     1
102
RTVSPost2010Prop43
 90
        3
102
RTVSPost2010PropOp43
 70
     1
102
RTVSPost2010Prop44ColorIndex
 90
        5
102
RTVSPost2010Prop44ColorRGB
 90
      255
102
RTVSPost2010PropOp44
 70
     1
102
RTVSPost2010Prop45
280
     0
102
RTVSPost2010PropOp45
 70
     1
102
RTVSPost2010Prop46
 90
       50
102
RTVSPost2010PropOp46
 70
     1
102
RTVSPost2010Prop47
 90
       50
102
RTVSPost2010PropOp47
 70
     1
102
RTVSPost2010Prop48
 90
       50
102
RTVSPost2010PropOp48
 70
     1
102
RTVSPost2010Prop49
280
     0
102
RTVSPost2010PropOp49
 70
     1
102
RTVSPost2010Prop50
 90
       50
102
RTVSPost2010PropOp50
 70
     1
102
RTVSPost2010Prop51ColorIndex
 90
      256
102
RTVSPost2010Prop51ColorRGB
 90
-16777216
102
RTVSPost2010PropOp51
 70
     0
102
RTVSPost2010Prop52
140
1.0
102
RTVSPost2010PropOp52
 70
     0
102
RTVSPost2010Prop53
 90
        2
102
RTVSPost2010PropOp53
 70
     1
102
RTVSPost2010Prop54
  1
strokes_ogs.tif
102
RTVSPost2010PropOp54
 70
     1
102
RTVSPost2010Prop55
280
     0
102
RTVSPost2010PropOp55
 70
     1
102
RTVSPost2010Prop56
140
1.0
102
RTVSPost2010PropOp56
 70
     1
102
RTVSPost2010Prop57
140
1.0
102
RTVSPost2010PropOp57
 70
     1
102
RTVSPropertyOp0
 70
     1
102
RTVSPropertyOp1
 70
     1
102
RTVSPropertyOp2
 70
     1
102
RTVSPropertyOp3
 70
     1
102
RTVSPropertyOp4
 70
     1
102
RTVSPropertyOp5
 70
     1
102
RTVSPropertyOp6
 70
     1
102
RTVSPropertyOp7
 70
     1
102
RTVSPropertyOp8
 70
     1
102
RTVSPropertyOp9
 70
     1
102
RTVSPropertyOp10
 70
     1
102
RTVSPropertyOp11
 70
     1
102
RTVSPropertyOp12
 70
     1
102
RTVSPropertyOp13
 70
     1
102
RTVSPropertyOp14
 70
     1
102
RTVSPropertyOp15
 70
     1
102
RTVSPropertyOp16
 70
     1
102
RTVSPropertyOp17
 70
     1
102
RTVSPropertyOp18
 70
     1
102
RTVSPropertyOp19
 70
     1
102
RTVSPropertyOp20
 70
     1
102
RTVSPropertyOp21
 70
     1
102
RTVSPropertyOp22
 70
     1
102
RTVSPropertyOp23
 70
     1
102
RTVSPropertyOp24
 70
     1
102
RTVSPropertyOp25
 70
     1
102
RTVSPropertyOp26
 70
     1
102
RTVSPropertyOp27
 70
     1
102
RTVSPropertyOp28
 70
     1
102
RTVSPropertyOp29
 70
     1
102
RTVSPropertyOp30
 70
     1
102
RTVSPropertyOp31
 70
     1
102
RTVSPropertyOp32
 70
     1
102
RTVSPropertyOp33
 70
     1
102
RTVSPropertyOp34
 70
     1
102
RTVSPropertyOp35
 70
     1
102
RTVSPropertyOp36
 70
     1
102
RTVSPropertyOp37
 70
     1
102
RTVSPropertyOp38
 70
     1
102
RTVSPropertyOp39
 70
     1
102
RTVSPropertyOp40
 70
     1
102
RTVSPropertyOp41
 70
     1
102
RTVSPropertyOp42
 70
     1
102
RTVSPropertyOp43
 70
     1
102
RTVSPropertyOp44
 70
     1
102
RTVSPropertyOp45
 70
     1
102
RTVSPropertyOp46
 70
     1
102
RTVSPropertyOp47
 70
     1
102
RTVSPropertyOp48
 70
     1
102
RTVSPropertyOp49
 70
     1
102
RTVSPropertyOp50
 70
     1
102
RTVSPropertyOp51
 70
     0
102
RTVSPropertyOp52
 70
     0
102
RTVSPropertyOp53
 70
     1
102
RTVSPropertyOp54
 70
     1
102
RTVSPropertyOp55
 70
     1
102
RTVSPropertyOp56
 70
     1
102
RTVSPropertyOp57
 70
     1
102
RTVSPropertyOp58
 70
     1
102
RTVSPropertyOp59
 70
     1
102
RTVSPropertyOp60
 70
     1
102
RTVSPropertyOp61
 70
     1
102
RTVSPropertyOp62
 70
     1
  0
XRECORD
  5
10A4
102
{ACAD_REACTORS
330
10A3
102
}
330
10A3
100
AcDbXrecord
280
     1
102
RTVSPost2010Prop28
280
     0
102
RTVSPost2010PropOp28
 70
     1
102
RTVSPost2010Prop29
280
     1
102
RTVSPost2010PropOp29
 70
     1
102
RTVSPost2010Prop30
280
     1
102
RTVSPost2010PropOp30
 70
     1
102
RTVSPost2010Prop31
280
     0
102
RTVSPost2010PropOp31
 70
     1
102
RTVSPost2010Prop32
280
     0
102
RTVSPost2010PropOp32
 70
     1
102
RTVSPost2010Prop33
280
     0
102
RTVSPost2010PropOp33
 70
     1
102
RTVSPost2010Prop34
280
     0
102
RTVSPost2010PropOp34
 70
     1
102
RTVSPost2010Prop35
280
     0
102
RTVSPost2010PropOp35
 70
     1
102
RTVSPost2010Prop36
280
     0
102
RTVSPost2010PropOp36
 70
     1
102
RTVSPost2010Prop37
 90
       50
102
RTVSPost2010PropOp37
 70
     1
102
RTVSPost2010Prop38
140
0.0
102
RTVSPost2010PropOp38
 70
     1
102
RTVSPost2010Prop39
140
1.0
102
RTVSPost2010PropOp39
 70
     1
102
RTVSPost2010Prop40
 90
        0
102
RTVSPost2010PropOp40
 70
     1
102
RTVSPost2010Prop41ColorIndex
 90
       18
102
RTVSPost2010Prop41ColorRGB
 90
        0
102
RTVSPost2010PropOp41
 70
     1
102
RTVSPost2010Prop42
 90
       50
102
RTVSPost2010PropOp42
 70
     1
102
RTVSPost2010Prop43
 90
        3
102
RTVSPost2010PropOp43
 70
     1
102
RTVSPost2010Prop44ColorIndex
 90
        5
102
RTVSPost2010Prop44ColorRGB
 90
      255
102
RTVSPost2010PropOp44
 70
     1
102
RTVSPost2010Prop45
280
     0
102
RTVSPost2010PropOp45
 70
     1
102
RTVSPost2010Prop46
 90
       50
102
RTVSPost2010PropOp46
 70
     1
102
RTVSPost2010Prop47
 90
       50
102
RTVSPost2010PropOp47
 70
     1
102
RTVSPost2010Prop48
 90
       50
102
RTVSPost2010PropOp48
 70
     1
102
RTVSPost2010Prop49
280
     0
102
RTVSPost2010PropOp49
 70
     1
102
RTVSPost2010Prop50
 90
       50
102
RTVSPost2010PropOp50
 70
     1
102
RTVSPost2010Prop51ColorIndex
 90
      256
102
RTVSPost2010Prop51ColorRGB
 90
-16777216
102
RTVSPost2010PropOp51
 70
     0
102
RTVSPost2010Prop52
140
1.0
102
RTVSPost2010PropOp52
 70
     0
102
RTVSPost2010Prop53
 90
        2
102
RTVSPost2010PropOp53
 70
     1
102
RTVSPost2010Prop54
  1
strokes_ogs.tif
102
RTVSPost2010PropOp54
 70
     1
102
RTVSPost2010Prop55
280
     0
102
RTVSPost2010PropOp55
 70
     1
102
RTVSPost2010Prop56
140
1.0
102
RTVSPost2010PropOp56
 70
     1
102
RTVSPost2010Prop57
140
1.0
102
RTVSPost2010PropOp57
 70
     1
102
RTVSPropertyOp0
 70
     1
102
RTVSPropertyOp1
 70
     1
102
RTVSPropertyOp2
 70
     1
102
RTVSPropertyOp3
 70
     1
102
RTVSPropertyOp4
 70
     1
102
RTVSPropertyOp5
 70
     1
102
RTVSPropertyOp6
 70
     1
102
RTVSPropertyOp7
 70
     1
102
RTVSPropertyOp8
 70
     1
102
RTVSPropertyOp9
 70
     1
102
RTVSPropertyOp10
 70
     1
102
RTVSPropertyOp11
 70
     1
102
RTVSPropertyOp12
 70
     1
102
RTVSPropertyOp13
 70
     1
102
RTVSPropertyOp14
 70
     1
102
RTVSPropertyOp15
 70
     1
102
RTVSPropertyOp16
 70
     1
102
RTVSPropertyOp17
 70
     1
102
RTVSPropertyOp18
 70
     1
102
RTVSPropertyOp19
 70
     1
102
RTVSPropertyOp20
 70
     1
102
RTVSPropertyOp21
 70
     1
102
RTVSPropertyOp22
 70
     1
102
RTVSPropertyOp23
 70
     1
102
RTVSPropertyOp24
 70
     1
102
RTVSPropertyOp25
 70
     1
102
RTVSPropertyOp26
 70
     1
102
RTVSPropertyOp27
 70
     1
102
RTVSPropertyOp28
 70
     1
102
RTVSPropertyOp29
 70
     1
102
RTVSPropertyOp30
 70
     1
102
RTVSPropertyOp31
 70
     1
102
RTVSPropertyOp32
 70
     1
102
RTVSPropertyOp33
 70
     1
102
RTVSPropertyOp34
 70
     1
102
RTVSPropertyOp35
 70
     1
102
RTVSPropertyOp36
 70
     1
102
RTVSPropertyOp37
 70
     1
102
RTVSPropertyOp38
 70
     1
102
RTVSPropertyOp39
 70
     1
102
RTVSPropertyOp40
 70
     1
102
RTVSPropertyOp41
 70
     1
102
RTVSPropertyOp42
 70
     1
102
RTVSPropertyOp43
 70
     1
102
RTVSPropertyOp44
 70
     1
102
RTVSPropertyOp45
 70
     1
102
RTVSPropertyOp46
 70
     1
102
RTVSPropertyOp47
 70
     1
102
RTVSPropertyOp48
 70
     1
102
RTVSPropertyOp49
 70
     1
102
RTVSPropertyOp50
 70
     1
102
RTVSPropertyOp51
 70
     0
102
RTVSPropertyOp52
 70
     0
102
RTVSPropertyOp53
 70
     1
102
RTVSPropertyOp54
 70
     1
102
RTVSPropertyOp55
 70
     1
102
RTVSPropertyOp56
 70
     1
102
RTVSPropertyOp57
 70
     1
102
RTVSPropertyOp58
 70
     1
102
RTVSPropertyOp59
 70
     1
102
RTVSPropertyOp60
 70
     1
102
RTVSPropertyOp61
 70
     1
102
RTVSPropertyOp62
 70
     1
  0
XRECORD
  5
10BE
102
{ACAD_REACTORS
330
10BD
102
}
330
10BD
100
AcDbXrecord
280
     1
102
RTVSPost2010Prop28
280
     0
102
RTVSPost2010PropOp28
 70
     0
102
RTVSPost2010Prop29
280
     1
102
RTVSPost2010PropOp29
 70
     0
102
RTVSPost2010Prop30
280
     1
102
RTVSPost2010PropOp30
 70
     0
102
RTVSPost2010Prop31
280
     0
102
RTVSPost2010PropOp31
 70
     0
102
RTVSPost2010Prop32
280
     0
102
RTVSPost2010PropOp32
 70
     0
102
RTVSPost2010Prop33
280
     0
102
RTVSPost2010PropOp33
 70
     0
102
RTVSPost2010Prop34
280
     0
102
RTVSPost2010PropOp34
 70
     0
102
RTVSPost2010Prop35
280
     0
102
RTVSPost2010PropOp35
 70
     0
102
RTVSPost2010Prop36
280
     0
102
RTVSPost2010PropOp36
 70
     0
102
RTVSPost2010Prop37
 90
       50
102
RTVSPost2010PropOp37
 70
     0
102
RTVSPost2010Prop38
140
0.0
102
RTVSPost2010PropOp38
 70
     0
102
RTVSPost2010Prop39
140
1.0
102
RTVSPost2010PropOp39
 70
     0
102
RTVSPost2010Prop40
 90
        0
102
RTVSPost2010PropOp40
 70
     0
102
RTVSPost2010Prop41ColorIndex
 90
       18
102
RTVSPost2010Prop41ColorRGB
 90
        0
102
RTVSPost2010PropOp41
 70
     0
102
RTVSPost2010Prop42
 90
       50
102
RTVSPost2010PropOp42
 70
     0
102
RTVSPost2010Prop43
 90
        3
102
RTVSPost2010PropOp43
 70
     0
102
RTVSPost2010Prop44ColorIndex
 90
        5
102
RTVSPost2010Prop44ColorRGB
 90
      255
102
RTVSPost2010PropOp44
 70
     0
102
RTVSPost2010Prop45
280
     0
102
RTVSPost2010PropOp45
 70
     0
102
RTVSPost2010Prop46
 90
       50
102
RTVSPost2010PropOp46
 70
     0
102
RTVSPost2010Prop47
 90
       50
102
RTVSPost2010PropOp47
 70
     0
102
RTVSPost2010Prop48
 90
       50
102
RTVSPost2010PropOp48
 70
     0
102
RTVSPost2010Prop49
280
     0
102
RTVSPost2010PropOp49
 70
     0
102
RTVSPost2010Prop50
 90
       50
102
RTVSPost2010PropOp50
 70
     0
102
RTVSPost2010Prop51ColorIndex
 90
      256
102
RTVSPost2010Prop51ColorRGB
 90
-16777216
102
RTVSPost2010PropOp51
 70
     0
102
RTVSPost2010Prop52
140
1.0
102
RTVSPost2010PropOp52
 70
     0
102
RTVSPost2010Prop53
 90
        2
102
RTVSPost2010PropOp53
 70
     0
102
RTVSPost2010Prop54
  1
strokes_ogs.tif
102
RTVSPost2010PropOp54
 70
     0
102
RTVSPost2010Prop55
280
     0
102
RTVSPost2010PropOp55
 70
     0
102
RTVSPost2010Prop56
140
1.0
102
RTVSPost2010PropOp56
 70
     0
102
RTVSPost2010Prop57
140
1.0
102
RTVSPost2010PropOp57
 70
     0
102
RTVSPropertyOp0
 70
     0
102
RTVSPropertyOp1
 70
     0
102
RTVSPropertyOp2
 70
     0
102
RTVSPropertyOp3
 70
     0
102
RTVSPropertyOp4
 70
     0
102
RTVSPropertyOp5
 70
     0
102
RTVSPropertyOp6
 70
     0
102
RTVSPropertyOp7
 70
     0
102
RTVSPropertyOp8
 70
     0
102
RTVSPropertyOp9
 70
     0
102
RTVSPropertyOp10
 70
     0
102
RTVSPropertyOp11
 70
     0
102
RTVSPropertyOp12
 70
     0
102
RTVSPropertyOp13
 70
     0
102
RTVSPropertyOp14
 70
     2
102
RTVSPropertyOp15
 70
     0
102
RTVSPropertyOp16
 70
     0
102
RTVSPropertyOp17
 70
     0
102
RTVSPropertyOp18
 70
     0
102
RTVSPropertyOp19
 70
     0
102
RTVSPropertyOp20
 70
     0
102
RTVSPropertyOp21
 70
     0
102
RTVSPropertyOp22
 70
     0
102
RTVSPropertyOp23
 70
     0
102
RTVSPropertyOp24
 70
     0
102
RTVSPropertyOp25
 70
     0
102
RTVSPropertyOp26
 70
     0
102
RTVSPropertyOp27
 70
     0
102
RTVSPropertyOp28
 70
     0
102
RTVSPropertyOp29
 70
     0
102
RTVSPropertyOp30
 70
     0
102
RTVSPropertyOp31
 70
     0
102
RTVSPropertyOp32
 70
     0
102
RTVSPropertyOp33
 70
     0
102
RTVSPropertyOp34
 70
     0
102
RTVSPropertyOp35
 70
     0
102
RTVSPropertyOp36
 70
     0
102
RTVSPropertyOp37
 70
     0
102
RTVSPropertyOp38
 70
     0
102
RTVSPropertyOp39
 70
     0
102
RTVSPropertyOp40
 70
     0
102
RTVSPropertyOp41
 70
     0
102
RTVSPropertyOp42
 70
     0
102
RTVSPropertyOp43
 70
     0
102
RTVSPropertyOp44
 70
     0
102
RTVSPropertyOp45
 70
     0
102
RTVSPropertyOp46
 70
     0
102
RTVSPropertyOp47
 70
     0
102
RTVSPropertyOp48
 70
     0
102
RTVSPropertyOp49
 70
     0
102
RTVSPropertyOp50
 70
     0
102
RTVSPropertyOp51
 70
     0
102
RTVSPropertyOp52
 70
     0
102
RTVSPropertyOp53
 70
     0
102
RTVSPropertyOp54
 70
     0
102
RTVSPropertyOp55
 70
     0
102
RTVSPropertyOp56
 70
     0
102
RTVSPropertyOp57
 70
     0
102
RTVSPropertyOp58
 70
     1
102
RTVSPropertyOp59
 70
     1
102
RTVSPropertyOp60
 70
     1
102
RTVSPropertyOp61
 70
     1
102
RTVSPropertyOp62
 70
     1
  0
XRECORD
  5
10AC
102
{ACAD_REACTORS
330
10AB
102
}
330
10AB
100
AcDbXrecord
280
     1
102
RTVSPost2010Prop28
280
     0
102
RTVSPost2010PropOp28
 70
     1
102
RTVSPost2010Prop29
280
     1
102
RTVSPost2010PropOp29
 70
     1
102
RTVSPost2010Prop30
280
     1
102
RTVSPost2010PropOp30
 70
     1
102
RTVSPost2010Prop31
280
     0
102
RTVSPost2010PropOp31
 70
     1
102
RTVSPost2010Prop32
280
     0
102
RTVSPost2010PropOp32
 70
     1
102
RTVSPost2010Prop33
280
     0
102
RTVSPost2010PropOp33
 70
     1
102
RTVSPost2010Prop34
280
     0
102
RTVSPost2010PropOp34
 70
     1
102
RTVSPost2010Prop35
280
     0
102
RTVSPost2010PropOp35
 70
     1
102
RTVSPost2010Prop36
280
     0
102
RTVSPost2010PropOp36
 70
     1
102
RTVSPost2010Prop37
 90
       50
102
RTVSPost2010PropOp37
 70
     1
102
RTVSPost2010Prop38
140
0.0
102
RTVSPost2010PropOp38
 70
     1
102
RTVSPost2010Prop39
140
1.0
102
RTVSPost2010PropOp39
 70
     1
102
RTVSPost2010Prop40
 90
        0
102
RTVSPost2010PropOp40
 70
     1
102
RTVSPost2010Prop41ColorIndex
 90
       18
102
RTVSPost2010Prop41ColorRGB
 90
        0
102
RTVSPost2010PropOp41
 70
     1
102
RTVSPost2010Prop42
 90
       50
102
RTVSPost2010PropOp42
 70
     1
102
RTVSPost2010Prop43
 90
        3
102
RTVSPost2010PropOp43
 70
     1
102
RTVSPost2010Prop44ColorIndex
 90
        5
102
RTVSPost2010Prop44ColorRGB
 90
      255
102
RTVSPost2010PropOp44
 70
     1
102
RTVSPost2010Prop45
280
     0
102
RTVSPost2010PropOp45
 70
     1
102
RTVSPost2010Prop46
 90
       50
102
RTVSPost2010PropOp46
 70
     1
102
RTVSPost2010Prop47
 90
       50
102
RTVSPost2010PropOp47
 70
     1
102
RTVSPost2010Prop48
 90
       50
102
RTVSPost2010PropOp48
 70
     1
102
RTVSPost2010Prop49
280
     0
102
RTVSPost2010PropOp49
 70
     1
102
RTVSPost2010Prop50
 90
       50
102
RTVSPost2010PropOp50
 70
     1
102
RTVSPost2010Prop51ColorIndex
 90
      256
102
RTVSPost2010Prop51ColorRGB
 90
-16777216
102
RTVSPost2010PropOp51
 70
     0
102
RTVSPost2010Prop52
140
1.0
102
RTVSPost2010PropOp52
 70
     0
102
RTVSPost2010Prop53
 90
        2
102
RTVSPost2010PropOp53
 70
     1
102
RTVSPost2010Prop54
  1
strokes_ogs.tif
102
RTVSPost2010PropOp54
 70
     1
102
RTVSPost2010Prop55
280
     0
102
RTVSPost2010PropOp55
 70
     1
102
RTVSPost2010Prop56
140
1.0
102
RTVSPost2010PropOp56
 70
     1
102
RTVSPost2010Prop57
140
1.0
102
RTVSPost2010PropOp57
 70
     1
102
RTVSPropertyOp0
 70
     1
102
RTVSPropertyOp1
 70
     1
102
RTVSPropertyOp2
 70
     1
102
RTVSPropertyOp3
 70
     1
102
RTVSPropertyOp4
 70
     1
102
RTVSPropertyOp5
 70
     1
102
RTVSPropertyOp6
 70
     1
102
RTVSPropertyOp7
 70
     1
102
RTVSPropertyOp8
 70
     1
102
RTVSPropertyOp9
 70
     1
102
RTVSPropertyOp10
 70
     1
102
RTVSPropertyOp11
 70
     1
102
RTVSPropertyOp12
 70
     1
102
RTVSPropertyOp13
 70
     1
102
RTVSPropertyOp14
 70
     1
102
RTVSPropertyOp15
 70
     1
102
RTVSPropertyOp16
 70
     1
102
RTVSPropertyOp17
 70
     1
102
RTVSPropertyOp18
 70
     1
102
RTVSPropertyOp19
 70
     1
102
RTVSPropertyOp20
 70
     1
102
RTVSPropertyOp21
 70
     1
102
RTVSPropertyOp22
 70
     1
102
RTVSPropertyOp23
 70
     1
102
RTVSPropertyOp24
 70
     1
102
RTVSPropertyOp25
 70
     1
102
RTVSPropertyOp26
 70
     1
102
RTVSPropertyOp27
 70
     1
102
RTVSPropertyOp28
 70
     1
102
RTVSPropertyOp29
 70
     1
102
RTVSPropertyOp30
 70
     1
102
RTVSPropertyOp31
 70
     1
102
RTVSPropertyOp32
 70
     1
102
RTVSPropertyOp33
 70
     1
102
RTVSPropertyOp34
 70
     1
102
RTVSPropertyOp35
 70
     1
102
RTVSPropertyOp36
 70
     1
102
RTVSPropertyOp37
 70
     1
102
RTVSPropertyOp38
 70
     1
102
RTVSPropertyOp39
 70
     1
102
RTVSPropertyOp40
 70
     1
102
RTVSPropertyOp41
 70
     1
102
RTVSPropertyOp42
 70
     1
102
RTVSPropertyOp43
 70
     1
102
RTVSPropertyOp44
 70
     1
102
RTVSPropertyOp45
 70
     1
102
RTVSPropertyOp46
 70
     1
102
RTVSPropertyOp47
 70
     1
102
RTVSPropertyOp48
 70
     1
102
RTVSPropertyOp49
 70
     1
102
RTVSPropertyOp50
 70
     1
102
RTVSPropertyOp51
 70
     0
102
RTVSPropertyOp52
 70
     0
102
RTVSPropertyOp53
 70
     1
102
RTVSPropertyOp54
 70
     1
102
RTVSPropertyOp55
 70
     1
102
RTVSPropertyOp56
 70
     1
102
RTVSPropertyOp57
 70
     1
102
RTVSPropertyOp58
 70
     1
102
RTVSPropertyOp59
 70
     1
102
RTVSPropertyOp60
 70
     1
102
RTVSPropertyOp61
 70
     1
102
RTVSPropertyOp62
 70
     1
  0
XRECORD
  5
1090
102
{ACAD_REACTORS
330
108F
102
}
330
108F
100
AcDbXrecord
280
     1
102
RTVSPost2010Prop28
280
     0
102
RTVSPost2010PropOp28
 70
     1
102
RTVSPost2010Prop29
280
     1
102
RTVSPost2010PropOp29
 70
     1
102
RTVSPost2010Prop30
280
     1
102
RTVSPost2010PropOp30
 70
     1
102
RTVSPost2010Prop31
280
     0
102
RTVSPost2010PropOp31
 70
     1
102
RTVSPost2010Prop32
280
     0
102
RTVSPost2010PropOp32
 70
     1
102
RTVSPost2010Prop33
280
     0
102
RTVSPost2010PropOp33
 70
     1
102
RTVSPost2010Prop34
280
     0
102
RTVSPost2010PropOp34
 70
     1
102
RTVSPost2010Prop35
280
     0
102
RTVSPost2010PropOp35
 70
     1
102
RTVSPost2010Prop36
280
     0
102
RTVSPost2010PropOp36
 70
     1
102
RTVSPost2010Prop37
 90
       50
102
RTVSPost2010PropOp37
 70
     1
102
RTVSPost2010Prop38
140
0.0
102
RTVSPost2010PropOp38
 70
     1
102
RTVSPost2010Prop39
140
1.0
102
RTVSPost2010PropOp39
 70
     1
102
RTVSPost2010Prop40
 90
        0
102
RTVSPost2010PropOp40
 70
     1
102
RTVSPost2010Prop41ColorIndex
 90
       18
102
RTVSPost2010Prop41ColorRGB
 90
        0
102
RTVSPost2010PropOp41
 70
     1
102
RTVSPost2010Prop42
 90
       50
102
RTVSPost2010PropOp42
 70
     1
102
RTVSPost2010Prop43
 90
        3
102
RTVSPost2010PropOp43
 70
     1
102
RTVSPost2010Prop44ColorIndex
 90
        5
102
RTVSPost2010Prop44ColorRGB
 90
      255
102
RTVSPost2010PropOp44
 70
     1
102
RTVSPost2010Prop45
280
     0
102
RTVSPost2010PropOp45
 70
     1
102
RTVSPost2010Prop46
 90
       50
102
RTVSPost2010PropOp46
 70
     1
102
RTVSPost2010Prop47
 90
       50
102
RTVSPost2010PropOp47
 70
     1
102
RTVSPost2010Prop48
 90
       50
102
RTVSPost2010PropOp48
 70
     1
102
RTVSPost2010Prop49
280
     0
102
RTVSPost2010PropOp49
 70
     1
102
RTVSPost2010Prop50
 90
       50
102
RTVSPost2010PropOp50
 70
     1
102
RTVSPost2010Prop51ColorIndex
 90
      256
102
RTVSPost2010Prop51ColorRGB
 90
-16777216
102
RTVSPost2010PropOp51
 70
     0
102
RTVSPost2010Prop52
140
1.0
102
RTVSPost2010PropOp52
 70
     0
102
RTVSPost2010Prop53
 90
        2
102
RTVSPost2010PropOp53
 70
     1
102
RTVSPost2010Prop54
  1
strokes_ogs.tif
102
RTVSPost2010PropOp54
 70
     1
102
RTVSPost2010Prop55
280
     0
102
RTVSPost2010PropOp55
 70
     1
102
RTVSPost2010Prop56
140
1.0
102
RTVSPost2010PropOp56
 70
     1
102
RTVSPost2010Prop57
140
1.0
102
RTVSPost2010PropOp57
 70
     1
102
RTVSPropertyOp0
 70
     1
102
RTVSPropertyOp1
 70
     1
102
RTVSPropertyOp2
 70
     1
102
RTVSPropertyOp3
 70
     1
102
RTVSPropertyOp4
 70
     1
102
RTVSPropertyOp5
 70
     1
102
RTVSPropertyOp6
 70
     1
102
RTVSPropertyOp7
 70
     1
102
RTVSPropertyOp8
 70
     1
102
RTVSPropertyOp9
 70
     1
102
RTVSPropertyOp10
 70
     1
102
RTVSPropertyOp11
 70
     1
102
RTVSPropertyOp12
 70
     1
102
RTVSPropertyOp13
 70
     1
102
RTVSPropertyOp14
 70
     1
102
RTVSPropertyOp15
 70
     1
102
RTVSPropertyOp16
 70
     1
102
RTVSPropertyOp17
 70
     1
102
RTVSPropertyOp18
 70
     1
102
RTVSPropertyOp19
 70
     1
102
RTVSPropertyOp20
 70
     1
102
RTVSPropertyOp21
 70
     1
102
RTVSPropertyOp22
 70
     1
102
RTVSPropertyOp23
 70
     1
102
RTVSPropertyOp24
 70
     1
102
RTVSPropertyOp25
 70
     1
102
RTVSPropertyOp26
 70
     1
102
RTVSPropertyOp27
 70
     1
102
RTVSPropertyOp28
 70
     1
102
RTVSPropertyOp29
 70
     1
102
RTVSPropertyOp30
 70
     1
102
RTVSPropertyOp31
 70
     1
102
RTVSPropertyOp32
 70
     1
102
RTVSPropertyOp33
 70
     1
102
RTVSPropertyOp34
 70
     1
102
RTVSPropertyOp35
 70
     1
102
RTVSPropertyOp36
 70
     1
102
RTVSPropertyOp37
 70
     1
102
RTVSPropertyOp38
 70
     1
102
RTVSPropertyOp39
 70
     1
102
RTVSPropertyOp40
 70
     1
102
RTVSPropertyOp41
 70
     1
102
RTVSPropertyOp42
 70
     1
102
RTVSPropertyOp43
 70
     1
102
RTVSPropertyOp44
 70
     1
102
RTVSPropertyOp45
 70
     1
102
RTVSPropertyOp46
 70
     1
102
RTVSPropertyOp47
 70
     1
102
RTVSPropertyOp48
 70
     1
102
RTVSPropertyOp49
 70
     1
102
RTVSPropertyOp50
 70
     1
102
RTVSPropertyOp51
 70
     0
102
RTVSPropertyOp52
 70
     0
102
RTVSPropertyOp53
 70
     1
102
RTVSPropertyOp54
 70
     1
102
RTVSPropertyOp55
 70
     1
102
RTVSPropertyOp56
 70
     1
102
RTVSPropertyOp57
 70
     1
102
RTVSPropertyOp58
 70
     1
102
RTVSPropertyOp59
 70
     1
102
RTVSPropertyOp60
 70
     1
102
RTVSPropertyOp61
 70
     1
102
RTVSPropertyOp62
 70
     1
  0
XRECORD
  5
1092
102
{ACAD_REACTORS
330
1091
102
}
330
1091
100
AcDbXrecord
280
     1
102
RTVSPost2010Prop28
280
     0
102
RTVSPost2010PropOp28
 70
     1
102
RTVSPost2010Prop29
280
     1
102
RTVSPost2010PropOp29
 70
     1
102
RTVSPost2010Prop30
280
     1
102
RTVSPost2010PropOp30
 70
     1
102
RTVSPost2010Prop31
280
     0
102
RTVSPost2010PropOp31
 70
     1
102
RTVSPost2010Prop32
280
     0
102
RTVSPost2010PropOp32
 70
     1
102
RTVSPost2010Prop33
280
     0
102
RTVSPost2010PropOp33
 70
     1
102
RTVSPost2010Prop34
280
     0
102
RTVSPost2010PropOp34
 70
     1
102
RTVSPost2010Prop35
280
     0
102
RTVSPost2010PropOp35
 70
     1
102
RTVSPost2010Prop36
280
     0
102
RTVSPost2010PropOp36
 70
     1
102
RTVSPost2010Prop37
 90
       50
102
RTVSPost2010PropOp37
 70
     1
102
RTVSPost2010Prop38
140
0.0
102
RTVSPost2010PropOp38
 70
     1
102
RTVSPost2010Prop39
140
1.0
102
RTVSPost2010PropOp39
 70
     1
102
RTVSPost2010Prop40
 90
        0
102
RTVSPost2010PropOp40
 70
     1
102
RTVSPost2010Prop41ColorIndex
 90
       18
102
RTVSPost2010Prop41ColorRGB
 90
        0
102
RTVSPost2010PropOp41
 70
     1
102
RTVSPost2010Prop42
 90
       50
102
RTVSPost2010PropOp42
 70
     1
102
RTVSPost2010Prop43
 90
        3
102
RTVSPost2010PropOp43
 70
     1
102
RTVSPost2010Prop44ColorIndex
 90
        5
102
RTVSPost2010Prop44ColorRGB
 90
      255
102
RTVSPost2010PropOp44
 70
     1
102
RTVSPost2010Prop45
280
     0
102
RTVSPost2010PropOp45
 70
     1
102
RTVSPost2010Prop46
 90
       50
102
RTVSPost2010PropOp46
 70
     1
102
RTVSPost2010Prop47
 90
       50
102
RTVSPost2010PropOp47
 70
     1
102
RTVSPost2010Prop48
 90
       50
102
RTVSPost2010PropOp48
 70
     1
102
RTVSPost2010Prop49
280
     0
102
RTVSPost2010PropOp49
 70
     1
102
RTVSPost2010Prop50
 90
       50
102
RTVSPost2010PropOp50
 70
     1
102
RTVSPost2010Prop51ColorIndex
 90
      256
102
RTVSPost2010Prop51ColorRGB
 90
-16777216
102
RTVSPost2010PropOp51
 70
     0
102
RTVSPost2010Prop52
140
1.0
102
RTVSPost2010PropOp52
 70
     0
102
RTVSPost2010Prop53
 90
        2
102
RTVSPost2010PropOp53
 70
     1
102
RTVSPost2010Prop54
  1
strokes_ogs.tif
102
RTVSPost2010PropOp54
 70
     1
102
RTVSPost2010Prop55
280
     0
102
RTVSPost2010PropOp55
 70
     1
102
RTVSPost2010Prop56
140
1.0
102
RTVSPost2010PropOp56
 70
     1
102
RTVSPost2010Prop57
140
1.0
102
RTVSPost2010PropOp57
 70
     1
102
RTVSPropertyOp0
 70
     1
102
RTVSPropertyOp1
 70
     1
102
RTVSPropertyOp2
 70
     1
102
RTVSPropertyOp3
 70
     1
102
RTVSPropertyOp4
 70
     1
102
RTVSPropertyOp5
 70
     1
102
RTVSPropertyOp6
 70
     1
102
RTVSPropertyOp7
 70
     1
102
RTVSPropertyOp8
 70
     1
102
RTVSPropertyOp9
 70
     1
102
RTVSPropertyOp10
 70
     1
102
RTVSPropertyOp11
 70
     1
102
RTVSPropertyOp12
 70
     1
102
RTVSPropertyOp13
 70
     1
102
RTVSPropertyOp14
 70
     1
102
RTVSPropertyOp15
 70
     1
102
RTVSPropertyOp16
 70
     1
102
RTVSPropertyOp17
 70
     1
102
RTVSPropertyOp18
 70
     1
102
RTVSPropertyOp19
 70
     1
102
RTVSPropertyOp20
 70
     1
102
RTVSPropertyOp21
 70
     1
102
RTVSPropertyOp22
 70
     1
102
RTVSPropertyOp23
 70
     1
102
RTVSPropertyOp24
 70
     1
102
RTVSPropertyOp25
 70
     1
102
RTVSPropertyOp26
 70
     1
102
RTVSPropertyOp27
 70
     1
102
RTVSPropertyOp28
 70
     1
102
RTVSPropertyOp29
 70
     1
102
RTVSPropertyOp30
 70
     1
102
RTVSPropertyOp31
 70
     1
102
RTVSPropertyOp32
 70
     1
102
RTVSPropertyOp33
 70
     1
102
RTVSPropertyOp34
 70
     1
102
RTVSPropertyOp35
 70
     1
102
RTVSPropertyOp36
 70
     1
102
RTVSPropertyOp37
 70
     1
102
RTVSPropertyOp38
 70
     1
102
RTVSPropertyOp39
 70
     1
102
RTVSPropertyOp40
 70
     1
102
RTVSPropertyOp41
 70
     1
102
RTVSPropertyOp42
 70
     1
102
RTVSPropertyOp43
 70
     1
102
RTVSPropertyOp44
 70
     1
102
RTVSPropertyOp45
 70
     1
102
RTVSPropertyOp46
 70
     1
102
RTVSPropertyOp47
 70
     1
102
RTVSPropertyOp48
 70
     1
102
RTVSPropertyOp49
 70
     1
102
RTVSPropertyOp50
 70
     1
102
RTVSPropertyOp51
 70
     0
102
RTVSPropertyOp52
 70
     0
102
RTVSPropertyOp53
 70
     1
102
RTVSPropertyOp54
 70
     1
102
RTVSPropertyOp55
 70
     1
102
RTVSPropertyOp56
 70
     1
102
RTVSPropertyOp57
 70
     1
102
RTVSPropertyOp58
 70
     1
102
RTVSPropertyOp59
 70
     1
102
RTVSPropertyOp60
 70
     1
102
RTVSPropertyOp61
 70
     1
102
RTVSPropertyOp62
 70
     1
  0
XRECORD
  5
1094
102
{ACAD_REACTORS
330
1093
102
}
330
1093
100
AcDbXrecord
280
     1
102
RTVSPost2010Prop28
280
     0
102
RTVSPost2010PropOp28
 70
     1
102
RTVSPost2010Prop29
280
     1
102
RTVSPost2010PropOp29
 70
     1
102
RTVSPost2010Prop30
280
     1
102
RTVSPost2010PropOp30
 70
     1
102
RTVSPost2010Prop31
280
     0
102
RTVSPost2010PropOp31
 70
     1
102
RTVSPost2010Prop32
280
     0
102
RTVSPost2010PropOp32
 70
     1
102
RTVSPost2010Prop33
280
     0
102
RTVSPost2010PropOp33
 70
     1
102
RTVSPost2010Prop34
280
     0
102
RTVSPost2010PropOp34
 70
     1
102
RTVSPost2010Prop35
280
     0
102
RTVSPost2010PropOp35
 70
     1
102
RTVSPost2010Prop36
280
     0
102
RTVSPost2010PropOp36
 70
     1
102
RTVSPost2010Prop37
 90
       50
102
RTVSPost2010PropOp37
 70
     1
102
RTVSPost2010Prop38
140
0.0
102
RTVSPost2010PropOp38
 70
     1
102
RTVSPost2010Prop39
140
1.0
102
RTVSPost2010PropOp39
 70
     1
102
RTVSPost2010Prop40
 90
        0
102
RTVSPost2010PropOp40
 70
     1
102
RTVSPost2010Prop41ColorIndex
 90
       18
102
RTVSPost2010Prop41ColorRGB
 90
        0
102
RTVSPost2010PropOp41
 70
     1
102
RTVSPost2010Prop42
 90
       50
102
RTVSPost2010PropOp42
 70
     1
102
RTVSPost2010Prop43
 90
        3
102
RTVSPost2010PropOp43
 70
     1
102
RTVSPost2010Prop44ColorIndex
 90
        5
102
RTVSPost2010Prop44ColorRGB
 90
      255
102
RTVSPost2010PropOp44
 70
     1
102
RTVSPost2010Prop45
280
     0
102
RTVSPost2010PropOp45
 70
     1
102
RTVSPost2010Prop46
 90
       50
102
RTVSPost2010PropOp46
 70
     1
102
RTVSPost2010Prop47
 90
       50
102
RTVSPost2010PropOp47
 70
     1
102
RTVSPost2010Prop48
 90
       50
102
RTVSPost2010PropOp48
 70
     1
102
RTVSPost2010Prop49
280
     0
102
RTVSPost2010PropOp49
 70
     1
102
RTVSPost2010Prop50
 90
       50
102
RTVSPost2010PropOp50
 70
     1
102
RTVSPost2010Prop51ColorIndex
 90
      256
102
RTVSPost2010Prop51ColorRGB
 90
-16777216
102
RTVSPost2010PropOp51
 70
     0
102
RTVSPost2010Prop52
140
1.0
102
RTVSPost2010PropOp52
 70
     0
102
RTVSPost2010Prop53
 90
        2
102
RTVSPost2010PropOp53
 70
     1
102
RTVSPost2010Prop54
  1
strokes_ogs.tif
102
RTVSPost2010PropOp54
 70
     1
102
RTVSPost2010Prop55
280
     0
102
RTVSPost2010PropOp55
 70
     1
102
RTVSPost2010Prop56
140
1.0
102
RTVSPost2010PropOp56
 70
     1
102
RTVSPost2010Prop57
140
1.0
102
RTVSPost2010PropOp57
 70
     1
102
RTVSPropertyOp0
 70
     1
102
RTVSPropertyOp1
 70
     1
102
RTVSPropertyOp2
 70
     1
102
RTVSPropertyOp3
 70
     1
102
RTVSPropertyOp4
 70
     1
102
RTVSPropertyOp5
 70
     1
102
RTVSPropertyOp6
 70
     1
102
RTVSPropertyOp7
 70
     1
102
RTVSPropertyOp8
 70
     1
102
RTVSPropertyOp9
 70
     1
102
RTVSPropertyOp10
 70
     1
102
RTVSPropertyOp11
 70
     1
102
RTVSPropertyOp12
 70
     1
102
RTVSPropertyOp13
 70
     1
102
RTVSPropertyOp14
 70
     1
102
RTVSPropertyOp15
 70
     1
102
RTVSPropertyOp16
 70
     1
102
RTVSPropertyOp17
 70
     1
102
RTVSPropertyOp18
 70
     1
102
RTVSPropertyOp19
 70
     1
102
RTVSPropertyOp20
 70
     1
102
RTVSPropertyOp21
 70
     1
102
RTVSPropertyOp22
 70
     1
102
RTVSPropertyOp23
 70
     1
102
RTVSPropertyOp24
 70
     1
102
RTVSPropertyOp25
 70
     1
102
RTVSPropertyOp26
 70
     1
102
RTVSPropertyOp27
 70
     1
102
RTVSPropertyOp28
 70
     1
102
RTVSPropertyOp29
 70
     1
102
RTVSPropertyOp30
 70
     1
102
RTVSPropertyOp31
 70
     1
102
RTVSPropertyOp32
 70
     1
102
RTVSPropertyOp33
 70
     1
102
RTVSPropertyOp34
 70
     1
102
RTVSPropertyOp35
 70
     1
102
RTVSPropertyOp36
 70
     1
102
RTVSPropertyOp37
 70
     1
102
RTVSPropertyOp38
 70
     1
102
RTVSPropertyOp39
 70
     1
102
RTVSPropertyOp40
 70
     1
102
RTVSPropertyOp41
 70
     1
102
RTVSPropertyOp42
 70
     1
102
RTVSPropertyOp43
 70
     1
102
RTVSPropertyOp44
 70
     1
102
RTVSPropertyOp45
 70
     1
102
RTVSPropertyOp46
 70
     1
102
RTVSPropertyOp47
 70
     1
102
RTVSPropertyOp48
 70
     1
102
RTVSPropertyOp49
 70
     1
102
RTVSPropertyOp50
 70
     1
102
RTVSPropertyOp51
 70
     0
102
RTVSPropertyOp52
 70
     0
102
RTVSPropertyOp53
 70
     1
102
RTVSPropertyOp54
 70
     1
102
RTVSPropertyOp55
 70
     1
102
RTVSPropertyOp56
 70
     1
102
RTVSPropertyOp57
 70
     1
102
RTVSPropertyOp58
 70
     1
102
RTVSPropertyOp59
 70
     1
102
RTVSPropertyOp60
 70
     1
102
RTVSPropertyOp61
 70
     1
102
RTVSPropertyOp62
 70
     1
  0
XRECORD
  5
1096
102
{ACAD_REACTORS
330
1095
102
}
330
1095
100
AcDbXrecord
280
     1
102
RTVSPost2010Prop28
280
     0
102
RTVSPost2010PropOp28
 70
     1
102
RTVSPost2010Prop29
280
     1
102
RTVSPost2010PropOp29
 70
     1
102
RTVSPost2010Prop30
280
     1
102
RTVSPost2010PropOp30
 70
     1
102
RTVSPost2010Prop31
280
     0
102
RTVSPost2010PropOp31
 70
     1
102
RTVSPost2010Prop32
280
     0
102
RTVSPost2010PropOp32
 70
     1
102
RTVSPost2010Prop33
280
     0
102
RTVSPost2010PropOp33
 70
     1
102
RTVSPost2010Prop34
280
     0
102
RTVSPost2010PropOp34
 70
     1
102
RTVSPost2010Prop35
280
     0
102
RTVSPost2010PropOp35
 70
     1
102
RTVSPost2010Prop36
280
     0
102
RTVSPost2010PropOp36
 70
     1
102
RTVSPost2010Prop37
 90
       50
102
RTVSPost2010PropOp37
 70
     1
102
RTVSPost2010Prop38
140
0.0
102
RTVSPost2010PropOp38
 70
     1
102
RTVSPost2010Prop39
140
1.0
102
RTVSPost2010PropOp39
 70
     1
102
RTVSPost2010Prop40
 90
        0
102
RTVSPost2010PropOp40
 70
     1
102
RTVSPost2010Prop41ColorIndex
 90
       18
102
RTVSPost2010Prop41ColorRGB
 90
        0
102
RTVSPost2010PropOp41
 70
     1
102
RTVSPost2010Prop42
 90
       50
102
RTVSPost2010PropOp42
 70
     1
102
RTVSPost2010Prop43
 90
        3
102
RTVSPost2010PropOp43
 70
     1
102
RTVSPost2010Prop44ColorIndex
 90
        5
102
RTVSPost2010Prop44ColorRGB
 90
      255
102
RTVSPost2010PropOp44
 70
     1
102
RTVSPost2010Prop45
280
     0
102
RTVSPost2010PropOp45
 70
     1
102
RTVSPost2010Prop46
 90
       50
102
RTVSPost2010PropOp46
 70
     1
102
RTVSPost2010Prop47
 90
       50
102
RTVSPost2010PropOp47
 70
     1
102
RTVSPost2010Prop48
 90
       50
102
RTVSPost2010PropOp48
 70
     1
102
RTVSPost2010Prop49
280
     0
102
RTVSPost2010PropOp49
 70
     1
102
RTVSPost2010Prop50
 90
       50
102
RTVSPost2010PropOp50
 70
     1
102
RTVSPost2010Prop51ColorIndex
 90
      256
102
RTVSPost2010Prop51ColorRGB
 90
-16777216
102
RTVSPost2010PropOp51
 70
     0
102
RTVSPost2010Prop52
140
1.0
102
RTVSPost2010PropOp52
 70
     0
102
RTVSPost2010Prop53
 90
        2
102
RTVSPost2010PropOp53
 70
     1
102
RTVSPost2010Prop54
  1
strokes_ogs.tif
102
RTVSPost2010PropOp54
 70
     1
102
RTVSPost2010Prop55
280
     0
102
RTVSPost2010PropOp55
 70
     1
102
RTVSPost2010Prop56
140
1.0
102
RTVSPost2010PropOp56
 70
     1
102
RTVSPost2010Prop57
140
1.0
102
RTVSPost2010PropOp57
 70
     1
102
RTVSPropertyOp0
 70
     1
102
RTVSPropertyOp1
 70
     1
102
RTVSPropertyOp2
 70
     1
102
RTVSPropertyOp3
 70
     1
102
RTVSPropertyOp4
 70
     1
102
RTVSPropertyOp5
 70
     1
102
RTVSPropertyOp6
 70
     1
102
RTVSPropertyOp7
 70
     1
102
RTVSPropertyOp8
 70
     1
102
RTVSPropertyOp9
 70
     1
102
RTVSPropertyOp10
 70
     1
102
RTVSPropertyOp11
 70
     1
102
RTVSPropertyOp12
 70
     1
102
RTVSPropertyOp13
 70
     1
102
RTVSPropertyOp14
 70
     1
102
RTVSPropertyOp15
 70
     1
102
RTVSPropertyOp16
 70
     1
102
RTVSPropertyOp17
 70
     1
102
RTVSPropertyOp18
 70
     1
102
RTVSPropertyOp19
 70
     1
102
RTVSPropertyOp20
 70
     1
102
RTVSPropertyOp21
 70
     1
102
RTVSPropertyOp22
 70
     1
102
RTVSPropertyOp23
 70
     1
102
RTVSPropertyOp24
 70
     1
102
RTVSPropertyOp25
 70
     1
102
RTVSPropertyOp26
 70
     1
102
RTVSPropertyOp27
 70
     1
102
RTVSPropertyOp28
 70
     1
102
RTVSPropertyOp29
 70
     1
102
RTVSPropertyOp30
 70
     1
102
RTVSPropertyOp31
 70
     1
102
RTVSPropertyOp32
 70
     1
102
RTVSPropertyOp33
 70
     1
102
RTVSPropertyOp34
 70
     1
102
RTVSPropertyOp35
 70
     1
102
RTVSPropertyOp36
 70
     1
102
RTVSPropertyOp37
 70
     1
102
RTVSPropertyOp38
 70
     1
102
RTVSPropertyOp39
 70
     1
102
RTVSPropertyOp40
 70
     1
102
RTVSPropertyOp41
 70
     1
102
RTVSPropertyOp42
 70
     1
102
RTVSPropertyOp43
 70
     1
102
RTVSPropertyOp44
 70
     1
102
RTVSPropertyOp45
 70
     1
102
RTVSPropertyOp46
 70
     1
102
RTVSPropertyOp47
 70
     1
102
RTVSPropertyOp48
 70
     1
102
RTVSPropertyOp49
 70
     1
102
RTVSPropertyOp50
 70
     1
102
RTVSPropertyOp51
 70
     0
102
RTVSPropertyOp52
 70
     0
102
RTVSPropertyOp53
 70
     1
102
RTVSPropertyOp54
 70
     1
102
RTVSPropertyOp55
 70
     1
102
RTVSPropertyOp56
 70
     1
102
RTVSPropertyOp57
 70
     1
102
RTVSPropertyOp58
 70
     1
102
RTVSPropertyOp59
 70
     1
102
RTVSPropertyOp60
 70
     1
102
RTVSPropertyOp61
 70
     1
102
RTVSPropertyOp62
 70
     1
  0
XRECORD
  5
109E
102
{ACAD_REACTORS
330
109D
102
}
330
109D
100
AcDbXrecord
280
     1
102
RTVSPost2010Prop28
280
     0
102
RTVSPost2010PropOp28
 70
     1
102
RTVSPost2010Prop29
280
     1
102
RTVSPost2010PropOp29
 70
     1
102
RTVSPost2010Prop30
280
     1
102
RTVSPost2010PropOp30
 70
     1
102
RTVSPost2010Prop31
280
     0
102
RTVSPost2010PropOp31
 70
     1
102
RTVSPost2010Prop32
280
     0
102
RTVSPost2010PropOp32
 70
     1
102
RTVSPost2010Prop33
280
     0
102
RTVSPost2010PropOp33
 70
     1
102
RTVSPost2010Prop34
280
     0
102
RTVSPost2010PropOp34
 70
     1
102
RTVSPost2010Prop35
280
     0
102
RTVSPost2010PropOp35
 70
     1
102
RTVSPost2010Prop36
280
     0
102
RTVSPost2010PropOp36
 70
     1
102
RTVSPost2010Prop37
 90
       50
102
RTVSPost2010PropOp37
 70
     1
102
RTVSPost2010Prop38
140
0.0
102
RTVSPost2010PropOp38
 70
     1
102
RTVSPost2010Prop39
140
1.0
102
RTVSPost2010PropOp39
 70
     1
102
RTVSPost2010Prop40
 90
        0
102
RTVSPost2010PropOp40
 70
     1
102
RTVSPost2010Prop41ColorIndex
 90
       18
102
RTVSPost2010Prop41ColorRGB
 90
        0
102
RTVSPost2010PropOp41
 70
     1
102
RTVSPost2010Prop42
 90
       50
102
RTVSPost2010PropOp42
 70
     1
102
RTVSPost2010Prop43
 90
        3
102
RTVSPost2010PropOp43
 70
     1
102
RTVSPost2010Prop44ColorIndex
 90
        5
102
RTVSPost2010Prop44ColorRGB
 90
      255
102
RTVSPost2010PropOp44
 70
     1
102
RTVSPost2010Prop45
280
     0
102
RTVSPost2010PropOp45
 70
     1
102
RTVSPost2010Prop46
 90
       50
102
RTVSPost2010PropOp46
 70
     1
102
RTVSPost2010Prop47
 90
       50
102
RTVSPost2010PropOp47
 70
     1
102
RTVSPost2010Prop48
 90
       50
102
RTVSPost2010PropOp48
 70
     1
102
RTVSPost2010Prop49
280
     0
102
RTVSPost2010PropOp49
 70
     1
102
RTVSPost2010Prop50
 90
       50
102
RTVSPost2010PropOp50
 70
     1
102
RTVSPost2010Prop51ColorIndex
 90
      256
102
RTVSPost2010Prop51ColorRGB
 90
-16777216
102
RTVSPost2010PropOp51
 70
     0
102
RTVSPost2010Prop52
140
1.0
102
RTVSPost2010PropOp52
 70
     0
102
RTVSPost2010Prop53
 90
        2
102
RTVSPost2010PropOp53
 70
     1
102
RTVSPost2010Prop54
  1
strokes_ogs.tif
102
RTVSPost2010PropOp54
 70
     1
102
RTVSPost2010Prop55
280
     0
102
RTVSPost2010PropOp55
 70
     1
102
RTVSPost2010Prop56
140
1.0
102
RTVSPost2010PropOp56
 70
     1
102
RTVSPost2010Prop57
140
1.0
102
RTVSPost2010PropOp57
 70
     1
102
RTVSPropertyOp0
 70
     1
102
RTVSPropertyOp1
 70
     1
102
RTVSPropertyOp2
 70
     1
102
RTVSPropertyOp3
 70
     1
102
RTVSPropertyOp4
 70
     1
102
RTVSPropertyOp5
 70
     1
102
RTVSPropertyOp6
 70
     1
102
RTVSPropertyOp7
 70
     1
102
RTVSPropertyOp8
 70
     1
102
RTVSPropertyOp9
 70
     1
102
RTVSPropertyOp10
 70
     1
102
RTVSPropertyOp11
 70
     1
102
RTVSPropertyOp12
 70
     1
102
RTVSPropertyOp13
 70
     1
102
RTVSPropertyOp14
 70
     1
102
RTVSPropertyOp15
 70
     1
102
RTVSPropertyOp16
 70
     1
102
RTVSPropertyOp17
 70
     1
102
RTVSPropertyOp18
 70
     1
102
RTVSPropertyOp19
 70
     1
102
RTVSPropertyOp20
 70
     1
102
RTVSPropertyOp21
 70
     1
102
RTVSPropertyOp22
 70
     1
102
RTVSPropertyOp23
 70
     1
102
RTVSPropertyOp24
 70
     1
102
RTVSPropertyOp25
 70
     1
102
RTVSPropertyOp26
 70
     1
102
RTVSPropertyOp27
 70
     1
102
RTVSPropertyOp28
 70
     1
102
RTVSPropertyOp29
 70
     1
102
RTVSPropertyOp30
 70
     1
102
RTVSPropertyOp31
 70
     1
102
RTVSPropertyOp32
 70
     1
102
RTVSPropertyOp33
 70
     1
102
RTVSPropertyOp34
 70
     1
102
RTVSPropertyOp35
 70
     1
102
RTVSPropertyOp36
 70
     1
102
RTVSPropertyOp37
 70
     1
102
RTVSPropertyOp38
 70
     1
102
RTVSPropertyOp39
 70
     1
102
RTVSPropertyOp40
 70
     1
102
RTVSPropertyOp41
 70
     1
102
RTVSPropertyOp42
 70
     1
102
RTVSPropertyOp43
 70
     1
102
RTVSPropertyOp44
 70
     1
102
RTVSPropertyOp45
 70
     1
102
RTVSPropertyOp46
 70
     1
102
RTVSPropertyOp47
 70
     1
102
RTVSPropertyOp48
 70
     1
102
RTVSPropertyOp49
 70
     1
102
RTVSPropertyOp50
 70
     1
102
RTVSPropertyOp51
 70
     0
102
RTVSPropertyOp52
 70
     0
102
RTVSPropertyOp53
 70
     1
102
RTVSPropertyOp54
 70
     1
102
RTVSPropertyOp55
 70
     1
102
RTVSPropertyOp56
 70
     1
102
RTVSPropertyOp57
 70
     1
102
RTVSPropertyOp58
 70
     1
102
RTVSPropertyOp59
 70
     1
102
RTVSPropertyOp60
 70
     1
102
RTVSPropertyOp61
 70
     1
102
RTVSPropertyOp62
 70
     1
  0
XRECORD
  5
10BA
102
{ACAD_REACTORS
330
10B9
102
}
330
10B9
100
AcDbXrecord
280
     1
102
RTVSPost2010Prop28
280
     0
102
RTVSPost2010PropOp28
 70
     0
102
RTVSPost2010Prop29
280
     1
102
RTVSPost2010PropOp29
 70
     0
102
RTVSPost2010Prop30
280
     1
102
RTVSPost2010PropOp30
 70
     0
102
RTVSPost2010Prop31
280
     0
102
RTVSPost2010PropOp31
 70
     0
102
RTVSPost2010Prop32
280
     0
102
RTVSPost2010PropOp32
 70
     0
102
RTVSPost2010Prop33
280
     0
102
RTVSPost2010PropOp33
 70
     0
102
RTVSPost2010Prop34
280
     0
102
RTVSPost2010PropOp34
 70
     0
102
RTVSPost2010Prop35
280
     0
102
RTVSPost2010PropOp35
 70
     0
102
RTVSPost2010Prop36
280
     0
102
RTVSPost2010PropOp36
 70
     0
102
RTVSPost2010Prop37
 90
       50
102
RTVSPost2010PropOp37
 70
     0
102
RTVSPost2010Prop38
140
0.0
102
RTVSPost2010PropOp38
 70
     0
102
RTVSPost2010Prop39
140
1.0
102
RTVSPost2010PropOp39
 70
     0
102
RTVSPost2010Prop40
 90
        0
102
RTVSPost2010PropOp40
 70
     0
102
RTVSPost2010Prop41ColorIndex
 90
       18
102
RTVSPost2010Prop41ColorRGB
 90
        0
102
RTVSPost2010PropOp41
 70
     0
102
RTVSPost2010Prop42
 90
       50
102
RTVSPost2010PropOp42
 70
     0
102
RTVSPost2010Prop43
 90
        3
102
RTVSPost2010PropOp43
 70
     0
102
RTVSPost2010Prop44ColorIndex
 90
        5
102
RTVSPost2010Prop44ColorRGB
 90
      255
102
RTVSPost2010PropOp44
 70
     0
102
RTVSPost2010Prop45
280
     0
102
RTVSPost2010PropOp45
 70
     0
102
RTVSPost2010Prop46
 90
       50
102
RTVSPost2010PropOp46
 70
     0
102
RTVSPost2010Prop47
 90
       50
102
RTVSPost2010PropOp47
 70
     0
102
RTVSPost2010Prop48
 90
       50
102
RTVSPost2010PropOp48
 70
     0
102
RTVSPost2010Prop49
280
     0
102
RTVSPost2010PropOp49
 70
     0
102
RTVSPost2010Prop50
 90
       50
102
RTVSPost2010PropOp50
 70
     0
102
RTVSPost2010Prop51ColorIndex
 90
      256
102
RTVSPost2010Prop51ColorRGB
 90
-16777216
102
RTVSPost2010PropOp51
 70
     0
102
RTVSPost2010Prop52
140
1.0
102
RTVSPost2010PropOp52
 70
     0
102
RTVSPost2010Prop53
 90
        2
102
RTVSPost2010PropOp53
 70
     0
102
RTVSPost2010Prop54
  1
strokes_ogs.tif
102
RTVSPost2010PropOp54
 70
     0
102
RTVSPost2010Prop55
280
     0
102
RTVSPost2010PropOp55
 70
     0
102
RTVSPost2010Prop56
140
1.0
102
RTVSPost2010PropOp56
 70
     0
102
RTVSPost2010Prop57
140
1.0
102
RTVSPost2010PropOp57
 70
     0
102
RTVSPropertyOp0
 70
     0
102
RTVSPropertyOp1
 70
     0
102
RTVSPropertyOp2
 70
     0
102
RTVSPropertyOp3
 70
     0
102
RTVSPropertyOp4
 70
     0
102
RTVSPropertyOp5
 70
     0
102
RTVSPropertyOp6
 70
     0
102
RTVSPropertyOp7
 70
     0
102
RTVSPropertyOp8
 70
     0
102
RTVSPropertyOp9
 70
     0
102
RTVSPropertyOp10
 70
     0
102
RTVSPropertyOp11
 70
     0
102
RTVSPropertyOp12
 70
     0
102
RTVSPropertyOp13
 70
     0
102
RTVSPropertyOp14
 70
     2
102
RTVSPropertyOp15
 70
     0
102
RTVSPropertyOp16
 70
     0
102
RTVSPropertyOp17
 70
     0
102
RTVSPropertyOp18
 70
     0
102
RTVSPropertyOp19
 70
     0
102
RTVSPropertyOp20
 70
     0
102
RTVSPropertyOp21
 70
     0
102
RTVSPropertyOp22
 70
     0
102
RTVSPropertyOp23
 70
     0
102
RTVSPropertyOp24
 70
     0
102
RTVSPropertyOp25
 70
     0
102
RTVSPropertyOp26
 70
     0
102
RTVSPropertyOp27
 70
     0
102
RTVSPropertyOp28
 70
     0
102
RTVSPropertyOp29
 70
     0
102
RTVSPropertyOp30
 70
     0
102
RTVSPropertyOp31
 70
     0
102
RTVSPropertyOp32
 70
     0
102
RTVSPropertyOp33
 70
     0
102
RTVSPropertyOp34
 70
     0
102
RTVSPropertyOp35
 70
     0
102
RTVSPropertyOp36
 70
     0
102
RTVSPropertyOp37
 70
     0
102
RTVSPropertyOp38
 70
     0
102
RTVSPropertyOp39
 70
     0
102
RTVSPropertyOp40
 70
     0
102
RTVSPropertyOp41
 70
     0
102
RTVSPropertyOp42
 70
     0
102
RTVSPropertyOp43
 70
     0
102
RTVSPropertyOp44
 70
     0
102
RTVSPropertyOp45
 70
     0
102
RTVSPropertyOp46
 70
     0
102
RTVSPropertyOp47
 70
     0
102
RTVSPropertyOp48
 70
     0
102
RTVSPropertyOp49
 70
     0
102
RTVSPropertyOp50
 70
     0
102
RTVSPropertyOp51
 70
     0
102
RTVSPropertyOp52
 70
     0
102
RTVSPropertyOp53
 70
     0
102
RTVSPropertyOp54
 70
     0
102
RTVSPropertyOp55
 70
     0
102
RTVSPropertyOp56
 70
     0
102
RTVSPropertyOp57
 70
     0
102
RTVSPropertyOp58
 70
     1
102
RTVSPropertyOp59
 70
     1
102
RTVSPropertyOp60
 70
     1
102
RTVSPropertyOp61
 70
     1
102
RTVSPropertyOp62
 70
     1
  0
XRECORD
  5
10AA
102
{ACAD_REACTORS
330
10A9
102
}
330
10A9
100
AcDbXrecord
280
     1
102
RTVSPost2010Prop28
280
     0
102
RTVSPost2010PropOp28
 70
     1
102
RTVSPost2010Prop29
280
     1
102
RTVSPost2010PropOp29
 70
     1
102
RTVSPost2010Prop30
280
     1
102
RTVSPost2010PropOp30
 70
     1
102
RTVSPost2010Prop31
280
     0
102
RTVSPost2010PropOp31
 70
     1
102
RTVSPost2010Prop32
280
     0
102
RTVSPost2010PropOp32
 70
     1
102
RTVSPost2010Prop33
280
     0
102
RTVSPost2010PropOp33
 70
     1
102
RTVSPost2010Prop34
280
     0
102
RTVSPost2010PropOp34
 70
     1
102
RTVSPost2010Prop35
280
     0
102
RTVSPost2010PropOp35
 70
     1
102
RTVSPost2010Prop36
280
     0
102
RTVSPost2010PropOp36
 70
     1
102
RTVSPost2010Prop37
 90
       50
102
RTVSPost2010PropOp37
 70
     1
102
RTVSPost2010Prop38
140
0.0
102
RTVSPost2010PropOp38
 70
     1
102
RTVSPost2010Prop39
140
1.0
102
RTVSPost2010PropOp39
 70
     1
102
RTVSPost2010Prop40
 90
        0
102
RTVSPost2010PropOp40
 70
     1
102
RTVSPost2010Prop41ColorIndex
 90
       18
102
RTVSPost2010Prop41ColorRGB
 90
        0
102
RTVSPost2010PropOp41
 70
     1
102
RTVSPost2010Prop42
 90
       50
102
RTVSPost2010PropOp42
 70
     1
102
RTVSPost2010Prop43
 90
        3
102
RTVSPost2010PropOp43
 70
     1
102
RTVSPost2010Prop44ColorIndex
 90
        5
102
RTVSPost2010Prop44ColorRGB
 90
      255
102
RTVSPost2010PropOp44
 70
     1
102
RTVSPost2010Prop45
280
     0
102
RTVSPost2010PropOp45
 70
     1
102
RTVSPost2010Prop46
 90
       50
102
RTVSPost2010PropOp46
 70
     1
102
RTVSPost2010Prop47
 90
       50
102
RTVSPost2010PropOp47
 70
     1
102
RTVSPost2010Prop48
 90
       50
102
RTVSPost2010PropOp48
 70
     1
102
RTVSPost2010Prop49
280
     0
102
RTVSPost2010PropOp49
 70
     1
102
RTVSPost2010Prop50
 90
       50
102
RTVSPost2010PropOp50
 70
     1
102
RTVSPost2010Prop51ColorIndex
 90
      256
102
RTVSPost2010Prop51ColorRGB
 90
-16777216
102
RTVSPost2010PropOp51
 70
     0
102
RTVSPost2010Prop52
140
1.0
102
RTVSPost2010PropOp52
 70
     0
102
RTVSPost2010Prop53
 90
        2
102
RTVSPost2010PropOp53
 70
     1
102
RTVSPost2010Prop54
  1
strokes_ogs.tif
102
RTVSPost2010PropOp54
 70
     1
102
RTVSPost2010Prop55
280
     0
102
RTVSPost2010PropOp55
 70
     1
102
RTVSPost2010Prop56
140
1.0
102
RTVSPost2010PropOp56
 70
     1
102
RTVSPost2010Prop57
140
1.0
102
RTVSPost2010PropOp57
 70
     1
102
RTVSPropertyOp0
 70
     1
102
RTVSPropertyOp1
 70
     1
102
RTVSPropertyOp2
 70
     1
102
RTVSPropertyOp3
 70
     1
102
RTVSPropertyOp4
 70
     1
102
RTVSPropertyOp5
 70
     1
102
RTVSPropertyOp6
 70
     1
102
RTVSPropertyOp7
 70
     1
102
RTVSPropertyOp8
 70
     1
102
RTVSPropertyOp9
 70
     1
102
RTVSPropertyOp10
 70
     1
102
RTVSPropertyOp11
 70
     1
102
RTVSPropertyOp12
 70
     1
102
RTVSPropertyOp13
 70
     1
102
RTVSPropertyOp14
 70
     1
102
RTVSPropertyOp15
 70
     1
102
RTVSPropertyOp16
 70
     1
102
RTVSPropertyOp17
 70
     1
102
RTVSPropertyOp18
 70
     1
102
RTVSPropertyOp19
 70
     1
102
RTVSPropertyOp20
 70
     1
102
RTVSPropertyOp21
 70
     1
102
RTVSPropertyOp22
 70
     1
102
RTVSPropertyOp23
 70
     1
102
RTVSPropertyOp24
 70
     1
102
RTVSPropertyOp25
 70
     1
102
RTVSPropertyOp26
 70
     1
102
RTVSPropertyOp27
 70
     1
102
RTVSPropertyOp28
 70
     1
102
RTVSPropertyOp29
 70
     1
102
RTVSPropertyOp30
 70
     1
102
RTVSPropertyOp31
 70
     1
102
RTVSPropertyOp32
 70
     1
102
RTVSPropertyOp33
 70
     1
102
RTVSPropertyOp34
 70
     1
102
RTVSPropertyOp35
 70
     1
102
RTVSPropertyOp36
 70
     1
102
RTVSPropertyOp37
 70
     1
102
RTVSPropertyOp38
 70
     1
102
RTVSPropertyOp39
 70
     1
102
RTVSPropertyOp40
 70
     1
102
RTVSPropertyOp41
 70
     1
102
RTVSPropertyOp42
 70
     1
102
RTVSPropertyOp43
 70
     1
102
RTVSPropertyOp44
 70
     1
102
RTVSPropertyOp45
 70
     1
102
RTVSPropertyOp46
 70
     1
102
RTVSPropertyOp47
 70
     1
102
RTVSPropertyOp48
 70
     1
102
RTVSPropertyOp49
 70
     1
102
RTVSPropertyOp50
 70
     1
102
RTVSPropertyOp51
 70
     0
102
RTVSPropertyOp52
 70
     0
102
RTVSPropertyOp53
 70
     1
102
RTVSPropertyOp54
 70
     1
102
RTVSPropertyOp55
 70
     1
102
RTVSPropertyOp56
 70
     1
102
RTVSPropertyOp57
 70
     1
102
RTVSPropertyOp58
 70
     1
102
RTVSPropertyOp59
 70
     1
102
RTVSPropertyOp60
 70
     1
102
RTVSPropertyOp61
 70
     1
102
RTVSPropertyOp62
 70
     1
  0
XRECORD
  5
10BC
102
{ACAD_REACTORS
330
10BB
102
}
330
10BB
100
AcDbXrecord
280
     1
102
RTVSPost2010Prop28
280
     0
102
RTVSPost2010PropOp28
 70
     0
102
RTVSPost2010Prop29
280
     1
102
RTVSPost2010PropOp29
 70
     0
102
RTVSPost2010Prop30
280
     1
102
RTVSPost2010PropOp30
 70
     0
102
RTVSPost2010Prop31
280
     0
102
RTVSPost2010PropOp31
 70
     0
102
RTVSPost2010Prop32
280
     0
102
RTVSPost2010PropOp32
 70
     0
102
RTVSPost2010Prop33
280
     0
102
RTVSPost2010PropOp33
 70
     0
102
RTVSPost2010Prop34
280
     0
102
RTVSPost2010PropOp34
 70
     0
102
RTVSPost2010Prop35
280
     0
102
RTVSPost2010PropOp35
 70
     0
102
RTVSPost2010Prop36
280
     0
102
RTVSPost2010PropOp36
 70
     0
102
RTVSPost2010Prop37
 90
       50
102
RTVSPost2010PropOp37
 70
     0
102
RTVSPost2010Prop38
140
0.0
102
RTVSPost2010PropOp38
 70
     0
102
RTVSPost2010Prop39
140
1.0
102
RTVSPost2010PropOp39
 70
     0
102
RTVSPost2010Prop40
 90
        0
102
RTVSPost2010PropOp40
 70
     0
102
RTVSPost2010Prop41ColorIndex
 90
       18
102
RTVSPost2010Prop41ColorRGB
 90
        0
102
RTVSPost2010PropOp41
 70
     0
102
RTVSPost2010Prop42
 90
       50
102
RTVSPost2010PropOp42
 70
     0
102
RTVSPost2010Prop43
 90
        3
102
RTVSPost2010PropOp43
 70
     0
102
RTVSPost2010Prop44ColorIndex
 90
        5
102
RTVSPost2010Prop44ColorRGB
 90
      255
102
RTVSPost2010PropOp44
 70
     0
102
RTVSPost2010Prop45
280
     0
102
RTVSPost2010PropOp45
 70
     0
102
RTVSPost2010Prop46
 90
       50
102
RTVSPost2010PropOp46
 70
     0
102
RTVSPost2010Prop47
 90
       50
102
RTVSPost2010PropOp47
 70
     0
102
RTVSPost2010Prop48
 90
       50
102
RTVSPost2010PropOp48
 70
     0
102
RTVSPost2010Prop49
280
     0
102
RTVSPost2010PropOp49
 70
     0
102
RTVSPost2010Prop50
 90
       50
102
RTVSPost2010PropOp50
 70
     0
102
RTVSPost2010Prop51ColorIndex
 90
      256
102
RTVSPost2010Prop51ColorRGB
 90
-16777216
102
RTVSPost2010PropOp51
 70
     0
102
RTVSPost2010Prop52
140
1.0
102
RTVSPost2010PropOp52
 70
     0
102
RTVSPost2010Prop53
 90
        2
102
RTVSPost2010PropOp53
 70
     0
102
RTVSPost2010Prop54
  1
strokes_ogs.tif
102
RTVSPost2010PropOp54
 70
     0
102
RTVSPost2010Prop55
280
     0
102
RTVSPost2010PropOp55
 70
     0
102
RTVSPost2010Prop56
140
1.0
102
RTVSPost2010PropOp56
 70
     0
102
RTVSPost2010Prop57
140
1.0
102
RTVSPost2010PropOp57
 70
     0
102
RTVSPropertyOp0
 70
     0
102
RTVSPropertyOp1
 70
     0
102
RTVSPropertyOp2
 70
     0
102
RTVSPropertyOp3
 70
     0
102
RTVSPropertyOp4
 70
     0
102
RTVSPropertyOp5
 70
     0
102
RTVSPropertyOp6
 70
     0
102
RTVSPropertyOp7
 70
     0
102
RTVSPropertyOp8
 70
     0
102
RTVSPropertyOp9
 70
     0
102
RTVSPropertyOp10
 70
     0
102
RTVSPropertyOp11
 70
     0
102
RTVSPropertyOp12
 70
     0
102
RTVSPropertyOp13
 70
     0
102
RTVSPropertyOp14
 70
     2
102
RTVSPropertyOp15
 70
     0
102
RTVSPropertyOp16
 70
     0
102
RTVSPropertyOp17
 70
     0
102
RTVSPropertyOp18
 70
     0
102
RTVSPropertyOp19
 70
     0
102
RTVSPropertyOp20
 70
     0
102
RTVSPropertyOp21
 70
     0
102
RTVSPropertyOp22
 70
     0
102
RTVSPropertyOp23
 70
     0
102
RTVSPropertyOp24
 70
     0
102
RTVSPropertyOp25
 70
     0
102
RTVSPropertyOp26
 70
     0
102
RTVSPropertyOp27
 70
     0
102
RTVSPropertyOp28
 70
     0
102
RTVSPropertyOp29
 70
     0
102
RTVSPropertyOp30
 70
     0
102
RTVSPropertyOp31
 70
     0
102
RTVSPropertyOp32
 70
     0
102
RTVSPropertyOp33
 70
     0
102
RTVSPropertyOp34
 70
     0
102
RTVSPropertyOp35
 70
     0
102
RTVSPropertyOp36
 70
     0
102
RTVSPropertyOp37
 70
     0
102
RTVSPropertyOp38
 70
     0
102
RTVSPropertyOp39
 70
     0
102
RTVSPropertyOp40
 70
     0
102
RTVSPropertyOp41
 70
     0
102
RTVSPropertyOp42
 70
     0
102
RTVSPropertyOp43
 70
     0
102
RTVSPropertyOp44
 70
     0
102
RTVSPropertyOp45
 70
     0
102
RTVSPropertyOp46
 70
     0
102
RTVSPropertyOp47
 70
     0
102
RTVSPropertyOp48
 70
     0
102
RTVSPropertyOp49
 70
     0
102
RTVSPropertyOp50
 70
     0
102
RTVSPropertyOp51
 70
     0
102
RTVSPropertyOp52
 70
     0
102
RTVSPropertyOp53
 70
     0
102
RTVSPropertyOp54
 70
     0
102
RTVSPropertyOp55
 70
     0
102
RTVSPropertyOp56
 70
     0
102
RTVSPropertyOp57
 70
     0
102
RTVSPropertyOp58
 70
     1
102
RTVSPropertyOp59
 70
     1
102
RTVSPropertyOp60
 70
     1
102
RTVSPropertyOp61
 70
     1
102
RTVSPropertyOp62
 70
     1
  0
XRECORD
  5
10A2
102
{ACAD_REACTORS
330
10A1
102
}
330
10A1
100
AcDbXrecord
280
     1
102
RTVSPost2010Prop28
280
     0
102
RTVSPost2010PropOp28
 70
     1
102
RTVSPost2010Prop29
280
     1
102
RTVSPost2010PropOp29
 70
     1
102
RTVSPost2010Prop30
280
     1
102
RTVSPost2010PropOp30
 70
     1
102
RTVSPost2010Prop31
280
     0
102
RTVSPost2010PropOp31
 70
     1
102
RTVSPost2010Prop32
280
     0
102
RTVSPost2010PropOp32
 70
     1
102
RTVSPost2010Prop33
280
     0
102
RTVSPost2010PropOp33
 70
     1
102
RTVSPost2010Prop34
280
     0
102
RTVSPost2010PropOp34
 70
     1
102
RTVSPost2010Prop35
280
     0
102
RTVSPost2010PropOp35
 70
     1
102
RTVSPost2010Prop36
280
     0
102
RTVSPost2010PropOp36
 70
     1
102
RTVSPost2010Prop37
 90
       50
102
RTVSPost2010PropOp37
 70
     1
102
RTVSPost2010Prop38
140
0.0
102
RTVSPost2010PropOp38
 70
     1
102
RTVSPost2010Prop39
140
1.0
102
RTVSPost2010PropOp39
 70
     1
102
RTVSPost2010Prop40
 90
        0
102
RTVSPost2010PropOp40
 70
     1
102
RTVSPost2010Prop41ColorIndex
 90
       18
102
RTVSPost2010Prop41ColorRGB
 90
        0
102
RTVSPost2010PropOp41
 70
     1
102
RTVSPost2010Prop42
 90
       50
102
RTVSPost2010PropOp42
 70
     1
102
RTVSPost2010Prop43
 90
        3
102
RTVSPost2010PropOp43
 70
     1
102
RTVSPost2010Prop44ColorIndex
 90
        5
102
RTVSPost2010Prop44ColorRGB
 90
      255
102
RTVSPost2010PropOp44
 70
     1
102
RTVSPost2010Prop45
280
     0
102
RTVSPost2010PropOp45
 70
     1
102
RTVSPost2010Prop46
 90
       50
102
RTVSPost2010PropOp46
 70
     1
102
RTVSPost2010Prop47
 90
       50
102
RTVSPost2010PropOp47
 70
     1
102
RTVSPost2010Prop48
 90
       50
102
RTVSPost2010PropOp48
 70
     1
102
RTVSPost2010Prop49
280
     0
102
RTVSPost2010PropOp49
 70
     1
102
RTVSPost2010Prop50
 90
       50
102
RTVSPost2010PropOp50
 70
     1
102
RTVSPost2010Prop51ColorIndex
 90
      256
102
RTVSPost2010Prop51ColorRGB
 90
-16777216
102
RTVSPost2010PropOp51
 70
     0
102
RTVSPost2010Prop52
140
1.0
102
RTVSPost2010PropOp52
 70
     0
102
RTVSPost2010Prop53
 90
        2
102
RTVSPost2010PropOp53
 70
     1
102
RTVSPost2010Prop54
  1
strokes_ogs.tif
102
RTVSPost2010PropOp54
 70
     1
102
RTVSPost2010Prop55
280
     0
102
RTVSPost2010PropOp55
 70
     1
102
RTVSPost2010Prop56
140
1.0
102
RTVSPost2010PropOp56
 70
     1
102
RTVSPost2010Prop57
140
1.0
102
RTVSPost2010PropOp57
 70
     1
102
RTVSPropertyOp0
 70
     1
102
RTVSPropertyOp1
 70
     1
102
RTVSPropertyOp2
 70
     1
102
RTVSPropertyOp3
 70
     1
102
RTVSPropertyOp4
 70
     1
102
RTVSPropertyOp5
 70
     1
102
RTVSPropertyOp6
 70
     1
102
RTVSPropertyOp7
 70
     1
102
RTVSPropertyOp8
 70
     1
102
RTVSPropertyOp9
 70
     1
102
RTVSPropertyOp10
 70
     1
102
RTVSPropertyOp11
 70
     1
102
RTVSPropertyOp12
 70
     1
102
RTVSPropertyOp13
 70
     1
102
RTVSPropertyOp14
 70
     1
102
RTVSPropertyOp15
 70
     1
102
RTVSPropertyOp16
 70
     1
102
RTVSPropertyOp17
 70
     1
102
RTVSPropertyOp18
 70
     1
102
RTVSPropertyOp19
 70
     1
102
RTVSPropertyOp20
 70
     1
102
RTVSPropertyOp21
 70
     1
102
RTVSPropertyOp22
 70
     1
102
RTVSPropertyOp23
 70
     1
102
RTVSPropertyOp24
 70
     1
102
RTVSPropertyOp25
 70
     1
102
RTVSPropertyOp26
 70
     1
102
RTVSPropertyOp27
 70
     1
102
RTVSPropertyOp28
 70
     1
102
RTVSPropertyOp29
 70
     1
102
RTVSPropertyOp30
 70
     1
102
RTVSPropertyOp31
 70
     1
102
RTVSPropertyOp32
 70
     1
102
RTVSPropertyOp33
 70
     1
102
RTVSPropertyOp34
 70
     1
102
RTVSPropertyOp35
 70
     1
102
RTVSPropertyOp36
 70
     1
102
RTVSPropertyOp37
 70
     1
102
RTVSPropertyOp38
 70
     1
102
RTVSPropertyOp39
 70
     1
102
RTVSPropertyOp40
 70
     1
102
RTVSPropertyOp41
 70
     1
102
RTVSPropertyOp42
 70
     1
102
RTVSPropertyOp43
 70
     1
102
RTVSPropertyOp44
 70
     1
102
RTVSPropertyOp45
 70
     1
102
RTVSPropertyOp46
 70
     1
102
RTVSPropertyOp47
 70
     1
102
RTVSPropertyOp48
 70
     1
102
RTVSPropertyOp49
 70
     1
102
RTVSPropertyOp50
 70
     1
102
RTVSPropertyOp51
 70
     0
102
RTVSPropertyOp52
 70
     0
102
RTVSPropertyOp53
 70
     1
102
RTVSPropertyOp54
 70
     1
102
RTVSPropertyOp55
 70
     1
102
RTVSPropertyOp56
 70
     1
102
RTVSPropertyOp57
 70
     1
102
RTVSPropertyOp58
 70
     1
102
RTVSPropertyOp59
 70
     1
102
RTVSPropertyOp60
 70
     1
102
RTVSPropertyOp61
 70
     1
102
RTVSPropertyOp62
 70
     1
  0
XRECORD
  5
10B8
102
{ACAD_REACTORS
330
10B7
102
}
330
10B7
100
AcDbXrecord
280
     1
102
RTVSPost2010Prop28
280
     0
102
RTVSPost2010PropOp28
 70
     1
102
RTVSPost2010Prop29
280
     1
102
RTVSPost2010PropOp29
 70
     1
102
RTVSPost2010Prop30
280
     1
102
RTVSPost2010PropOp30
 70
     1
102
RTVSPost2010Prop31
280
     0
102
RTVSPost2010PropOp31
 70
     1
102
RTVSPost2010Prop32
280
     0
102
RTVSPost2010PropOp32
 70
     1
102
RTVSPost2010Prop33
280
     0
102
RTVSPost2010PropOp33
 70
     1
102
RTVSPost2010Prop34
280
     0
102
RTVSPost2010PropOp34
 70
     1
102
RTVSPost2010Prop35
280
     0
102
RTVSPost2010PropOp35
 70
     1
102
RTVSPost2010Prop36
280
     0
102
RTVSPost2010PropOp36
 70
     1
102
RTVSPost2010Prop37
 90
       50
102
RTVSPost2010PropOp37
 70
     1
102
RTVSPost2010Prop38
140
0.0
102
RTVSPost2010PropOp38
 70
     1
102
RTVSPost2010Prop39
140
1.0
102
RTVSPost2010PropOp39
 70
     1
102
RTVSPost2010Prop40
 90
        0
102
RTVSPost2010PropOp40
 70
     1
102
RTVSPost2010Prop41ColorIndex
 90
       18
102
RTVSPost2010Prop41ColorRGB
 90
        0
102
RTVSPost2010PropOp41
 70
     1
102
RTVSPost2010Prop42
 90
       50
102
RTVSPost2010PropOp42
 70
     1
102
RTVSPost2010Prop43
 90
        3
102
RTVSPost2010PropOp43
 70
     1
102
RTVSPost2010Prop44ColorIndex
 90
        5
102
RTVSPost2010Prop44ColorRGB
 90
      255
102
RTVSPost2010PropOp44
 70
     1
102
RTVSPost2010Prop45
280
     0
102
RTVSPost2010PropOp45
 70
     1
102
RTVSPost2010Prop46
 90
       50
102
RTVSPost2010PropOp46
 70
     1
102
RTVSPost2010Prop47
 90
       50
102
RTVSPost2010PropOp47
 70
     1
102
RTVSPost2010Prop48
 90
       50
102
RTVSPost2010PropOp48
 70
     1
102
RTVSPost2010Prop49
280
     0
102
RTVSPost2010PropOp49
 70
     1
102
RTVSPost2010Prop50
 90
       50
102
RTVSPost2010PropOp50
 70
     1
102
RTVSPost2010Prop51ColorIndex
 90
      256
102
RTVSPost2010Prop51ColorRGB
 90
-16777216
102
RTVSPost2010PropOp51
 70
     0
102
RTVSPost2010Prop52
140
1.0
102
RTVSPost2010PropOp52
 70
     0
102
RTVSPost2010Prop53
 90
        2
102
RTVSPost2010PropOp53
 70
     1
102
RTVSPost2010Prop54
  1
strokes_ogs.tif
102
RTVSPost2010PropOp54
 70
     1
102
RTVSPost2010Prop55
280
     0
102
RTVSPost2010PropOp55
 70
     1
102
RTVSPost2010Prop56
140
1.0
102
RTVSPost2010PropOp56
 70
     1
102
RTVSPost2010Prop57
140
1.0
102
RTVSPost2010PropOp57
 70
     1
102
RTVSPropertyOp0
 70
     1
102
RTVSPropertyOp1
 70
     1
102
RTVSPropertyOp2
 70
     1
102
RTVSPropertyOp3
 70
     1
102
RTVSPropertyOp4
 70
     1
102
RTVSPropertyOp5
 70
     1
102
RTVSPropertyOp6
 70
     1
102
RTVSPropertyOp7
 70
     1
102
RTVSPropertyOp8
 70
     1
102
RTVSPropertyOp9
 70
     1
102
RTVSPropertyOp10
 70
     1
102
RTVSPropertyOp11
 70
     1
102
RTVSPropertyOp12
 70
     1
102
RTVSPropertyOp13
 70
     1
102
RTVSPropertyOp14
 70
     1
102
RTVSPropertyOp15
 70
     1
102
RTVSPropertyOp16
 70
     1
102
RTVSPropertyOp17
 70
     1
102
RTVSPropertyOp18
 70
     1
102
RTVSPropertyOp19
 70
     1
102
RTVSPropertyOp20
 70
     1
102
RTVSPropertyOp21
 70
     1
102
RTVSPropertyOp22
 70
     1
102
RTVSPropertyOp23
 70
     1
102
RTVSPropertyOp24
 70
     1
102
RTVSPropertyOp25
 70
     1
102
RTVSPropertyOp26
 70
     1
102
RTVSPropertyOp27
 70
     1
102
RTVSPropertyOp28
 70
     1
102
RTVSPropertyOp29
 70
     1
102
RTVSPropertyOp30
 70
     1
102
RTVSPropertyOp31
 70
     1
102
RTVSPropertyOp32
 70
     1
102
RTVSPropertyOp33
 70
     1
102
RTVSPropertyOp34
 70
     1
102
RTVSPropertyOp35
 70
     1
102
RTVSPropertyOp36
 70
     1
102
RTVSPropertyOp37
 70
     1
102
RTVSPropertyOp38
 70
     1
102
RTVSPropertyOp39
 70
     1
102
RTVSPropertyOp40
 70
     1
102
RTVSPropertyOp41
 70
     1
102
RTVSPropertyOp42
 70
     1
102
RTVSPropertyOp43
 70
     1
102
RTVSPropertyOp44
 70
     1
102
RTVSPropertyOp45
 70
     1
102
RTVSPropertyOp46
 70
     1
102
RTVSPropertyOp47
 70
     1
102
RTVSPropertyOp48
 70
     1
102
RTVSPropertyOp49
 70
     1
102
RTVSPropertyOp50
 70
     1
102
RTVSPropertyOp51
 70
     0
102
RTVSPropertyOp52
 70
     0
102
RTVSPropertyOp53
 70
     1
102
RTVSPropertyOp54
 70
     1
102
RTVSPropertyOp55
 70
     1
102
RTVSPropertyOp56
 70
     1
102
RTVSPropertyOp57
 70
     1
102
RTVSPropertyOp58
 70
     1
102
RTVSPropertyOp59
 70
     1
102
RTVSPropertyOp60
 70
     1
102
RTVSPropertyOp61
 70
     1
102
RTVSPropertyOp62
 70
     1
  0
XRECORD
  5
10B6
102
{ACAD_REACTORS
330
10B5
102
}
330
10B5
100
AcDbXrecord
280
     1
102
RTVSPost2010Prop28
280
     0
102
RTVSPost2010PropOp28
 70
     1
102
RTVSPost2010Prop29
280
     1
102
RTVSPost2010PropOp29
 70
     1
102
RTVSPost2010Prop30
280
     1
102
RTVSPost2010PropOp30
 70
     1
102
RTVSPost2010Prop31
280
     0
102
RTVSPost2010PropOp31
 70
     1
102
RTVSPost2010Prop32
280
     0
102
RTVSPost2010PropOp32
 70
     1
102
RTVSPost2010Prop33
280
     0
102
RTVSPost2010PropOp33
 70
     1
102
RTVSPost2010Prop34
280
     0
102
RTVSPost2010PropOp34
 70
     1
102
RTVSPost2010Prop35
280
     0
102
RTVSPost2010PropOp35
 70
     1
102
RTVSPost2010Prop36
280
     0
102
RTVSPost2010PropOp36
 70
     1
102
RTVSPost2010Prop37
 90
       50
102
RTVSPost2010PropOp37
 70
     1
102
RTVSPost2010Prop38
140
0.0
102
RTVSPost2010PropOp38
 70
     1
102
RTVSPost2010Prop39
140
1.0
102
RTVSPost2010PropOp39
 70
     1
102
RTVSPost2010Prop40
 90
        0
102
RTVSPost2010PropOp40
 70
     1
102
RTVSPost2010Prop41ColorIndex
 90
       18
102
RTVSPost2010Prop41ColorRGB
 90
        0
102
RTVSPost2010PropOp41
 70
     1
102
RTVSPost2010Prop42
 90
       50
102
RTVSPost2010PropOp42
 70
     1
102
RTVSPost2010Prop43
 90
        3
102
RTVSPost2010PropOp43
 70
     1
102
RTVSPost2010Prop44ColorIndex
 90
        5
102
RTVSPost2010Prop44ColorRGB
 90
      255
102
RTVSPost2010PropOp44
 70
     1
102
RTVSPost2010Prop45
280
     0
102
RTVSPost2010PropOp45
 70
     1
102
RTVSPost2010Prop46
 90
       50
102
RTVSPost2010PropOp46
 70
     1
102
RTVSPost2010Prop47
 90
       50
102
RTVSPost2010PropOp47
 70
     1
102
RTVSPost2010Prop48
 90
       50
102
RTVSPost2010PropOp48
 70
     1
102
RTVSPost2010Prop49
280
     0
102
RTVSPost2010PropOp49
 70
     1
102
RTVSPost2010Prop50
 90
       50
102
RTVSPost2010PropOp50
 70
     1
102
RTVSPost2010Prop51ColorIndex
 90
      256
102
RTVSPost2010Prop51ColorRGB
 90
-16777216
102
RTVSPost2010PropOp51
 70
     0
102
RTVSPost2010Prop52
140
1.0
102
RTVSPost2010PropOp52
 70
     0
102
RTVSPost2010Prop53
 90
        2
102
RTVSPost2010PropOp53
 70
     1
102
RTVSPost2010Prop54
  1
strokes_ogs.tif
102
RTVSPost2010PropOp54
 70
     1
102
RTVSPost2010Prop55
280
     0
102
RTVSPost2010PropOp55
 70
     1
102
RTVSPost2010Prop56
140
1.0
102
RTVSPost2010PropOp56
 70
     1
102
RTVSPost2010Prop57
140
1.0
102
RTVSPost2010PropOp57
 70
     1
102
RTVSPropertyOp0
 70
     1
102
RTVSPropertyOp1
 70
     1
102
RTVSPropertyOp2
 70
     1
102
RTVSPropertyOp3
 70
     1
102
RTVSPropertyOp4
 70
     1
102
RTVSPropertyOp5
 70
     1
102
RTVSPropertyOp6
 70
     1
102
RTVSPropertyOp7
 70
     1
102
RTVSPropertyOp8
 70
     1
102
RTVSPropertyOp9
 70
     1
102
RTVSPropertyOp10
 70
     1
102
RTVSPropertyOp11
 70
     1
102
RTVSPropertyOp12
 70
     1
102
RTVSPropertyOp13
 70
     1
102
RTVSPropertyOp14
 70
     1
102
RTVSPropertyOp15
 70
     1
102
RTVSPropertyOp16
 70
     1
102
RTVSPropertyOp17
 70
     1
102
RTVSPropertyOp18
 70
     1
102
RTVSPropertyOp19
 70
     1
102
RTVSPropertyOp20
 70
     1
102
RTVSPropertyOp21
 70
     1
102
RTVSPropertyOp22
 70
     1
102
RTVSPropertyOp23
 70
     1
102
RTVSPropertyOp24
 70
     1
102
RTVSPropertyOp25
 70
     1
102
RTVSPropertyOp26
 70
     1
102
RTVSPropertyOp27
 70
     1
102
RTVSPropertyOp28
 70
     1
102
RTVSPropertyOp29
 70
     1
102
RTVSPropertyOp30
 70
     1
102
RTVSPropertyOp31
 70
     1
102
RTVSPropertyOp32
 70
     1
102
RTVSPropertyOp33
 70
     1
102
RTVSPropertyOp34
 70
     1
102
RTVSPropertyOp35
 70
     1
102
RTVSPropertyOp36
 70
     1
102
RTVSPropertyOp37
 70
     1
102
RTVSPropertyOp38
 70
     1
102
RTVSPropertyOp39
 70
     1
102
RTVSPropertyOp40
 70
     1
102
RTVSPropertyOp41
 70
     1
102
RTVSPropertyOp42
 70
     1
102
RTVSPropertyOp43
 70
     1
102
RTVSPropertyOp44
 70
     1
102
RTVSPropertyOp45
 70
     1
102
RTVSPropertyOp46
 70
     1
102
RTVSPropertyOp47
 70
     1
102
RTVSPropertyOp48
 70
     1
102
RTVSPropertyOp49
 70
     1
102
RTVSPropertyOp50
 70
     1
102
RTVSPropertyOp51
 70
     0
102
RTVSPropertyOp52
 70
     0
102
RTVSPropertyOp53
 70
     1
102
RTVSPropertyOp54
 70
     1
102
RTVSPropertyOp55
 70
     1
102
RTVSPropertyOp56
 70
     1
102
RTVSPropertyOp57
 70
     1
102
RTVSPropertyOp58
 70
     1
102
RTVSPropertyOp59
 70
     1
102
RTVSPropertyOp60
 70
     1
102
RTVSPropertyOp61
 70
     1
102
RTVSPropertyOp62
 70
     1
  0
XRECORD
  5
10B0
102
{ACAD_REACTORS
330
10AF
102
}
330
10AF
100
AcDbXrecord
280
     1
102
RTVSPost2010Prop28
280
     0
102
RTVSPost2010PropOp28
 70
     1
102
RTVSPost2010Prop29
280
     1
102
RTVSPost2010PropOp29
 70
     1
102
RTVSPost2010Prop30
280
     1
102
RTVSPost2010PropOp30
 70
     1
102
RTVSPost2010Prop31
280
     0
102
RTVSPost2010PropOp31
 70
     1
102
RTVSPost2010Prop32
280
     0
102
RTVSPost2010PropOp32
 70
     1
102
RTVSPost2010Prop33
280
     0
102
RTVSPost2010PropOp33
 70
     1
102
RTVSPost2010Prop34
280
     0
102
RTVSPost2010PropOp34
 70
     1
102
RTVSPost2010Prop35
280
     0
102
RTVSPost2010PropOp35
 70
     1
102
RTVSPost2010Prop36
280
     0
102
RTVSPost2010PropOp36
 70
     1
102
RTVSPost2010Prop37
 90
       50
102
RTVSPost2010PropOp37
 70
     1
102
RTVSPost2010Prop38
140
0.0
102
RTVSPost2010PropOp38
 70
     1
102
RTVSPost2010Prop39
140
1.0
102
RTVSPost2010PropOp39
 70
     1
102
RTVSPost2010Prop40
 90
        0
102
RTVSPost2010PropOp40
 70
     1
102
RTVSPost2010Prop41ColorIndex
 90
       18
102
RTVSPost2010Prop41ColorRGB
 90
        0
102
RTVSPost2010PropOp41
 70
     1
102
RTVSPost2010Prop42
 90
       50
102
RTVSPost2010PropOp42
 70
     1
102
RTVSPost2010Prop43
 90
        3
102
RTVSPost2010PropOp43
 70
     1
102
RTVSPost2010Prop44ColorIndex
 90
        5
102
RTVSPost2010Prop44ColorRGB
 90
      255
102
RTVSPost2010PropOp44
 70
     1
102
RTVSPost2010Prop45
280
     0
102
RTVSPost2010PropOp45
 70
     1
102
RTVSPost2010Prop46
 90
       50
102
RTVSPost2010PropOp46
 70
     1
102
RTVSPost2010Prop47
 90
       50
102
RTVSPost2010PropOp47
 70
     1
102
RTVSPost2010Prop48
 90
       50
102
RTVSPost2010PropOp48
 70
     1
102
RTVSPost2010Prop49
280
     0
102
RTVSPost2010PropOp49
 70
     1
102
RTVSPost2010Prop50
 90
       50
102
RTVSPost2010PropOp50
 70
     1
102
RTVSPost2010Prop51ColorIndex
 90
      256
102
RTVSPost2010Prop51ColorRGB
 90
-16777216
102
RTVSPost2010PropOp51
 70
     0
102
RTVSPost2010Prop52
140
1.0
102
RTVSPost2010PropOp52
 70
     0
102
RTVSPost2010Prop53
 90
        2
102
RTVSPost2010PropOp53
 70
     1
102
RTVSPost2010Prop54
  1
strokes_ogs.tif
102
RTVSPost2010PropOp54
 70
     1
102
RTVSPost2010Prop55
280
     0
102
RTVSPost2010PropOp55
 70
     1
102
RTVSPost2010Prop56
140
1.0
102
RTVSPost2010PropOp56
 70
     1
102
RTVSPost2010Prop57
140
1.0
102
RTVSPost2010PropOp57
 70
     1
102
RTVSPropertyOp0
 70
     1
102
RTVSPropertyOp1
 70
     1
102
RTVSPropertyOp2
 70
     1
102
RTVSPropertyOp3
 70
     1
102
RTVSPropertyOp4
 70
     1
102
RTVSPropertyOp5
 70
     1
102
RTVSPropertyOp6
 70
     1
102
RTVSPropertyOp7
 70
     1
102
RTVSPropertyOp8
 70
     1
102
RTVSPropertyOp9
 70
     1
102
RTVSPropertyOp10
 70
     1
102
RTVSPropertyOp11
 70
     1
102
RTVSPropertyOp12
 70
     1
102
RTVSPropertyOp13
 70
     1
102
RTVSPropertyOp14
 70
     1
102
RTVSPropertyOp15
 70
     1
102
RTVSPropertyOp16
 70
     1
102
RTVSPropertyOp17
 70
     1
102
RTVSPropertyOp18
 70
     1
102
RTVSPropertyOp19
 70
     1
102
RTVSPropertyOp20
 70
     1
102
RTVSPropertyOp21
 70
     1
102
RTVSPropertyOp22
 70
     1
102
RTVSPropertyOp23
 70
     1
102
RTVSPropertyOp24
 70
     1
102
RTVSPropertyOp25
 70
     1
102
RTVSPropertyOp26
 70
     1
102
RTVSPropertyOp27
 70
     1
102
RTVSPropertyOp28
 70
     1
102
RTVSPropertyOp29
 70
     1
102
RTVSPropertyOp30
 70
     1
102
RTVSPropertyOp31
 70
     1
102
RTVSPropertyOp32
 70
     1
102
RTVSPropertyOp33
 70
     1
102
RTVSPropertyOp34
 70
     1
102
RTVSPropertyOp35
 70
     1
102
RTVSPropertyOp36
 70
     1
102
RTVSPropertyOp37
 70
     1
102
RTVSPropertyOp38
 70
     1
102
RTVSPropertyOp39
 70
     1
102
RTVSPropertyOp40
 70
     1
102
RTVSPropertyOp41
 70
     1
102
RTVSPropertyOp42
 70
     1
102
RTVSPropertyOp43
 70
     1
102
RTVSPropertyOp44
 70
     1
102
RTVSPropertyOp45
 70
     1
102
RTVSPropertyOp46
 70
     1
102
RTVSPropertyOp47
 70
     1
102
RTVSPropertyOp48
 70
     1
102
RTVSPropertyOp49
 70
     1
102
RTVSPropertyOp50
 70
     1
102
RTVSPropertyOp51
 70
     0
102
RTVSPropertyOp52
 70
     0
102
RTVSPropertyOp53
 70
     1
102
RTVSPropertyOp54
 70
     1
102
RTVSPropertyOp55
 70
     1
102
RTVSPropertyOp56
 70
     1
102
RTVSPropertyOp57
 70
     1
102
RTVSPropertyOp58
 70
     1
102
RTVSPropertyOp59
 70
     1
102
RTVSPropertyOp60
 70
     1
102
RTVSPropertyOp61
 70
     1
102
RTVSPropertyOp62
 70
     1
  0
XRECORD
  5
10B2
102
{ACAD_REACTORS
330
10B1
102
}
330
10B1
100
AcDbXrecord
280
     1
102
RTVSPost2010Prop28
280
     0
102
RTVSPost2010PropOp28
 70
     1
102
RTVSPost2010Prop29
280
     1
102
RTVSPost2010PropOp29
 70
     1
102
RTVSPost2010Prop30
280
     1
102
RTVSPost2010PropOp30
 70
     1
102
RTVSPost2010Prop31
280
     0
102
RTVSPost2010PropOp31
 70
     1
102
RTVSPost2010Prop32
280
     0
102
RTVSPost2010PropOp32
 70
     1
102
RTVSPost2010Prop33
280
     0
102
RTVSPost2010PropOp33
 70
     1
102
RTVSPost2010Prop34
280
     0
102
RTVSPost2010PropOp34
 70
     1
102
RTVSPost2010Prop35
280
     0
102
RTVSPost2010PropOp35
 70
     1
102
RTVSPost2010Prop36
280
     0
102
RTVSPost2010PropOp36
 70
     1
102
RTVSPost2010Prop37
 90
       50
102
RTVSPost2010PropOp37
 70
     1
102
RTVSPost2010Prop38
140
0.0
102
RTVSPost2010PropOp38
 70
     1
102
RTVSPost2010Prop39
140
1.0
102
RTVSPost2010PropOp39
 70
     1
102
RTVSPost2010Prop40
 90
        0
102
RTVSPost2010PropOp40
 70
     1
102
RTVSPost2010Prop41ColorIndex
 90
       18
102
RTVSPost2010Prop41ColorRGB
 90
        0
102
RTVSPost2010PropOp41
 70
     1
102
RTVSPost2010Prop42
 90
       50
102
RTVSPost2010PropOp42
 70
     1
102
RTVSPost2010Prop43
 90
        3
102
RTVSPost2010PropOp43
 70
     1
102
RTVSPost2010Prop44ColorIndex
 90
        5
102
RTVSPost2010Prop44ColorRGB
 90
      255
102
RTVSPost2010PropOp44
 70
     1
102
RTVSPost2010Prop45
280
     0
102
RTVSPost2010PropOp45
 70
     1
102
RTVSPost2010Prop46
 90
       50
102
RTVSPost2010PropOp46
 70
     1
102
RTVSPost2010Prop47
 90
       50
102
RTVSPost2010PropOp47
 70
     1
102
RTVSPost2010Prop48
 90
       50
102
RTVSPost2010PropOp48
 70
     1
102
RTVSPost2010Prop49
280
     0
102
RTVSPost2010PropOp49
 70
     1
102
RTVSPost2010Prop50
 90
       50
102
RTVSPost2010PropOp50
 70
     1
102
RTVSPost2010Prop51ColorIndex
 90
      256
102
RTVSPost2010Prop51ColorRGB
 90
-16777216
102
RTVSPost2010PropOp51
 70
     0
102
RTVSPost2010Prop52
140
1.0
102
RTVSPost2010PropOp52
 70
     0
102
RTVSPost2010Prop53
 90
        2
102
RTVSPost2010PropOp53
 70
     1
102
RTVSPost2010Prop54
  1
strokes_ogs.tif
102
RTVSPost2010PropOp54
 70
     1
102
RTVSPost2010Prop55
280
     0
102
RTVSPost2010PropOp55
 70
     1
102
RTVSPost2010Prop56
140
1.0
102
RTVSPost2010PropOp56
 70
     1
102
RTVSPost2010Prop57
140
1.0
102
RTVSPost2010PropOp57
 70
     1
102
RTVSPropertyOp0
 70
     1
102
RTVSPropertyOp1
 70
     1
102
RTVSPropertyOp2
 70
     1
102
RTVSPropertyOp3
 70
     1
102
RTVSPropertyOp4
 70
     1
102
RTVSPropertyOp5
 70
     1
102
RTVSPropertyOp6
 70
     1
102
RTVSPropertyOp7
 70
     1
102
RTVSPropertyOp8
 70
     1
102
RTVSPropertyOp9
 70
     1
102
RTVSPropertyOp10
 70
     1
102
RTVSPropertyOp11
 70
     1
102
RTVSPropertyOp12
 70
     1
102
RTVSPropertyOp13
 70
     1
102
RTVSPropertyOp14
 70
     1
102
RTVSPropertyOp15
 70
     1
102
RTVSPropertyOp16
 70
     1
102
RTVSPropertyOp17
 70
     1
102
RTVSPropertyOp18
 70
     1
102
RTVSPropertyOp19
 70
     1
102
RTVSPropertyOp20
 70
     1
102
RTVSPropertyOp21
 70
     1
102
RTVSPropertyOp22
 70
     1
102
RTVSPropertyOp23
 70
     1
102
RTVSPropertyOp24
 70
     1
102
RTVSPropertyOp25
 70
     1
102
RTVSPropertyOp26
 70
     1
102
RTVSPropertyOp27
 70
     1
102
RTVSPropertyOp28
 70
     1
102
RTVSPropertyOp29
 70
     1
102
RTVSPropertyOp30
 70
     1
102
RTVSPropertyOp31
 70
     1
102
RTVSPropertyOp32
 70
     1
102
RTVSPropertyOp33
 70
     1
102
RTVSPropertyOp34
 70
     1
102
RTVSPropertyOp35
 70
     1
102
RTVSPropertyOp36
 70
     1
102
RTVSPropertyOp37
 70
     1
102
RTVSPropertyOp38
 70
     1
102
RTVSPropertyOp39
 70
     1
102
RTVSPropertyOp40
 70
     1
102
RTVSPropertyOp41
 70
     1
102
RTVSPropertyOp42
 70
     1
102
RTVSPropertyOp43
 70
     1
102
RTVSPropertyOp44
 70
     1
102
RTVSPropertyOp45
 70
     1
102
RTVSPropertyOp46
 70
     1
102
RTVSPropertyOp47
 70
     1
102
RTVSPropertyOp48
 70
     1
102
RTVSPropertyOp49
 70
     1
102
RTVSPropertyOp50
 70
     1
102
RTVSPropertyOp51
 70
     0
102
RTVSPropertyOp52
 70
     0
102
RTVSPropertyOp53
 70
     1
102
RTVSPropertyOp54
 70
     1
102
RTVSPropertyOp55
 70
     1
102
RTVSPropertyOp56
 70
     1
102
RTVSPropertyOp57
 70
     1
102
RTVSPropertyOp58
 70
     1
102
RTVSPropertyOp59
 70
     1
102
RTVSPropertyOp60
 70
     1
102
RTVSPropertyOp61
 70
     1
102
RTVSPropertyOp62
 70
     1
  0
XRECORD
  5
10A8
102
{ACAD_REACTORS
330
10A7
102
}
330
10A7
100
AcDbXrecord
280
     1
102
RTVSPost2010Prop28
280
     0
102
RTVSPost2010PropOp28
 70
     1
102
RTVSPost2010Prop29
280
     1
102
RTVSPost2010PropOp29
 70
     1
102
RTVSPost2010Prop30
280
     1
102
RTVSPost2010PropOp30
 70
     1
102
RTVSPost2010Prop31
280
     0
102
RTVSPost2010PropOp31
 70
     1
102
RTVSPost2010Prop32
280
     0
102
RTVSPost2010PropOp32
 70
     1
102
RTVSPost2010Prop33
280
     0
102
RTVSPost2010PropOp33
 70
     1
102
RTVSPost2010Prop34
280
     0
102
RTVSPost2010PropOp34
 70
     1
102
RTVSPost2010Prop35
280
     0
102
RTVSPost2010PropOp35
 70
     1
102
RTVSPost2010Prop36
280
     0
102
RTVSPost2010PropOp36
 70
     1
102
RTVSPost2010Prop37
 90
       50
102
RTVSPost2010PropOp37
 70
     1
102
RTVSPost2010Prop38
140
0.0
102
RTVSPost2010PropOp38
 70
     1
102
RTVSPost2010Prop39
140
1.0
102
RTVSPost2010PropOp39
 70
     1
102
RTVSPost2010Prop40
 90
        0
102
RTVSPost2010PropOp40
 70
     1
102
RTVSPost2010Prop41ColorIndex
 90
       18
102
RTVSPost2010Prop41ColorRGB
 90
        0
102
RTVSPost2010PropOp41
 70
     1
102
RTVSPost2010Prop42
 90
       50
102
RTVSPost2010PropOp42
 70
     1
102
RTVSPost2010Prop43
 90
        3
102
RTVSPost2010PropOp43
 70
     1
102
RTVSPost2010Prop44ColorIndex
 90
        5
102
RTVSPost2010Prop44ColorRGB
 90
      255
102
RTVSPost2010PropOp44
 70
     1
102
RTVSPost2010Prop45
280
     0
102
RTVSPost2010PropOp45
 70
     1
102
RTVSPost2010Prop46
 90
       50
102
RTVSPost2010PropOp46
 70
     1
102
RTVSPost2010Prop47
 90
       50
102
RTVSPost2010PropOp47
 70
     1
102
RTVSPost2010Prop48
 90
       50
102
RTVSPost2010PropOp48
 70
     1
102
RTVSPost2010Prop49
280
     0
102
RTVSPost2010PropOp49
 70
     1
102
RTVSPost2010Prop50
 90
       50
102
RTVSPost2010PropOp50
 70
     1
102
RTVSPost2010Prop51ColorIndex
 90
      256
102
RTVSPost2010Prop51ColorRGB
 90
-16777216
102
RTVSPost2010PropOp51
 70
     0
102
RTVSPost2010Prop52
140
1.0
102
RTVSPost2010PropOp52
 70
     0
102
RTVSPost2010Prop53
 90
        2
102
RTVSPost2010PropOp53
 70
     1
102
RTVSPost2010Prop54
  1
strokes_ogs.tif
102
RTVSPost2010PropOp54
 70
     1
102
RTVSPost2010Prop55
280
     0
102
RTVSPost2010PropOp55
 70
     1
102
RTVSPost2010Prop56
140
1.0
102
RTVSPost2010PropOp56
 70
     1
102
RTVSPost2010Prop57
140
1.0
102
RTVSPost2010PropOp57
 70
     1
102
RTVSPropertyOp0
 70
     1
102
RTVSPropertyOp1
 70
     1
102
RTVSPropertyOp2
 70
     1
102
RTVSPropertyOp3
 70
     1
102
RTVSPropertyOp4
 70
     1
102
RTVSPropertyOp5
 70
     1
102
RTVSPropertyOp6
 70
     1
102
RTVSPropertyOp7
 70
     1
102
RTVSPropertyOp8
 70
     1
102
RTVSPropertyOp9
 70
     1
102
RTVSPropertyOp10
 70
     1
102
RTVSPropertyOp11
 70
     1
102
RTVSPropertyOp12
 70
     1
102
RTVSPropertyOp13
 70
     1
102
RTVSPropertyOp14
 70
     1
102
RTVSPropertyOp15
 70
     1
102
RTVSPropertyOp16
 70
     1
102
RTVSPropertyOp17
 70
     1
102
RTVSPropertyOp18
 70
     1
102
RTVSPropertyOp19
 70
     1
102
RTVSPropertyOp20
 70
     1
102
RTVSPropertyOp21
 70
     1
102
RTVSPropertyOp22
 70
     1
102
RTVSPropertyOp23
 70
     1
102
RTVSPropertyOp24
 70
     1
102
RTVSPropertyOp25
 70
     1
102
RTVSPropertyOp26
 70
     1
102
RTVSPropertyOp27
 70
     1
102
RTVSPropertyOp28
 70
     1
102
RTVSPropertyOp29
 70
     1
102
RTVSPropertyOp30
 70
     1
102
RTVSPropertyOp31
 70
     1
102
RTVSPropertyOp32
 70
     1
102
RTVSPropertyOp33
 70
     1
102
RTVSPropertyOp34
 70
     1
102
RTVSPropertyOp35
 70
     1
102
RTVSPropertyOp36
 70
     1
102
RTVSPropertyOp37
 70
     1
102
RTVSPropertyOp38
 70
     1
102
RTVSPropertyOp39
 70
     1
102
RTVSPropertyOp40
 70
     1
102
RTVSPropertyOp41
 70
     1
102
RTVSPropertyOp42
 70
     1
102
RTVSPropertyOp43
 70
     1
102
RTVSPropertyOp44
 70
     1
102
RTVSPropertyOp45
 70
     1
102
RTVSPropertyOp46
 70
     1
102
RTVSPropertyOp47
 70
     1
102
RTVSPropertyOp48
 70
     1
102
RTVSPropertyOp49
 70
     1
102
RTVSPropertyOp50
 70
     1
102
RTVSPropertyOp51
 70
     0
102
RTVSPropertyOp52
 70
     0
102
RTVSPropertyOp53
 70
     1
102
RTVSPropertyOp54
 70
     1
102
RTVSPropertyOp55
 70
     1
102
RTVSPropertyOp56
 70
     1
102
RTVSPropertyOp57
 70
     1
102
RTVSPropertyOp58
 70
     1
102
RTVSPropertyOp59
 70
     1
102
RTVSPropertyOp60
 70
     1
102
RTVSPropertyOp61
 70
     1
102
RTVSPropertyOp62
 70
     1
  0
XRECORD
  5
109C
102
{ACAD_REACTORS
330
109B
102
}
330
109B
100
AcDbXrecord
280
     1
102
RTVSPost2010Prop28
280
     0
102
RTVSPost2010PropOp28
 70
     1
102
RTVSPost2010Prop29
280
     1
102
RTVSPost2010PropOp29
 70
     1
102
RTVSPost2010Prop30
280
     1
102
RTVSPost2010PropOp30
 70
     1
102
RTVSPost2010Prop31
280
     0
102
RTVSPost2010PropOp31
 70
     1
102
RTVSPost2010Prop32
280
     0
102
RTVSPost2010PropOp32
 70
     1
102
RTVSPost2010Prop33
280
     0
102
RTVSPost2010PropOp33
 70
     1
102
RTVSPost2010Prop34
280
     0
102
RTVSPost2010PropOp34
 70
     1
102
RTVSPost2010Prop35
280
     0
102
RTVSPost2010PropOp35
 70
     1
102
RTVSPost2010Prop36
280
     0
102
RTVSPost2010PropOp36
 70
     1
102
RTVSPost2010Prop37
 90
       50
102
RTVSPost2010PropOp37
 70
     1
102
RTVSPost2010Prop38
140
0.0
102
RTVSPost2010PropOp38
 70
     1
102
RTVSPost2010Prop39
140
1.0
102
RTVSPost2010PropOp39
 70
     1
102
RTVSPost2010Prop40
 90
        0
102
RTVSPost2010PropOp40
 70
     1
102
RTVSPost2010Prop41ColorIndex
 90
       18
102
RTVSPost2010Prop41ColorRGB
 90
        0
102
RTVSPost2010PropOp41
 70
     1
102
RTVSPost2010Prop42
 90
       50
102
RTVSPost2010PropOp42
 70
     1
102
RTVSPost2010Prop43
 90
        3
102
RTVSPost2010PropOp43
 70
     1
102
RTVSPost2010Prop44ColorIndex
 90
        5
102
RTVSPost2010Prop44ColorRGB
 90
      255
102
RTVSPost2010PropOp44
 70
     1
102
RTVSPost2010Prop45
280
     0
102
RTVSPost2010PropOp45
 70
     1
102
RTVSPost2010Prop46
 90
       50
102
RTVSPost2010PropOp46
 70
     1
102
RTVSPost2010Prop47
 90
       50
102
RTVSPost2010PropOp47
 70
     1
102
RTVSPost2010Prop48
 90
       50
102
RTVSPost2010PropOp48
 70
     1
102
RTVSPost2010Prop49
280
     0
102
RTVSPost2010PropOp49
 70
     1
102
RTVSPost2010Prop50
 90
       50
102
RTVSPost2010PropOp50
 70
     1
102
RTVSPost2010Prop51ColorIndex
 90
      256
102
RTVSPost2010Prop51ColorRGB
 90
-16777216
102
RTVSPost2010PropOp51
 70
     0
102
RTVSPost2010Prop52
140
1.0
102
RTVSPost2010PropOp52
 70
     0
102
RTVSPost2010Prop53
 90
        2
102
RTVSPost2010PropOp53
 70
     1
102
RTVSPost2010Prop54
  1
strokes_ogs.tif
102
RTVSPost2010PropOp54
 70
     1
102
RTVSPost2010Prop55
280
     0
102
RTVSPost2010PropOp55
 70
     1
102
RTVSPost2010Prop56
140
1.0
102
RTVSPost2010PropOp56
 70
     1
102
RTVSPost2010Prop57
140
1.0
102
RTVSPost2010PropOp57
 70
     1
102
RTVSPropertyOp0
 70
     1
102
RTVSPropertyOp1
 70
     1
102
RTVSPropertyOp2
 70
     1
102
RTVSPropertyOp3
 70
     1
102
RTVSPropertyOp4
 70
     1
102
RTVSPropertyOp5
 70
     1
102
RTVSPropertyOp6
 70
     1
102
RTVSPropertyOp7
 70
     1
102
RTVSPropertyOp8
 70
     1
102
RTVSPropertyOp9
 70
     1
102
RTVSPropertyOp10
 70
     1
102
RTVSPropertyOp11
 70
     1
102
RTVSPropertyOp12
 70
     1
102
RTVSPropertyOp13
 70
     1
102
RTVSPropertyOp14
 70
     1
102
RTVSPropertyOp15
 70
     1
102
RTVSPropertyOp16
 70
     1
102
RTVSPropertyOp17
 70
     1
102
RTVSPropertyOp18
 70
     1
102
RTVSPropertyOp19
 70
     1
102
RTVSPropertyOp20
 70
     1
102
RTVSPropertyOp21
 70
     1
102
RTVSPropertyOp22
 70
     1
102
RTVSPropertyOp23
 70
     1
102
RTVSPropertyOp24
 70
     1
102
RTVSPropertyOp25
 70
     1
102
RTVSPropertyOp26
 70
     1
102
RTVSPropertyOp27
 70
     1
102
RTVSPropertyOp28
 70
     1
102
RTVSPropertyOp29
 70
     1
102
RTVSPropertyOp30
 70
     1
102
RTVSPropertyOp31
 70
     1
102
RTVSPropertyOp32
 70
     1
102
RTVSPropertyOp33
 70
     1
102
RTVSPropertyOp34
 70
     1
102
RTVSPropertyOp35
 70
     1
102
RTVSPropertyOp36
 70
     1
102
RTVSPropertyOp37
 70
     1
102
RTVSPropertyOp38
 70
     1
102
RTVSPropertyOp39
 70
     1
102
RTVSPropertyOp40
 70
     1
102
RTVSPropertyOp41
 70
     1
102
RTVSPropertyOp42
 70
     1
102
RTVSPropertyOp43
 70
     1
102
RTVSPropertyOp44
 70
     1
102
RTVSPropertyOp45
 70
     1
102
RTVSPropertyOp46
 70
     1
102
RTVSPropertyOp47
 70
     1
102
RTVSPropertyOp48
 70
     1
102
RTVSPropertyOp49
 70
     1
102
RTVSPropertyOp50
 70
     1
102
RTVSPropertyOp51
 70
     0
102
RTVSPropertyOp52
 70
     0
102
RTVSPropertyOp53
 70
     1
102
RTVSPropertyOp54
 70
     1
102
RTVSPropertyOp55
 70
     1
102
RTVSPropertyOp56
 70
     1
102
RTVSPropertyOp57
 70
     1
102
RTVSPropertyOp58
 70
     1
102
RTVSPropertyOp59
 70
     1
102
RTVSPropertyOp60
 70
     1
102
RTVSPropertyOp61
 70
     1
102
RTVSPropertyOp62
 70
     1
  0
XRECORD
  5
10B4
102
{ACAD_REACTORS
330
10B3
102
}
330
10B3
100
AcDbXrecord
280
     1
102
RTVSPost2010Prop28
280
     0
102
RTVSPost2010PropOp28
 70
     1
102
RTVSPost2010Prop29
280
     1
102
RTVSPost2010PropOp29
 70
     1
102
RTVSPost2010Prop30
280
     1
102
RTVSPost2010PropOp30
 70
     1
102
RTVSPost2010Prop31
280
     0
102
RTVSPost2010PropOp31
 70
     1
102
RTVSPost2010Prop32
280
     0
102
RTVSPost2010PropOp32
 70
     1
102
RTVSPost2010Prop33
280
     0
102
RTVSPost2010PropOp33
 70
     1
102
RTVSPost2010Prop34
280
     0
102
RTVSPost2010PropOp34
 70
     1
102
RTVSPost2010Prop35
280
     0
102
RTVSPost2010PropOp35
 70
     1
102
RTVSPost2010Prop36
280
     0
102
RTVSPost2010PropOp36
 70
     1
102
RTVSPost2010Prop37
 90
       50
102
RTVSPost2010PropOp37
 70
     1
102
RTVSPost2010Prop38
140
0.0
102
RTVSPost2010PropOp38
 70
     1
102
RTVSPost2010Prop39
140
1.0
102
RTVSPost2010PropOp39
 70
     1
102
RTVSPost2010Prop40
 90
        0
102
RTVSPost2010PropOp40
 70
     1
102
RTVSPost2010Prop41ColorIndex
 90
       18
102
RTVSPost2010Prop41ColorRGB
 90
        0
102
RTVSPost2010PropOp41
 70
     1
102
RTVSPost2010Prop42
 90
       50
102
RTVSPost2010PropOp42
 70
     1
102
RTVSPost2010Prop43
 90
        3
102
RTVSPost2010PropOp43
 70
     1
102
RTVSPost2010Prop44ColorIndex
 90
        5
102
RTVSPost2010Prop44ColorRGB
 90
      255
102
RTVSPost2010PropOp44
 70
     1
102
RTVSPost2010Prop45
280
     0
102
RTVSPost2010PropOp45
 70
     1
102
RTVSPost2010Prop46
 90
       50
102
RTVSPost2010PropOp46
 70
     1
102
RTVSPost2010Prop47
 90
       50
102
RTVSPost2010PropOp47
 70
     1
102
RTVSPost2010Prop48
 90
       50
102
RTVSPost2010PropOp48
 70
     1
102
RTVSPost2010Prop49
280
     0
102
RTVSPost2010PropOp49
 70
     1
102
RTVSPost2010Prop50
 90
       50
102
RTVSPost2010PropOp50
 70
     1
102
RTVSPost2010Prop51ColorIndex
 90
      256
102
RTVSPost2010Prop51ColorRGB
 90
-16777216
102
RTVSPost2010PropOp51
 70
     0
102
RTVSPost2010Prop52
140
1.0
102
RTVSPost2010PropOp52
 70
     0
102
RTVSPost2010Prop53
 90
        2
102
RTVSPost2010PropOp53
 70
     1
102
RTVSPost2010Prop54
  1
strokes_ogs.tif
102
RTVSPost2010PropOp54
 70
     1
102
RTVSPost2010Prop55
280
     0
102
RTVSPost2010PropOp55
 70
     1
102
RTVSPost2010Prop56
140
1.0
102
RTVSPost2010PropOp56
 70
     1
102
RTVSPost2010Prop57
140
1.0
102
RTVSPost2010PropOp57
 70
     1
102
RTVSPropertyOp0
 70
     1
102
RTVSPropertyOp1
 70
     1
102
RTVSPropertyOp2
 70
     1
102
RTVSPropertyOp3
 70
     1
102
RTVSPropertyOp4
 70
     1
102
RTVSPropertyOp5
 70
     1
102
RTVSPropertyOp6
 70
     1
102
RTVSPropertyOp7
 70
     1
102
RTVSPropertyOp8
 70
     1
102
RTVSPropertyOp9
 70
     1
102
RTVSPropertyOp10
 70
     1
102
RTVSPropertyOp11
 70
     1
102
RTVSPropertyOp12
 70
     1
102
RTVSPropertyOp13
 70
     1
102
RTVSPropertyOp14
 70
     1
102
RTVSPropertyOp15
 70
     1
102
RTVSPropertyOp16
 70
     1
102
RTVSPropertyOp17
 70
     1
102
RTVSPropertyOp18
 70
     1
102
RTVSPropertyOp19
 70
     1
102
RTVSPropertyOp20
 70
     1
102
RTVSPropertyOp21
 70
     1
102
RTVSPropertyOp22
 70
     1
102
RTVSPropertyOp23
 70
     1
102
RTVSPropertyOp24
 70
     1
102
RTVSPropertyOp25
 70
     1
102
RTVSPropertyOp26
 70
     1
102
RTVSPropertyOp27
 70
     1
102
RTVSPropertyOp28
 70
     1
102
RTVSPropertyOp29
 70
     1
102
RTVSPropertyOp30
 70
     1
102
RTVSPropertyOp31
 70
     1
102
RTVSPropertyOp32
 70
     1
102
RTVSPropertyOp33
 70
     1
102
RTVSPropertyOp34
 70
     1
102
RTVSPropertyOp35
 70
     1
102
RTVSPropertyOp36
 70
     1
102
RTVSPropertyOp37
 70
     1
102
RTVSPropertyOp38
 70
     1
102
RTVSPropertyOp39
 70
     1
102
RTVSPropertyOp40
 70
     1
102
RTVSPropertyOp41
 70
     1
102
RTVSPropertyOp42
 70
     1
102
RTVSPropertyOp43
 70
     1
102
RTVSPropertyOp44
 70
     1
102
RTVSPropertyOp45
 70
     1
102
RTVSPropertyOp46
 70
     1
102
RTVSPropertyOp47
 70
     1
102
RTVSPropertyOp48
 70
     1
102
RTVSPropertyOp49
 70
     1
102
RTVSPropertyOp50
 70
     1
102
RTVSPropertyOp51
 70
     0
102
RTVSPropertyOp52
 70
     0
102
RTVSPropertyOp53
 70
     1
102
RTVSPropertyOp54
 70
     1
102
RTVSPropertyOp55
 70
     1
102
RTVSPropertyOp56
 70
     1
102
RTVSPropertyOp57
 70
     1
102
RTVSPropertyOp58
 70
     1
102
RTVSPropertyOp59
 70
     1
102
RTVSPropertyOp60
 70
     1
102
RTVSPropertyOp61
 70
     1
102
RTVSPropertyOp62
 70
     1
  0
ENDSEC
  0
EOF
