  0
SECTION
  2
HEADER
  9
$ACADVER
  1
AC1015
  9
$ACADMAINTVER
 70
    20
  9
$DWGCODEPAGE
  3
ANSI_932
  9
$INSBASE
 10
0.0
 20
0.0
 30
0.0
  9
$EXTMIN
 10
423.2754917933294
 20
175.8466978605972
 30
0.0
  9
$EXTMAX
 10
1265.270491793327
 20
771.1966978605974
 30
0.0000000000000001
  9
$LIMMIN
 10
0.0
 20
0.0
  9
$LIMMAX
 10
0.0
 20
0.0
  9
$ORTHOMODE
 70
     1
  9
$REGENMODE
 70
     1
  9
$FILLMODE
 70
     1
  9
$QTEXTMODE
 70
     0
  9
$MIRRTEXT
 70
     1
  9
$LTSCALE
 40
1.0
  9
$ATTMODE
 70
     1
  9
$TEXTSIZE
 40
0.35
  9
$TRACEWID
 40
0.05
  9
$TEXTSTYLE
  7
STANDARD
  9
$CLAYER
  8
0
  9
$CELTYPE
  6
CONTINUOUS
  9
$CECOLOR
 62
   256
  9
$CELTSCALE
 40
1.0
  9
$DISPSILH
 70
     0
  9
$DIMSCALE
 40
1.0
  9
$DIMASZ
 40
3.0
  9
$DIMEXO
 40
1.0
  9
$DIMDLI
 40
0.38
  9
$DIMRND
 40
0.0
  9
$DIMDLE
 40
0.0
  9
$DIMEXE
 40
0.5
  9
$DIMTP
 40
0.0
  9
$DIMTM
 40
0.0
  9
$DIMTXT
 40
3.527777777777777
  9
$DIMCEN
 40
0.09
  9
$DIMTSZ
 40
0.0
  9
$DIMTOL
 70
     0
  9
$DIMLIM
 70
     0
  9
$DIMTIH
 70
     0
  9
$DIMTOH
 70
     0
  9
$DIMSE1
 70
     0
  9
$DIMSE2
 70
     0
  9
$DIMTAD
 70
     1
  9
$DIMZIN
 70
     0
  9
$DIMBLK
  1

  9
$DIMASO
 70
     1
  9
$DIMSHO
 70
     1
  9
$DIMPOST
  1

  9
$DIMAPOST
  1

  9
$DIMALT
 70
     0
  9
$DIMALTD
 70
     3
  9
$DIMALTF
 40
25.4
  9
$DIMLFAC
 40
1.0
  9
$DIMTOFL
 70
     0
  9
$DIMTVP
 40
0.0
  9
$DIMTIX
 70
     0
  9
$DIMSOXD
 70
     0
  9
$DIMSAH
 70
     0
  9
$DIMBLK1
  1

  9
$DIMBLK2
  1

  9
$DIMSTYLE
  2
Standard
  9
$DIMCLRD
 70
     0
  9
$DIMCLRE
 70
     0
  9
$DIMCLRT
 70
     0
  9
$DIMTFAC
 40
1.0
  9
$DIMGAP
 40
0.09
  9
$DIMJUST
 70
     0
  9
$DIMSD1
 70
     0
  9
$DIMSD2
 70
     0
  9
$DIMTOLJ
 70
     1
  9
$DIMTZIN
 70
     0
  9
$DIMALTZ
 70
     0
  9
$DIMALTTZ
 70
     0
  9
$DIMUPT
 70
     0
  9
$DIMDEC
 70
     4
  9
$DIMTDEC
 70
     4
  9
$DIMALTU
 70
     2
  9
$DIMALTTD
 70
     2
  9
$DIMTXSTY
  7
STANDARD
  9
$DIMAUNIT
 70
     0
  9
$DIMADEC
 70
     0
  9
$DIMALTRND
 40
0.0
  9
$DIMAZIN
 70
     0
  9
$DIMDSEP
 70
    46
  9
$DIMATFIT
 70
     3
  9
$DIMFRAC
 70
     0
  9
$DIMLDRBLK
  1

  9
$DIMLUNIT
 70
     2
  9
$DIMLWD
 70
    -2
  9
$DIMLWE
 70
    -2
  9
$DIMTMOVE
 70
     0
  9
$LUNITS
 70
     2
  9
$LUPREC
 70
     4
  9
$SKETCHINC
 40
0.1
  9
$FILLETRAD
 40
0.0
  9
$AUNITS
 70
     0
  9
$AUPREC
 70
     0
  9
$MENU
  1
acad
  9
$ELEVATION
 40
0.0
  9
$PELEVATION
 40
0.0
  9
$THICKNESS
 40
0.0
  9
$LIMCHECK
 70
     0
  9
$CHAMFERA
 40
0.0
  9
$CHAMFERB
 40
0.0
  9
$CHAMFERC
 40
0.0
  9
$CHAMFERD
 40
0.0
  9
$SKPOLY
 70
     0
  9
$TDCREATE
 40
2455539.456701389
  9
$TDUCREATE
 40
2455539.081701389
  9
$TDUPDATE
 40
2458918.465426030
  9
$TDUUPDATE
 40
2458918.090426030
  9
$TDINDWG
 40
0.0157128819
  9
$TDUSRTIMER
 40
0.0157123380
  9
$USRTIMER
 70
     1
  9
$ANGBASE
 50
0.0
  9
$ANGDIR
 70
     0
  9
$PDMODE
 70
     0
  9
$PDSIZE
 40
0.0
  9
$PLINEWID
 40
0.0
  9
$SPLFRAME
 70
     0
  9
$SPLINETYPE
 70
     6
  9
$SPLINESEGS
 70
     8
  9
$HANDSEED
  5
D2E
  9
$SURFTAB1
 70
     6
  9
$SURFTAB2
 70
     6
  9
$SURFTYPE
 70
     6
  9
$SURFU
 70
     6
  9
$SURFV
 70
     6
  9
$UCSBASE
  2

  9
$UCSNAME
  2

  9
$UCSORG
 10
0.0
 20
0.0
 30
0.0
  9
$UCSXDIR
 10
1.0
 20
0.0
 30
0.0
  9
$UCSYDIR
 10
0.0
 20
1.0
 30
0.0
  9
$UCSORTHOREF
  2

  9
$UCSORTHOVIEW
 70
     0
  9
$UCSORGTOP
 10
0.0
 20
0.0
 30
0.0
  9
$UCSORGBOTTOM
 10
0.0
 20
0.0
 30
0.0
  9
$UCSORGLEFT
 10
0.0
 20
0.0
 30
0.0
  9
$UCSORGRIGHT
 10
0.0
 20
0.0
 30
0.0
  9
$UCSORGFRONT
 10
0.0
 20
0.0
 30
0.0
  9
$UCSORGBACK
 10
0.0
 20
0.0
 30
0.0
  9
$PUCSBASE
  2

  9
$PUCSNAME
  2

  9
$PUCSORG
 10
0.0
 20
0.0
 30
0.0
  9
$PUCSXDIR
 10
1.0
 20
0.0
 30
0.0
  9
$PUCSYDIR
 10
0.0
 20
1.0
 30
0.0
  9
$PUCSORTHOREF
  2

  9
$PUCSORTHOVIEW
 70
     0
  9
$PUCSORGTOP
 10
0.0
 20
0.0
 30
0.0
  9
$PUCSORGBOTTOM
 10
0.0
 20
0.0
 30
0.0
  9
$PUCSORGLEFT
 10
0.0
 20
0.0
 30
0.0
  9
$PUCSORGRIGHT
 10
0.0
 20
0.0
 30
0.0
  9
$PUCSORGFRONT
 10
0.0
 20
0.0
 30
0.0
  9
$PUCSORGBACK
 10
0.0
 20
0.0
 30
0.0
  9
$USERI1
 70
     0
  9
$USERI2
 70
     0
  9
$USERI3
 70
     0
  9
$USERI4
 70
     0
  9
$USERI5
 70
     0
  9
$USERR1
 40
0.0
  9
$USERR2
 40
0.0
  9
$USERR3
 40
0.0
  9
$USERR4
 40
0.0
  9
$USERR5
 40
0.0
  9
$WORLDVIEW
 70
     1
  9
$SHADEDGE
 70
     3
  9
$SHADEDIF
 70
    70
  9
$TILEMODE
 70
     1
  9
$MAXACTVP
 70
    64
  9
$PINSBASE
 10
0.0
 20
0.0
 30
0.0
  9
$PLIMCHECK
 70
     0
  9
$PEXTMIN
 10
1.000000000000000E+20
 20
1.000000000000000E+20
 30
1.000000000000000E+20
  9
$PEXTMAX
 10
-1.000000000000000E+20
 20
-1.000000000000000E+20
 30
-1.000000000000000E+20
  9
$PLIMMIN
 10
0.0
 20
0.0
  9
$PLIMMAX
 10
12.0
 20
9.0
  9
$UNITMODE
 70
     0
  9
$VISRETAIN
 70
     1
  9
$PLINEGEN
 70
     0
  9
$PSLTSCALE
 70
     1
  9
$TREEDEPTH
 70
  3020
  9
$CMLSTYLE
  2
Standard
  9
$CMLJUST
 70
     0
  9
$CMLSCALE
 40
1.0
  9
$PROXYGRAPHICS
 70
     1
  9
$MEASUREMENT
 70
     0
  9
$CELWEIGHT
370
    -1
  9
$ENDCAPS
280
     0
  9
$JOINSTYLE
280
     0
  9
$LWDISPLAY
290
     0
  9
$INSUNITS
 70
     0
  9
$HYPERLINKBASE
  1

  9
$STYLESHEET
  1
monochrome.ctb
  9
$XEDIT
290
     1
  9
$CEPSNTYPE
380
     0
  9
$PSTYLEMODE
290
     1
  9
$FINGERPRINTGUID
  2
{8E0A4C3F-F411-4890-BF2A-9DE5487F87AD}
  9
$VERSIONGUID
  2
{ACBDD1F5-3E37-485D-A394-9B10B386EBD2}
  9
$EXTNAMES
290
     1
  9
$PSVPSCALE
 40
0.0
  9
$OLESTARTUP
290
     0
  0
ENDSEC
  0
SECTION
  2
CLASSES
  0
CLASS
  1
ACDBDICTIONARYWDFLT
  2
AcDbDictionaryWithDefault
  3
ObjectDBX Classes
 90
        0
280
     0
281
     0
  0
CLASS
  1
MATERIAL
  2
AcDbMaterial
  3
ObjectDBX Classes
 90
     1153
280
     0
281
     0
  0
CLASS
  1
VISUALSTYLE
  2
AcDbVisualStyle
  3
ObjectDBX Classes
 90
     4095
280
     0
281
     0
  0
CLASS
  1
TABLESTYLE
  2
AcDbTableStyle
  3
ObjectDBX Classes
 90
     4095
280
     0
281
     0
  0
CLASS
  1
SCALE
  2
AcDbScale
  3
ObjectDBX Classes
 90
     1153
280
     0
281
     0
  0
CLASS
  1
MLEADERSTYLE
  2
AcDbMLeaderStyle
  3
ACDB_MLEADERSTYLE_CLASS
 90
     4095
280
     0
281
     0
  0
CLASS
  1
ACDBSECTIONVIEWSTYLE
  2
AcDbSectionViewStyle
  3
ObjectDBX Classes
 90
     1025
280
     0
281
     0
  0
CLASS
  1
ACDBDETAILVIEWSTYLE
  2
AcDbDetailViewStyle
  3
ObjectDBX Classes
 90
     1025
280
     0
281
     0
  0
CLASS
  1
SORTENTSTABLE
  2
AcDbSortentsTable
  3
ObjectDBX Classes
 90
    32768
280
     0
281
     0
  0
CLASS
  1
DICTIONARYVAR
  2
AcDbDictionaryVar
  3
ObjectDBX Classes
 90
        0
280
     0
281
     0
  0
CLASS
  1
CELLSTYLEMAP
  2
AcDbCellStyleMap
  3
ObjectDBX Classes
 90
     1152
280
     0
281
     0
  0
CLASS
  1
ACDBPLACEHOLDER
  2
AcDbPlaceHolder
  3
ObjectDBX Classes
 90
        0
280
     0
281
     0
  0
CLASS
  1
LAYOUT
  2
AcDbLayout
  3
ObjectDBX Classes
 90
        0
280
     0
281
     0
  0
ENDSEC
  0
SECTION
  2
TABLES
  0
TABLE
  2
VPORT
  5
2EE
330
0
100
AcDbSymbolTable
 70
     1
  0
VPORT
  5
BB4
330
2EE
100
AcDbSymbolTableRecord
100
AcDbViewportTableRecord
  2
*Active
 70
     0
 10
0.0
 20
0.0
 11
1.0
 21
1.0
 12
1146.427661007272
 22
175.5837783810998
 13
0.0
 23
0.0
 14
1.0
 24
1.0
 15
0.0
 25
0.0
 16
0.0
 26
0.0
 36
1.0
 17
0.0
 27
0.0
 37
0.0
 40
166.8675226746444
 41
2.671554252199413
 42
50.0
 43
0.0
 44
0.0
 50
0.0
 51
0.0
 71
     0
 72
   100
 73
     1
 74
     1
 75
     0
 76
     0
 77
     0
 78
     0
281
     0
 65
     1
110
0.0
120
0.0
130
0.0
111
1.0
121
0.0
131
0.0
112
0.0
122
1.0
132
0.0
 79
     0
146
0.0
1001
ACAD_NAV_VCDISPLAY
1070
     3
  0
ENDTAB
  0
TABLE
  2
LTYPE
  5
2EB
330
0
100
AcDbSymbolTable
 70
    11
  0
LTYPE
  5
2F9
330
2EB
100
AcDbSymbolTableRecord
100
AcDbLinetypeTableRecord
  2
ByBlock
 70
     0
  3

 72
    65
 73
     0
 40
0.0
  0
LTYPE
  5
2FA
330
2EB
100
AcDbSymbolTableRecord
100
AcDbLinetypeTableRecord
  2
ByLayer
 70
     0
  3

 72
    65
 73
     0
 40
0.0
  0
LTYPE
  5
2FB
330
2EB
100
AcDbSymbolTableRecord
100
AcDbLinetypeTableRecord
  2
CONTINUOUS
 70
     0
  3
Solid line
 72
    65
 73
     0
 40
0.0
  0
LTYPE
  5
30B
330
2EB
100
AcDbSymbolTableRecord
100
AcDbLinetypeTableRecord
  2
DOT
 70
     0
  3

 72
    65
 73
     2
 40
1.0
 49
0.0
 74
     0
 49
-1.0
 74
     0
  0
LTYPE
  5
30C
330
2EB
100
AcDbSymbolTableRecord
100
AcDbLinetypeTableRecord
  2
DASHEDX2
 70
     0
  3

 72
    65
 73
     2
 40
4.0
 49
3.0
 74
     0
 49
-1.0
 74
     0
  0
LTYPE
  5
30D
330
2EB
100
AcDbSymbolTableRecord
100
AcDbLinetypeTableRecord
  2
DASHED
 70
     0
  3

 72
    65
 73
     2
 40
3.0
 49
2.0
 74
     0
 49
-1.0
 74
     0
  0
LTYPE
  5
30E
330
2EB
100
AcDbSymbolTableRecord
100
AcDbLinetypeTableRecord
  2
DASHED2
 70
     0
  3

 72
    65
 73
     2
 40
2.0
 49
1.0
 74
     0
 49
-1.0
 74
     0
  0
LTYPE
  5
30F
330
2EB
100
AcDbSymbolTableRecord
100
AcDbLinetypeTableRecord
  2
CENTERX2
 70
     0
  3

 72
    65
 73
     4
 40
43.0
 49
40.0
 74
     0
 49
-1.0
 74
     0
 49
1.0
 74
     0
 49
-1.0
 74
     0
  0
LTYPE
  5
310
330
2EB
100
AcDbSymbolTableRecord
100
AcDbLinetypeTableRecord
  2
CENTER
 70
     0
  3

 72
    65
 73
     4
 40
33.0
 49
30.0
 74
     0
 49
-1.0
 74
     0
 49
1.0
 74
     0
 49
-1.0
 74
     0
  0
LTYPE
  5
311
330
2EB
100
AcDbSymbolTableRecord
100
AcDbLinetypeTableRecord
  2
CENTER2
 70
     0
  3

 72
    65
 73
     4
 40
23.0
 49
20.0
 74
     0
 49
-1.0
 74
     0
 49
1.0
 74
     0
 49
-1.0
 74
     0
  0
LTYPE
  5
312
330
2EB
100
AcDbSymbolTableRecord
100
AcDbLinetypeTableRecord
  2
PHANTOMX2
 70
     0
  3

 72
    65
 73
     6
 40
45.0
 49
40.0
 74
     0
 49
-1.0
 74
     0
 49
1.0
 74
     0
 49
-1.0
 74
     0
 49
1.0
 74
     0
 49
-1.0
 74
     0
  0
LTYPE
  5
313
330
2EB
100
AcDbSymbolTableRecord
100
AcDbLinetypeTableRecord
  2
PHANTOM
 70
     0
  3

 72
    65
 73
     6
 40
35.0
 49
30.0
 74
     0
 49
-1.0
 74
     0
 49
1.0
 74
     0
 49
-1.0
 74
     0
 49
1.0
 74
     0
 49
-1.0
 74
     0
  0
LTYPE
  5
314
330
2EB
100
AcDbSymbolTableRecord
100
AcDbLinetypeTableRecord
  2
PHANTOM2
 70
     0
  3

 72
    65
 73
     6
 40
25.0
 49
20.0
 74
     0
 49
-1.0
 74
     0
 49
1.0
 74
     0
 49
-1.0
 74
     0
 49
1.0
 74
     0
 49
-1.0
 74
     0
  0
ENDTAB
  0
TABLE
  2
LAYER
  5
2E8
102
{ACAD_XDICTIONARY
360
4E6
102
}
330
0
100
AcDbSymbolTable
 70
    11
  0
LAYER
  5
2F6
102
{ACAD_XDICTIONARY
360
C86
102
}
330
2E8
100
AcDbSymbolTableRecord
100
AcDbLayerTableRecord
  2
0
 70
     0
 62
     7
  6
CONTINUOUS
370
    -3
390
2F5
  0
LAYER
  5
315
330
2E8
100
AcDbSymbolTableRecord
100
AcDbLayerTableRecord
  2
DEFPOINTS
 70
     0
 62
     7
  6
CONTINUOUS
290
     0
370
    -3
390
2F5
  0
LAYER
  5
316
102
{ACAD_XDICTIONARY
360
C88
102
}
330
2E8
100
AcDbSymbolTableRecord
100
AcDbLayerTableRecord
  2
____1
 70
     0
 62
     3
  6
CENTER2
370
    -3
390
2F5
  0
LAYER
  5
317
102
{ACAD_XDICTIONARY
360
C8A
102
}
330
2E8
100
AcDbSymbolTableRecord
100
AcDbLayerTableRecord
  2
______
 70
     0
 62
     7
  6
CONTINUOUS
370
    -3
390
2F5
  0
LAYER
  5
318
102
{ACAD_XDICTIONARY
360
C8C
102
}
330
2E8
100
AcDbSymbolTableRecord
100
AcDbLayerTableRecord
  2
寸法線_1
 70
     0
 62
     7
  6
CONTINUOUS
370
    -3
390
2F5
  0
LAYER
  5
319
102
{ACAD_XDICTIONARY
360
C8E
102
}
330
2E8
100
AcDbSymbolTableRecord
100
AcDbLayerTableRecord
  2
CONSTRUCTION
 70
     0
 62
     7
  6
CONTINUOUS
370
    -3
390
2F5
  0
LAYER
  5
31A
102
{ACAD_XDICTIONARY
360
C90
102
}
330
2E8
100
AcDbSymbolTableRecord
100
AcDbLayerTableRecord
  2
DIMENSION
 70
     0
 62
     7
  6
CONTINUOUS
370
    -3
390
2F5
  0
LAYER
  5
31B
102
{ACAD_XDICTIONARY
360
C92
102
}
330
2E8
100
AcDbSymbolTableRecord
100
AcDbLayerTableRecord
  2
FORMAT
 70
     0
 62
     7
  6
CONTINUOUS
370
    -3
390
2F5
  0
LAYER
  5
31C
102
{ACAD_XDICTIONARY
360
C94
102
}
330
2E8
100
AcDbSymbolTableRecord
100
AcDbLayerTableRecord
  2
____2
 70
     0
 62
     5
  6
CONTINUOUS
370
    -3
390
2F5
  0
LAYER
  5
31D
102
{ACAD_XDICTIONARY
360
C96
102
}
330
2E8
100
AcDbSymbolTableRecord
100
AcDbLayerTableRecord
  2
0_1
 70
     0
 62
     5
  6
CONTINUOUS
370
    -3
390
2F5
  0
LAYER
  5
31E
102
{ACAD_XDICTIONARY
360
C98
102
}
330
2E8
100
AcDbSymbolTableRecord
100
AcDbLayerTableRecord
  2
DEFPOINTS_1
 70
     0
 62
     5
  6
CONTINUOUS
370
    -3
390
2F5
  0
ENDTAB
  0
TABLE
  2
STYLE
  5
2E9
330
0
100
AcDbSymbolTable
 70
     2
  0
STYLE
  5
2F7
330
2E9
100
AcDbSymbolTableRecord
100
AcDbTextStyleTableRecord
  2
STANDARD
 70
     0
 40
0.0
 41
1.0
 50
0.0
 71
     0
 42
0.35
  3
txt
  4

  0
STYLE
  5
31F
330
2E9
100
AcDbSymbolTableRecord
100
AcDbTextStyleTableRecord
  2
STYLE1
 70
     0
 40
0.0
 41
1.0
 50
0.0
 71
     0
 42
0.35
  3
ＭＳ ゴシック
  4

  0
ENDTAB
  0
TABLE
  2
VIEW
  5
2EC
330
0
100
AcDbSymbolTable
 70
     0
  0
ENDTAB
  0
TABLE
  2
UCS
  5
2ED
330
0
100
AcDbSymbolTable
 70
     0
  0
ENDTAB
  0
TABLE
  2
APPID
  5
2EF
330
0
100
AcDbSymbolTable
 70
     4
  0
APPID
  5
2F8
330
2EF
100
AcDbSymbolTableRecord
100
AcDbRegAppTableRecord
  2
ACAD
 70
     0
  0
APPID
  5
C06
330
2EF
100
AcDbSymbolTableRecord
100
AcDbRegAppTableRecord
  2
ACAD_NAV_VCDISPLAY
 70
     0
  0
APPID
  5
C83
330
2EF
100
AcDbSymbolTableRecord
100
AcDbRegAppTableRecord
  2
ACAD_EXEMPT_FROM_CAD_STANDARDS
 70
     0
  0
APPID
  5
D29
330
2EF
100
AcDbSymbolTableRecord
100
AcDbRegAppTableRecord
  2
ACAD_MLEADERVER
 70
     0
  0
ENDTAB
  0
TABLE
  2
DIMSTYLE
  5
2F0
330
0
100
AcDbSymbolTable
 70
     1
100
AcDbDimStyleTable
 71
     0
  0
DIMSTYLE
105
4DE
330
2F0
100
AcDbSymbolTableRecord
100
AcDbDimStyleTableRecord
  2
Standard
 70
     0
340
2F7
  0
ENDTAB
  0
TABLE
  2
BLOCK_RECORD
  5
2E7
330
0
100
AcDbSymbolTable
 70
     6
  0
BLOCK_RECORD
  5
306
330
2E7
100
AcDbSymbolTableRecord
100
AcDbBlockTableRecord
  2
*Model_Space
340
309
  0
BLOCK_RECORD
  5
302
330
2E7
100
AcDbSymbolTableRecord
100
AcDbBlockTableRecord
  2
*Paper_Space
340
305
  0
BLOCK_RECORD
  5
322
330
2E7
100
AcDbSymbolTableRecord
100
AcDbBlockTableRecord
  2
C0
340
0
  0
BLOCK_RECORD
  5
329
330
2E7
100
AcDbSymbolTableRecord
100
AcDbBlockTableRecord
  2
C1
340
0
  0
BLOCK_RECORD
  5
330
330
2E7
100
AcDbSymbolTableRecord
100
AcDbBlockTableRecord
  2
C2
340
0
  0
BLOCK_RECORD
  5
337
330
2E7
100
AcDbSymbolTableRecord
100
AcDbBlockTableRecord
  2
C3
340
0
  0
BLOCK_RECORD
  5
4D0
330
2E7
100
AcDbSymbolTableRecord
100
AcDbBlockTableRecord
  2
C4
340
0
  0
BLOCK_RECORD
  5
4D7
330
2E7
100
AcDbSymbolTableRecord
100
AcDbBlockTableRecord
  2
C5
340
0
  0
ENDTAB
  0
ENDSEC
  0
SECTION
  2
BLOCKS
  0
BLOCK
  5
307
330
306
100
AcDbEntity
  8
0
100
AcDbBlockBegin
  2
*Model_Space
 70
     0
 10
0.0
 20
0.0
 30
0.0
  3
*Model_Space
  1

  0
ENDBLK
  5
308
330
306
100
AcDbEntity
  8
0
100
AcDbBlockEnd
  0
BLOCK
  5
303
330
302
100
AcDbEntity
 67
     1
  8
0
100
AcDbBlockBegin
  2
*Paper_Space
 70
     0
 10
0.0
 20
0.0
 30
0.0
  3
*Paper_Space
  1

  0
ENDBLK
  5
304
330
302
100
AcDbEntity
 67
     1
  8
0
100
AcDbBlockEnd
  0
BLOCK
  5
323
330
322
100
AcDbEntity
  8
0
100
AcDbBlockBegin
  2
C0
 70
     0
 10
0.0
 20
0.0
 30
0.0
  3
C0
  1

  0
TEXT
  5
324
330
322
100
AcDbEntity
  8
____1
  6
Continuous
 62
     7
100
AcDbText
 10
1137.245706175558
 20
-426.653170827829
 30
0.0000000000000001
 40
5.853287887573241
  1
1
  7
STYLE1
100
AcDbText
  0
LINE
  5
325
330
322
100
AcDbEntity
  8
____1
  6
Continuous
 62
     5
100
AcDbLine
 10
1133.759027994791
 20
-427.7531194559449
 30
0.0000000000000001
 11
1143.659027994791
 21
-427.7531194559449
 31
0.0000000000000001
  0
LINE
  5
326
330
322
100
AcDbEntity
  8
____1
  6
Continuous
 62
     5
100
AcDbLine
 10
1138.709027994791
 20
-419.1794679584788
 30
0.0000000000000001
 11
1143.659027994791
 21
-427.7531194559449
 31
0.0000000000000001
  0
LINE
  5
327
330
322
100
AcDbEntity
  8
____1
  6
Continuous
 62
     5
100
AcDbLine
 10
1138.709027994791
 20
-419.1794679584788
 30
0.0000000000000001
 11
1133.759027994791
 21
-427.7531194559449
 31
0.0000000000000001
  0
ENDBLK
  5
328
330
322
100
AcDbEntity
  8
0
100
AcDbBlockEnd
  0
BLOCK
  5
32A
330
329
100
AcDbEntity
  8
0
100
AcDbBlockBegin
  2
C1
 70
     0
 10
0.0
 20
0.0
 30
0.0
  3
C1
  1

  0
TEXT
  5
32B
330
329
100
AcDbEntity
  8
____1
  6
Continuous
 62
     7
100
AcDbText
 10
1086.347733146812
 20
-409.8497975019113
 30
0.0000000000000001
 40
5.853287887573241
  1
1
  7
STYLE1
100
AcDbText
  0
LINE
  5
32C
330
329
100
AcDbEntity
  8
____1
  6
Continuous
 62
     5
100
AcDbLine
 10
1082.861054966045
 20
-410.9497461300271
 30
0.0000000000000001
 11
1092.761054966045
 21
-410.9497461300271
 31
0.0000000000000001
  0
LINE
  5
32D
330
329
100
AcDbEntity
  8
____1
  6
Continuous
 62
     5
100
AcDbLine
 10
1087.811054966045
 20
-402.3760946325611
 30
0.0000000000000001
 11
1092.761054966045
 21
-410.9497461300271
 31
0.0000000000000001
  0
LINE
  5
32E
330
329
100
AcDbEntity
  8
____1
  6
Continuous
 62
     5
100
AcDbLine
 10
1087.811054966045
 20
-402.3760946325611
 30
0.0000000000000001
 11
1082.861054966045
 21
-410.9497461300271
 31
0.0000000000000001
  0
ENDBLK
  5
32F
330
329
100
AcDbEntity
  8
0
100
AcDbBlockEnd
  0
BLOCK
  5
331
330
330
100
AcDbEntity
  8
0
100
AcDbBlockBegin
  2
C2
 70
     0
 10
0.0
 20
0.0
 30
0.0
  3
C2
  1

  0
TEXT
  5
332
330
330
100
AcDbEntity
  8
____1
  6
Continuous
 62
     7
100
AcDbText
 10
1063.488234460451
 20
39.25988855523817
 30
0.0000000000000001
 40
5.853287887573241
  1
1
  7
STYLE1
100
AcDbText
  0
LINE
  5
333
330
330
100
AcDbEntity
  8
____1
  6
Continuous
 62
     5
100
AcDbLine
 10
1060.001556279685
 20
38.15993992712231
 30
0.0000000000000001
 11
1069.901556279684
 21
38.15993992712231
 31
0.0000000000000001
  0
LINE
  5
334
330
330
100
AcDbEntity
  8
____1
  6
Continuous
 62
     5
100
AcDbLine
 10
1064.951556279684
 20
46.73359142458831
 30
0.0000000000000001
 11
1069.901556279684
 21
38.15993992712231
 31
0.0000000000000001
  0
LINE
  5
335
330
330
100
AcDbEntity
  8
____1
  6
Continuous
 62
     5
100
AcDbLine
 10
1064.951556279684
 20
46.73359142458831
 30
0.0000000000000001
 11
1060.001556279685
 21
38.15993992712231
 31
0.0000000000000001
  0
ENDBLK
  5
336
330
330
100
AcDbEntity
  8
0
100
AcDbBlockEnd
  0
BLOCK
  5
338
330
337
100
AcDbEntity
  8
0
100
AcDbBlockBegin
  2
C3
 70
     0
 10
0.0
 20
0.0
 30
0.0
  3
C3
  1

  0
ARC
  5
339
330
337
100
AcDbEntity
  8
0
  6
Continuous
 62
     5
100
AcDbCircle
 10
528.3630502913099
 20
-979.7537710941215
 30
0.0000000000000001
 40
999.9999999999992
100
AcDbArc
 50
53.69009786742961
 51
72.73862877407932
  0
ARC
  5
33A
330
337
100
AcDbEntity
  8
0
  6
Continuous
 62
     5
100
AcDbCircle
 10
528.3630502913099
 20
-979.7537710941215
 30
0.0000000000000001
 40
1032.0
100
AcDbArc
 50
54.98498126844314
 51
68.59640229472382
  0
ARC
  5
33B
330
337
100
AcDbEntity
  8
0
  6
Continuous
 62
     5
100
AcDbCircle
 10
825.984351098562
 20
-21.92781544988427
 30
0.0000000000000001
 40
2.999999999999922
100
AcDbArc
 50
180.0000088887812
 51
252.7386287740821
  0
LINE
  5
33C
330
337
100
AcDbEntity
  8
0
  6
Continuous
 62
     5
100
AcDbLine
 10
822.984351098562
 20
-21.92781591529977
 30
0.0000000000000001
 11
822.984351098562
 21
-18.92781544988427
 31
0.0000000000000001
  0
LINE
  5
33D
330
337
100
AcDbEntity
  8
0
  6
Continuous
 62
     5
100
AcDbLine
 10
822.984351098562
 20
-18.92781544988427
 30
0.0000000000000001
 11
904.9762244638776
 21
-18.92781544988427
 31
0.0000000000000001
  0
LINE
  5
33E
330
337
100
AcDbEntity
  8
0
  6
Continuous
 62
     5
100
AcDbLine
 10
1120.515504655935
 20
-134.5440510897025
 30
0.0000000000000001
 11
1120.515504655935
 21
-173.9278154498844
 31
0.0000000000000001
  0
ENDBLK
  5
33F
330
337
100
AcDbEntity
  8
0
100
AcDbBlockEnd
  0
BLOCK
  5
4D1
330
4D0
100
AcDbEntity
  8
0
100
AcDbBlockBegin
  2
C4
 70
     0
 10
0.0
 20
0.0
 30
0.0000000000000001
  3
C4
  1

  0
LINE
  5
4D2
330
4D0
100
AcDbEntity
  8
____1
  6
Continuous
 62
     5
100
AcDbLine
 10
1200.234017590807
 20
-442.8951357469832
 30
0.0000000000000001
 11
1195.284017590807
 21
-451.4687872444492
 31
0.0000000000000001
  0
LINE
  5
4D3
330
4D0
100
AcDbEntity
  8
____1
  6
Continuous
 62
     5
100
AcDbLine
 10
1200.234017590807
 20
-442.8951357469832
 30
0.0000000000000001
 11
1205.184017590808
 21
-451.4687872444492
 31
0.0000000000000001
  0
LINE
  5
4D4
330
4D0
100
AcDbEntity
  8
____1
  6
Continuous
 62
     5
100
AcDbLine
 10
1195.284017590807
 20
-451.4687872444492
 30
0.0000000000000001
 11
1205.184017590808
 21
-451.4687872444492
 31
0.0000000000000001
  0
TEXT
  5
4D5
330
4D0
100
AcDbEntity
  8
____1
  6
Continuous
 62
     7
100
AcDbText
 10
1198.770695771574
 20
-450.3688386163331
 30
0.0000000000000001
 40
5.853287887573241
  1
2
  7
STYLE1
100
AcDbText
  0
ENDBLK
  5
4D6
330
4D0
100
AcDbEntity
  8
0
100
AcDbBlockEnd
  0
BLOCK
  5
4D8
330
4D7
100
AcDbEntity
  8
0
100
AcDbBlockBegin
  2
C5
 70
     0
 10
0.0
 20
0.0
 30
0.0000000000000001
  3
C5
  1

  0
LINE
  5
4D9
330
4D7
100
AcDbEntity
  8
____1
  6
Continuous
 62
     5
100
AcDbLine
 10
1064.951556279684
 20
36.93398863821712
 30
0.0000000000000001
 11
1060.001556279685
 21
28.36033714075111
 31
0.0000000000000001
  0
LINE
  5
4DA
330
4D7
100
AcDbEntity
  8
____1
  6
Continuous
 62
     5
100
AcDbLine
 10
1064.951556279684
 20
36.93398863821712
 30
0.0000000000000001
 11
1069.901556279684
 21
28.36033714075111
 31
0.0000000000000001
  0
LINE
  5
4DB
330
4D7
100
AcDbEntity
  8
____1
  6
Continuous
 62
     5
100
AcDbLine
 10
1060.001556279685
 20
28.36033714075111
 30
0.0000000000000001
 11
1069.901556279684
 21
28.36033714075111
 31
0.0000000000000001
  0
TEXT
  5
4DC
330
4D7
100
AcDbEntity
  8
____1
  6
Continuous
 62
     7
100
AcDbText
 10
1063.488234460451
 20
29.46028576886697
 30
0.0000000000000001
 40
5.853287887573241
  1
2
  7
STYLE1
100
AcDbText
  0
ENDBLK
  5
4DD
330
4D7
100
AcDbEntity
  8
0
100
AcDbBlockEnd
  0
ENDSEC
  0
SECTION
  2
ENTITIES
  0
LINE
  5
84E
330
306
100
AcDbEntity
  8
____1
  6
Continuous
 62
     0
100
AcDbLine
 10
1036.862908065915
 20
206.5267624353875
 30
0.0
 11
1036.862908065915
 21
205.5667624353875
 31
0.0
  0
LINE
  5
84F
330
306
100
AcDbEntity
  8
____1
  6
Continuous
 62
     0
100
AcDbLine
 10
1084.628838386982
 20
198.8467624353875
 30
0.0
 11
1079.252838386982
 21
198.8467624353875
 31
0.0
  0
TEXT
  5
850
330
306
100
AcDbEntity
  8
____1
  6
Continuous
 62
     7
100
AcDbText
 10
954.4560471369573
 20
242.7864692057753
 30
0.0
 40
5.644444274902344
  1
H14.5
  7
STYLE1
100
AcDbText
  0
TEXT
  5
851
330
306
100
AcDbEntity
  8
____1
  6
Continuous
 62
     7
100
AcDbText
 10
999.747713167841
 20
242.7864692057753
 30
0.0
 40
5.644444274902344
  1
鉄
  7
STYLE1
100
AcDbText
  0
TEXT
  5
852
330
306
100
AcDbEntity
  8
____1
  6
Continuous
 62
     7
100
AcDbText
 10
1036.219936449701
 20
242.7864692057753
 30
0.0
 40
5.644444274902344
  1
4.5t
  7
STYLE1
100
AcDbText
  0
TEXT
  5
853
330
306
100
AcDbEntity
  8
____1
  6
Continuous
 62
     7
100
AcDbText
 10
985.3858550105835
 20
253.8008038931705
 30
0.0
 40
5.644444274902344
  1
 材　　質
  7
STYLE1
100
AcDbText
  0
TEXT
  5
854
330
306
100
AcDbEntity
  8
____1
  6
Continuous
 62
     7
100
AcDbText
 10
1025.385855010583
 20
253.8008038931705
 30
0.0
 40
5.644444274902344
  1
 板　　厚
  7
STYLE1
100
AcDbText
  0
TEXT
  5
855
330
306
100
AcDbEntity
  8
____1
  6
Continuous
 62
     7
100
AcDbText
 10
1036.219936449701
 20
220.7864692057753
 30
0.0
 40
5.644444274902344
  1
1：2
  7
STYLE1
100
AcDbText
  0
TEXT
  5
856
330
306
100
AcDbEntity
  8
____1
  6
Continuous
 62
     7
100
AcDbText
 10
1025.385855010583
 20
231.8008038931706
 30
0.0
 40
5.644444274902344
  1
 尺　　度
  7
STYLE1
100
AcDbText
  0
LINE
  5
857
330
306
100
AcDbEntity
  8
____1
  6
Continuous
 62
     7
100
AcDbLine
 10
943.2754917933293
 20
239.8466978605973
 30
0.0
 11
1063.275491793329
 21
239.8466978605973
 31
0.0
  0
LINE
  5
858
330
306
100
AcDbEntity
  8
____1
  6
Continuous
 62
     7
100
AcDbLine
 10
1103.275491793329
 20
239.8466978605973
 30
0.0
 11
1243.275491793329
 21
239.8466978605973
 31
0.0
  0
LINE
  5
859
330
306
100
AcDbEntity
  8
____1
  6
Continuous
 62
     7
100
AcDbLine
 10
1063.275491793329
 20
250.8466978605973
 30
0.0
 11
1103.275491793329
 21
250.8466978605973
 31
0.0
  0
TEXT
  5
85A
330
306
100
AcDbEntity
  8
____1
  6
Continuous
 62
     7
100
AcDbText
 10
1065.385855010583
 20
253.8008038931705
 30
0.0
 40
5.644444274902344
  1
 検　　印
  7
STYLE1
100
AcDbText
  0
LINE
  5
85B
330
306
100
AcDbEntity
  8
____1
  6
Continuous
 62
     0
100
AcDbLine
 10
1071.188838386983
 20
209.9827624353875
 30
0.0
 11
1071.188838386983
 21
206.5267624353875
 31
0.0
  0
TEXT
  5
85C
330
306
100
AcDbEntity
  8
____1
  6
Continuous
 62
     7
100
AcDbText
 10
967.2943503434666
 20
201.0109369953599
 30
0.0
 40
10.15999984741211
  1
株式会社
  7
STYLE1
100
AcDbText
  0
LINE
  5
85D
330
306
100
AcDbEntity
  8
____1
  6
Continuous
 62
     7
100
AcDbLine
 10
943.2754917933293
 20
217.8466978605973
 30
0.0
 11
1243.275491793329
 21
217.8466978605973
 31
0.0
  0
LINE
  5
85E
330
306
100
AcDbEntity
  8
____1
  6
Continuous
 62
     7
100
AcDbLine
 10
1023.275491793329
 20
261.8466978605973
 30
0.0
 11
1023.275491793329
 21
239.8466978605973
 31
0.0
  0
LINE
  5
85F
330
306
100
AcDbEntity
  8
____1
  6
Continuous
 62
     7
100
AcDbLine
 10
1063.275491793329
 20
261.8466978605973
 30
0.0
 11
1063.275491793329
 21
217.8466978605973
 31
0.0
  0
LINE
  5
860
330
306
100
AcDbEntity
  8
____1
  6
Continuous
 62
     7
100
AcDbLine
 10
1103.275491793329
 20
261.8466978605973
 30
0.0
 11
1103.275491793329
 21
195.8466978605973
 31
0.0
  0
LINE
  5
861
330
306
100
AcDbEntity
  8
____1
  6
Continuous
 62
     7
100
AcDbLine
 10
1243.275491793329
 20
261.8466978605973
 30
0.0
 11
943.2754917933293
 21
261.8466978605973
 31
0.0
  0
LINE
  5
862
330
306
100
AcDbEntity
  8
____1
  6
Continuous
 62
     0
100
AcDbLine
 10
1041.662908065915
 20
205.5667624353875
 30
0.0
 11
1041.662908065915
 21
206.5267624353875
 31
0.0
  0
ARC
  5
863
330
306
100
AcDbEntity
  8
____1
  6
Continuous
 62
     0
100
AcDbCircle
 10
1033.982908065915
 20
205.5667624353875
 30
0.0
 40
2.88
100
AcDbArc
 50
270.0
 51
0.0
  0
LINE
  5
864
330
306
100
AcDbEntity
  8
____1
  6
Continuous
 62
     0
100
AcDbLine
 10
1071.188838386983
 20
201.5347624353875
 30
0.0
 11
1078.464358386983
 21
201.5347624353875
 31
0.0
  0
LINE
  5
865
330
306
100
AcDbEntity
  8
____1
  6
Continuous
 62
     0
100
AcDbLine
 10
1028.222908065915
 20
199.8067624353875
 30
0.0
 11
1035.902908065915
 21
199.8067624353875
 31
0.0
  0
ARC
  5
866
330
306
100
AcDbEntity
  8
____1
  6
Continuous
 62
     0
100
AcDbCircle
 10
1054.451271702278
 20
210.3667624353875
 30
0.0
 40
10.56
100
AcDbArc
 50
322.4876119796974
 51
0.0
  0
LINE
  5
867
330
306
100
AcDbEntity
  8
____1
  6
Continuous
 62
     0
100
AcDbLine
 10
1082.860811663454
 20
204.9907624353874
 30
0.0
 11
1088.468838386982
 21
204.9907624353874
 31
0.0
  0
ARC
  5
868
330
306
100
AcDbEntity
  8
____1
  6
Continuous
 62
     0
100
AcDbCircle
 10
1035.902908065915
 20
205.5667624353875
 30
0.0
 40
5.76
100
AcDbArc
 50
270.0
 51
0.0
  0
LINE
  5
869
330
306
100
AcDbEntity
  8
____1
  6
Continuous
 62
     5
100
AcDbLine
 10
1243.275491793329
 20
195.8466978605973
 30
0.0
 11
1243.275491793329
 21
261.8466978605973
 31
0.0
  0
LINE
  5
86A
330
306
100
AcDbEntity
  8
____1
  6
Continuous
 62
     0
100
AcDbLine
 10
1049.651271702278
 20
213.2467624353875
 30
0.0
 11
1049.651271702278
 21
209.7907624353875
 31
0.0
  0
LINE
  5
86B
330
306
100
AcDbEntity
  8
____1
  6
Continuous
 62
     0
100
AcDbLine
 10
1044.542908065915
 20
213.2467624353875
 30
0.0
 11
1036.862908065915
 21
213.2467624353875
 31
0.0
  0
LINE
  5
86C
330
306
100
AcDbEntity
  8
____1
  6
Continuous
 62
     0
100
AcDbLine
 10
1044.542908065915
 20
209.4067624353876
 30
0.0
 11
1044.542908065915
 21
206.5267624353875
 31
0.0
  0
LINE
  5
86D
330
306
100
AcDbEntity
  8
____1
  6
Continuous
 62
     0
100
AcDbLine
 10
1026.012788747733
 20
209.4067624353876
 30
0.0
 11
1026.012788747733
 21
206.5267624353875
 31
0.0
  0
LINE
  5
86E
330
306
100
AcDbEntity
  8
____1
  6
Continuous
 62
     0
100
AcDbLine
 10
1049.651271702278
 20
208.1698590082591
 30
0.0
 11
1049.651271702278
 21
208.7883107218233
 31
0.0
  0
LINE
  5
86F
330
306
100
AcDbEntity
  8
____1
  6
Continuous
 62
     0
100
AcDbLine
 10
1057.331271702278
 20
208.7883107218233
 30
0.0
 11
1056.245155686376
 21
207.7021947059209
 31
0.0
  0
ARC
  5
870
330
306
100
AcDbEntity
  8
____1
  6
Continuous
 62
     0
100
AcDbCircle
 10
1051.955271702278
 20
209.9827624353875
 30
0.0
 40
7.295999999999981
100
AcDbArc
 50
270.0
 51
298.0859048152069
  0
LINE
  5
871
330
306
100
AcDbEntity
  8
____1
  6
Continuous
 62
     0
100
AcDbLine
 10
1049.651271702278
 20
208.7883107218233
 30
0.0
 11
1057.331271702278
 21
208.7883107218233
 31
0.0
  0
LINE
  5
872
330
306
100
AcDbEntity
  8
____1
  6
Continuous
 62
     0
100
AcDbLine
 10
1058.360991686316
 20
206.4901462975764
 30
0.0
 11
1057.899047738188
 21
205.9799286453128
 31
0.0
  0
LINE
  5
873
330
306
100
AcDbEntity
  8
____1
  6
Continuous
 62
     5
100
AcDbLine
 10
943.2754917933293
 20
195.8466978605973
 30
0.0
 11
1243.275491793329
 21
195.8466978605973
 31
0.0
  0
LINE
  5
874
330
306
100
AcDbEntity
  8
____1
  6
Continuous
 62
     0
100
AcDbLine
 10
1036.862908065915
 20
213.2467624353875
 30
0.0
 11
1036.862908065915
 21
209.4067624353876
 31
0.0
  0
LINE
  5
875
330
306
100
AcDbEntity
  8
____1
  6
Continuous
 62
     0
100
AcDbLine
 10
1049.651271702278
 20
199.8067624353875
 30
0.0
 11
1054.451271702278
 21
199.8067624353875
 31
0.0
  0
LINE
  5
876
330
306
100
AcDbEntity
  8
____1
  6
Continuous
 62
     0
100
AcDbLine
 10
1082.418804982572
 20
206.5267624353875
 30
0.0
 11
1088.468838386982
 21
206.5267624353875
 31
0.0
  0
LINE
  5
877
330
306
100
AcDbEntity
  8
____1
  6
Continuous
 62
     0
100
AcDbLine
 10
1065.011271702278
 20
210.3667624353875
 30
0.0
 11
1066.931271702278
 21
213.2467624353875
 31
0.0
  0
LINE
  5
878
330
306
100
AcDbEntity
  8
____1
  6
Continuous
 62
     0
100
AcDbLine
 10
1062.827692858286
 20
203.9364305141583
 30
0.0
 11
1062.485736903485
 21
203.6016244773144
 31
0.0
  0
LINE
  5
879
330
306
100
AcDbEntity
  8
____1
  6
Continuous
 62
     0
100
AcDbLine
 10
1033.022908065915
 20
209.4067624353876
 30
0.0
 11
1033.022908065915
 21
210.3667624353875
 31
0.0
  0
LINE
  5
87A
330
306
100
AcDbEntity
  8
____1
  6
Continuous
 62
     0
100
AcDbLine
 10
1077.450598386983
 20
204.9907624353874
 30
0.0
 11
1077.000038386982
 21
206.5267624353875
 31
0.0
  0
LINE
  5
87B
330
306
100
AcDbEntity
  8
____1
  6
Continuous
 62
     0
100
AcDbLine
 10
1041.662908065915
 20
210.3667624353875
 30
0.0
 11
1044.542908065915
 21
213.2467624353875
 31
0.0
  0
LINE
  5
87C
330
306
100
AcDbEntity
  8
____1
  6
Continuous
 62
     0
100
AcDbLine
 10
1028.222908065915
 20
203.6467624353875
 30
0.0
 11
1033.022908065915
 21
203.6467624353875
 31
0.0
  0
TEXT
  5
87D
330
306
100
AcDbEntity
  8
____1
  6
Continuous
 62
     7
100
AcDbText
 10
1133.964499296726
 20
225.818920962941
 30
0.0
 40
6.773332977294922
  1
カウンターブラケット
  7
STYLE1
100
AcDbText
  0
LINE
  5
881
330
306
100
AcDbEntity
  8
____1
  6
Continuous
 62
     7
100
AcDbLine
 10
943.2754917933293
 20
261.8466978605973
 30
0.0
 11
943.2754917933293
 21
195.8466978605973
 31
0.0
  0
LINE
  5
882
330
306
100
AcDbEntity
  8
____1
  6
Continuous
 62
     7
100
AcDbLine
 10
1023.275491793329
 20
239.8466978605973
 30
0.0
 11
1023.275491793329
 21
217.8466978605973
 31
0.0
  0
LINE
  5
883
330
306
100
AcDbEntity
  8
____1
  6
Continuous
 62
     0
100
AcDbLine
 10
1081.424289950588
 20
209.9827624353875
 30
0.0
 11
1088.468838386982
 21
209.9827624353875
 31
0.0
  0
LINE
  5
884
330
306
100
AcDbEntity
  8
____1
  6
Continuous
 62
     0
100
AcDbLine
 10
1075.986278386983
 20
209.9827624353875
 30
0.0
 11
1075.028838386983
 21
213.2467624353875
 31
0.0
  0
LINE
  5
885
330
306
100
AcDbEntity
  8
____1
  6
Continuous
 62
     0
100
AcDbLine
 10
1083.855326695438
 20
201.5347624353875
 30
0.0
 11
1088.468838386982
 21
201.5347624353875
 31
0.0
  0
LINE
  5
886
330
306
100
AcDbEntity
  8
____1
  6
Continuous
 62
     0
100
AcDbLine
 10
1028.222908065915
 20
213.2467624353875
 30
0.0
 11
1028.222908065915
 21
209.4067624353876
 31
0.0
  0
LINE
  5
887
330
306
100
AcDbEntity
  8
____1
  6
Continuous
 62
     0
100
AcDbLine
 10
1033.022908065915
 20
210.3667624353875
 30
0.0
 11
1035.902908065915
 21
213.2467624353875
 31
0.0
  0
LINE
  5
888
330
306
100
AcDbEntity
  8
____1
  6
Continuous
 62
     0
100
AcDbLine
 10
1035.902908065915
 20
213.2467624353875
 30
0.0
 11
1028.222908065915
 21
213.2467624353875
 31
0.0
  0
LINE
  5
889
330
306
100
AcDbEntity
  8
____1
  6
Continuous
 62
     0
100
AcDbLine
 10
1036.862908065915
 20
209.4067624353876
 30
0.0
 11
1033.022908065915
 21
209.4067624353876
 31
0.0
  0
LINE
  5
88A
330
306
100
AcDbEntity
  8
____1
  6
Continuous
 62
     0
100
AcDbLine
 10
1033.022908065915
 20
203.6467624353875
 30
0.0
 11
1033.022908065915
 21
206.5267624353875
 31
0.0
  0
LINE
  5
88B
330
306
100
AcDbEntity
  8
____1
  6
Continuous
 62
     0
100
AcDbLine
 10
1071.188838386983
 20
204.9907624353874
 30
0.0
 11
1071.188838386983
 21
201.5347624353875
 31
0.0
  0
LINE
  5
88C
330
306
100
AcDbEntity
  8
____1
  6
Continuous
 62
     0
100
AcDbLine
 10
1071.188838386983
 20
206.5267624353875
 30
0.0
 11
1077.000038386982
 21
206.5267624353875
 31
0.0
  0
LINE
  5
88D
330
306
100
AcDbEntity
  8
____1
  6
Continuous
 62
     0
100
AcDbLine
 10
1088.468838386982
 20
209.9827624353875
 30
0.0
 11
1088.468838386982
 21
206.5267624353875
 31
0.0
  0
LINE
  5
88E
330
306
100
AcDbEntity
  8
____1
  6
Continuous
 62
     0
100
AcDbLine
 10
1049.651271702278
 20
209.7907624353875
 30
0.0
 11
1059.251271702278
 21
209.7907624353875
 31
0.0
  0
LINE
  5
88F
330
306
100
AcDbEntity
  8
____1
  6
Continuous
 62
     0
100
AcDbLine
 10
1033.982908065915
 20
202.6867624353875
 30
0.0
 11
1028.222908065915
 21
202.6867624353875
 31
0.0
  0
LINE
  5
890
330
306
100
AcDbEntity
  8
____1
  6
Continuous
 62
     0
100
AcDbLine
 10
1079.252838386982
 20
198.8467624353875
 30
0.0
 11
1078.464358386983
 21
201.5347624353875
 31
0.0
  0
LINE
  5
891
330
306
100
AcDbEntity
  8
____1
  6
Continuous
 62
     0
100
AcDbLine
 10
1082.860811663454
 20
204.9907624353874
 30
0.0
 11
1082.418804982572
 21
206.5267624353875
 31
0.0
  0
LINE
  5
892
330
306
100
AcDbEntity
  8
____1
  6
Continuous
 62
     5
100
AcDbLine
 10
1243.275491793329
 20
261.8466978605973
 30
0.0
 11
1243.275491793329
 21
755.8466978605972
 31
0.0
  0
LINE
  5
893
330
306
100
AcDbEntity
  8
____1
  6
Continuous
 62
     5
100
AcDbLine
 10
1243.275491793329
 20
755.8466978605972
 30
0.0
 11
443.2754917933293
 21
755.8466978605972
 31
0.0
  0
LINE
  5
894
330
306
100
AcDbEntity
  8
____1
  6
Continuous
 62
     5
100
AcDbLine
 10
943.2754917933293
 20
195.8466978605973
 30
0.0
 11
443.2754917933294
 21
195.8466978605973
 31
0.0
  0
LINE
  5
895
330
306
100
AcDbEntity
  8
____1
  6
Continuous
 62
     0
100
AcDbLine
 10
1071.188838386983
 20
204.9907624353874
 30
0.0
 11
1077.450598386983
 21
204.9907624353874
 31
0.0
  0
LINE
  5
896
330
306
100
AcDbEntity
  8
____1
  6
Continuous
 62
     0
100
AcDbLine
 10
1026.012788747733
 20
206.5267624353875
 30
0.0
 11
1027.932788747733
 21
206.5267624353875
 31
0.0
  0
LINE
  5
897
330
306
100
AcDbEntity
  8
____1
  6
Continuous
 62
     0
100
AcDbLine
 10
1084.628838386982
 20
198.8467624353875
 30
0.0
 11
1083.855326695438
 21
201.5347624353875
 31
0.0
  0
LINE
  5
898
330
306
100
AcDbEntity
  8
____1
  6
Continuous
 62
     0
100
AcDbLine
 10
1033.022908065915
 20
206.5267624353875
 30
0.0
 11
1036.862908065915
 21
206.5267624353875
 31
0.0
  0
LINE
  5
899
330
306
100
AcDbEntity
  8
____1
  6
Continuous
 62
     0
100
AcDbLine
 10
1049.651271702278
 20
199.8067624353875
 30
0.0
 11
1049.651271702278
 21
202.6867624353875
 31
0.0
  0
LINE
  5
89A
330
306
100
AcDbEntity
  8
____1
  6
Continuous
 62
     0
100
AcDbLine
 10
1028.222908065915
 20
202.6867624353875
 30
0.0
 11
1028.222908065915
 21
199.8067624353875
 31
0.0
  0
LINE
  5
89B
330
306
100
AcDbEntity
  8
____1
  6
Continuous
 62
     0
100
AcDbLine
 10
1028.222908065915
 20
206.5267624353875
 30
0.0
 11
1027.932788747733
 21
206.5267624353875
 31
0.0
  0
LINE
  5
89C
330
306
100
AcDbEntity
  8
____1
  6
Continuous
 62
     0
100
AcDbLine
 10
1066.931271702278
 20
202.6867624353875
 30
0.0
 11
1066.931271702278
 21
199.8067624353875
 31
0.0
  0
LINE
  5
89D
330
306
100
AcDbEntity
  8
____1
  6
Continuous
 62
     0
100
AcDbLine
 10
1088.468838386982
 20
204.9907624353874
 30
0.0
 11
1088.468838386982
 21
201.5347624353875
 31
0.0
  0
LINE
  5
89E
330
306
100
AcDbEntity
  8
____1
  6
Continuous
 62
     0
100
AcDbLine
 10
1028.222908065915
 20
209.4067624353876
 30
0.0
 11
1026.012788747733
 21
209.4067624353876
 31
0.0
  0
LINE
  5
89F
330
306
100
AcDbEntity
  8
____1
  6
Continuous
 62
     0
100
AcDbLine
 10
1075.028838386983
 20
213.2467624353875
 30
0.0
 11
1082.708838386983
 21
213.2467624353875
 31
0.0
  0
LINE
  5
8A0
330
306
100
AcDbEntity
  8
____1
  6
Continuous
 62
     0
100
AcDbLine
 10
1049.651271702278
 20
202.6867624353875
 30
0.0
 11
1051.955271702278
 21
202.6867624353875
 31
0.0
  0
LINE
  5
8A1
330
306
100
AcDbEntity
  8
____1
  6
Continuous
 62
     0
100
AcDbLine
 10
1049.651271702278
 20
202.6867624353875
 30
0.0
 11
1049.651271702278
 21
199.8067624353875
 31
0.0
  0
LINE
  5
8A2
330
306
100
AcDbEntity
  8
____1
  6
Continuous
 62
     0
100
AcDbLine
 10
1065.011271702278
 20
210.3667624353875
 30
0.0
 11
1066.931271702278
 21
213.2467624353875
 31
0.0
  0
POLYLINE
  5
8A3
330
306
100
AcDbEntity
  8
____1
  6
Continuous
 62
     0
100
AcDb3dPolyline
 66
     1
 10
0.0
 20
0.0
 30
0.0
 70
     8
  0
VERTEX
  5
8A4
330
8A3
100
AcDbEntity
  8
____1
 62
     0
100
AcDbVertex
100
AcDb3dPolylineVertex
 10
1060.132142346951
 20
201.465003692392
 30
0.0
 70
    32
  0
VERTEX
  5
8A5
330
8A3
100
AcDbEntity
  8
____1
 62
     0
100
AcDbVertex
100
AcDb3dPolylineVertex
 10
1061.792879066335
 20
200.9782459606356
 30
0.0
 70
    32
  0
VERTEX
  5
8A6
330
8A3
100
AcDbEntity
  8
____1
 62
     0
100
AcDbVertex
100
AcDb3dPolylineVertex
 10
1063.487083459532
 20
200.5533717295979
 30
0.0
 70
    32
  0
VERTEX
  5
8A7
330
8A3
100
AcDbEntity
  8
____1
 62
     0
100
AcDbVertex
100
AcDb3dPolylineVertex
 10
1066.931271702278
 20
199.8067624353875
 30
0.0
 70
    32
  0
SEQEND
  5
8A8
330
8A3
100
AcDbEntity
  8
____1
 62
     0
  0
POLYLINE
  5
8A9
330
306
100
AcDbEntity
  8
____1
  6
Continuous
 62
     0
100
AcDb3dPolyline
 66
     1
 10
0.0
 20
0.0
 30
0.0
 70
     8
  0
VERTEX
  5
8AA
330
8A9
100
AcDbEntity
  8
____1
 62
     0
100
AcDbVertex
100
AcDb3dPolylineVertex
 10
1056.245155686376
 20
207.7021947059209
 30
0.0
 70
    32
  0
VERTEX
  5
8AB
330
8A9
100
AcDbEntity
  8
____1
 62
     0
100
AcDbVertex
100
AcDb3dPolylineVertex
 10
1057.05533663585
 20
206.8140709431357
 30
0.0
 70
    32
  0
VERTEX
  5
8AC
330
8A9
100
AcDbEntity
  8
____1
 62
     0
100
AcDbVertex
100
AcDb3dPolylineVertex
 10
1057.899047738188
 20
205.9799286453127
 30
0.0
 70
    32
  0
SEQEND
  5
8AD
330
8A9
100
AcDbEntity
  8
____1
 62
     0
  0
POLYLINE
  5
8AE
330
306
100
AcDbEntity
  8
____1
  6
Continuous
 62
     0
100
AcDb3dPolyline
 66
     1
 10
0.0
 20
0.0
 30
0.0
 70
     8
  0
VERTEX
  5
8AF
330
8AE
100
AcDbEntity
  8
____1
 62
     0
100
AcDbVertex
100
AcDb3dPolylineVertex
 10
1062.485736903486
 20
203.6016244773144
 30
0.0
 70
    32
  0
VERTEX
  5
8B0
330
8AE
100
AcDbEntity
  8
____1
 62
     0
100
AcDbVertex
100
AcDb3dPolylineVertex
 10
1063.566856994841
 20
203.3241864358025
 30
0.0
 70
    32
  0
VERTEX
  5
8B1
330
8AE
100
AcDbEntity
  8
____1
 62
     0
100
AcDbVertex
100
AcDb3dPolylineVertex
 10
1064.67391732192
 20
203.0885105637451
 30
0.0
 70
    32
  0
VERTEX
  5
8B2
330
8AE
100
AcDbEntity
  8
____1
 62
     0
100
AcDbVertex
100
AcDb3dPolylineVertex
 10
1066.931271702278
 20
202.6867624353875
 30
0.0
 70
    32
  0
SEQEND
  5
8B3
330
8AE
100
AcDbEntity
  8
____1
 62
     0
  0
LINE
  5
8B4
330
306
100
AcDbEntity
  8
____1
  6
Continuous
 62
     0
100
AcDbLine
 10
1066.931271702278
 20
213.2467624353875
 30
0.0
 11
1049.651271702278
 21
213.2467624353875
 31
0.0
  0
LINE
  5
8B5
330
306
100
AcDbEntity
  8
____1
  6
Continuous
 62
     0
100
AcDbLine
 10
1081.424289950588
 20
209.9827624353875
 30
0.0
 11
1081.143212990157
 21
210.9595219050845
 31
0.0
  0
LINE
  5
8B6
330
306
100
AcDbEntity
  8
____1
  6
Continuous
 62
     7
100
AcDbLine
 10
983.2754917933293
 20
261.8466978605973
 30
0.0
 11
983.2754917933293
 21
239.8466978605973
 31
0.0
  0
LINE
  5
8B7
330
306
100
AcDbEntity
  8
____1
  6
Continuous
 62
     7
100
AcDbLine
 10
1028.275491793329
 20
228.8466978605973
 30
0.0
 11
1058.275491793329
 21
228.8466978605973
 31
0.0
  0
LINE
  5
8B8
330
306
100
AcDbEntity
  8
____1
  6
Continuous
 62
     7
100
AcDbLine
 10
1028.275491793329
 20
250.8466978605973
 30
0.0
 11
1058.275491793329
 21
250.8466978605973
 31
0.0
  0
LINE
  5
8B9
330
306
100
AcDbEntity
  8
____1
  6
Continuous
 62
     7
100
AcDbLine
 10
988.2754917933297
 20
250.8466978605973
 30
0.0
 11
1018.275491793329
 21
250.8466978605973
 31
0.0
  0
LINE
  5
8BA
330
306
100
AcDbEntity
  8
____1
  6
Continuous
 62
     7
100
AcDbLine
 10
948.2754917933297
 20
250.8466978605973
 30
0.0
 11
978.2754917933297
 21
250.8466978605973
 31
0.0
  0
LINE
  5
8BB
330
306
100
AcDbEntity
  8
____1
  6
Continuous
 62
     0
100
AcDbLine
 10
1028.222908065915
 20
206.5267624353875
 30
0.0
 11
1028.222908065915
 21
203.6467624353875
 31
0.0
  0
LINE
  5
8BC
330
306
100
AcDbEntity
  8
____1
  6
Continuous
 62
     0
100
AcDbLine
 10
1081.143212990157
 20
210.9595219050845
 30
0.0
 11
1082.708838386983
 21
213.2467624353875
 31
0.0
  0
LINE
  5
8BD
330
306
100
AcDbEntity
  8
____1
  6
Continuous
 62
     0
100
AcDbLine
 10
1071.188838386983
 20
209.9827624353875
 30
0.0
 11
1075.986278386983
 21
209.9827624353875
 31
0.0
  0
LINE
  5
8BE
330
306
100
AcDbEntity
  8
____1
  6
Continuous
 62
     0
100
AcDbLine
 10
1041.662908065915
 20
209.4067624353876
 30
0.0
 11
1041.662908065915
 21
210.3667624353875
 31
0.0
  0
LINE
  5
8BF
330
306
100
AcDbEntity
  8
____1
  6
Continuous
 62
     0
100
AcDbLine
 10
1044.542908065915
 20
209.4067624353876
 30
0.0
 11
1041.662908065915
 21
209.4067624353876
 31
0.0
  0
ARC
  5
8C0
330
306
100
AcDbEntity
  8
____1
  6
Continuous
 62
     0
100
AcDbCircle
 10
1054.451271702278
 20
210.3667624353875
 30
0.0
 40
10.56000000000012
100
AcDbArc
 50
270.0
 51
302.5449588540466
  0
LINE
  5
8C1
330
306
100
AcDbEntity
  8
____1
  6
Continuous
 62
     0
100
AcDbLine
 10
1041.662908065915
 20
206.5267624353875
 30
0.0
 11
1044.542908065915
 21
206.5267624353875
 31
0.0
  0
ARC
  5
8C2
330
306
100
AcDbEntity
  8
____1
  6
Continuous
 62
     0
100
AcDbCircle
 10
1051.955271702278
 20
209.9827624353875
 30
0.0
 40
7.29600000000006
100
AcDbArc
 50
331.3992813832578
 51
358.4920422457636
  0
LINE
  5
8C3
330
306
100
AcDbEntity
  8
____1
  6
Continuous
 62
     5
100
AcDbLine
 10
443.2754917933294
 20
195.8466978605973
 30
0.0
 11
443.2754917933294
 21
755.8466978605972
 31
0.0
  0
TEXT
  5
8C4
330
306
100
AcDbEntity
  8
____1
  6
Continuous
 62
     7
100
AcDbText
 10
1105.508835466969
 20
209.7996517400118
 30
0.0
 40
5.644444274902344
  1
図番
  7
STYLE1
100
AcDbText
  0
TEXT
  5
8C5
330
306
100
AcDbEntity
  8
____1
  6
Continuous
 62
     7
100
AcDbText
 10
1105.508835466969
 20
231.7996517400118
 30
0.0
 40
5.644444274902344
  1
品名
  7
STYLE1
100
AcDbText
  0
TEXT
  5
8C6
330
306
100
AcDbEntity
  8
____1
  6
Continuous
 62
     7
100
AcDbText
 10
1105.508835466969
 20
253.7996517400118
 30
0.0
 40
5.644444274902344
  1
型番
  7
STYLE1
100
AcDbText
  0
TEXT
  5
8C7
330
306
100
AcDbEntity
  8
____1
  6
Continuous
 62
     7
100
AcDbText
 10
945.3858550105834
 20
253.8008038931705
 30
0.0
 40
5.644444274902344
  1
 日　　付
  7
STYLE1
100
AcDbText
  0
TEXT
  5
8C8
330
306
100
AcDbEntity
  8
____1
  6
Continuous
 62
     7
100
AcDbText
 10
943.2754917933293
 20
220.8008038931705
 30
0.0
 40
5.644444274902344
  1
 製図　　 岸本
  7
STYLE1
100
AcDbText
  0
TEXT
  5
8C9
330
306
100
AcDbEntity
  8
____1
  6
Continuous
 62
     7
100
AcDbText
 10
943.2754917933293
 20
231.8008038931706
 30
0.0
 40
5.644444274902344
  1
 設計　　 岸本
  7
STYLE1
100
AcDbText
  0
LINE
  5
8CA
330
306
100
AcDbEntity
  8
____1
  6
Continuous
 62
     7
100
AcDbLine
 10
948.2754917933297
 20
228.8466978605973
 30
0.0
 11
1018.275491793329
 21
228.8466978605973
 31
0.0
  0
POLYLINE
  5
8CB
330
306
100
AcDbEntity
  8
____1
  6
Continuous
 62
     0
100
AcDb3dPolyline
 66
     1
 10
0.0
 20
0.0
 30
0.0
 70
     8
  0
VERTEX
  5
8CC
330
8CB
100
AcDbEntity
  8
____1
 62
     0
100
AcDbVertex
100
AcDb3dPolylineVertex
 10
1049.651271702278
 20
208.1698590082591
 30
0.0
 70
    32
  0
VERTEX
  5
8CD
330
8CB
100
AcDbEntity
  8
____1
 62
     0
100
AcDbVertex
100
AcDb3dPolylineVertex
 10
1051.029658530549
 20
206.9096929849543
 30
0.0
 70
    32
  0
VERTEX
  5
8CE
330
8CB
100
AcDbEntity
  8
____1
 62
     0
100
AcDbVertex
100
AcDb3dPolylineVertex
 10
1052.43058255536
 20
205.6911994312104
 30
0.0
 70
    32
  0
VERTEX
  5
8CF
330
8CB
100
AcDbEntity
  8
____1
 62
     0
100
AcDbVertex
100
AcDb3dPolylineVertex
 10
1053.876580973247
 20
204.5560508165886
 30
0.0
 70
    32
  0
VERTEX
  5
8D0
330
8CB
100
AcDbEntity
  8
____1
 62
     0
100
AcDbVertex
100
AcDb3dPolylineVertex
 10
1055.390190980751
 20
203.5459196106497
 30
0.0
 70
    32
  0
VERTEX
  5
8D1
330
8CB
100
AcDbEntity
  8
____1
 62
     0
100
AcDbVertex
100
AcDb3dPolylineVertex
 10
1055.390190984668
 20
203.5459196082976
 30
0.0
 70
    32
  0
SEQEND
  5
8D2
330
8CB
100
AcDbEntity
  8
____1
 62
     0
  0
TEXT
  5
8D3
330
306
100
AcDbEntity
  8
____1
  6
Continuous
 62
     0
100
AcDbText
 10
1092.692158777888
 20
748.2962858004715
 30
0.0
 40
4.93888874053955
  1
改訂日
  7
STYLE1
100
AcDbText
  0
LINE
  5
8D4
330
306
100
AcDbEntity
  8
____1
  6
Continuous
 62
     0
100
AcDbLine
 10
1063.27549179333
 20
725.8466978605973
 30
0.0
 11
1243.275491793329
 21
725.8466978605973
 31
0.0
  0
LINE
  5
8D5
330
306
100
AcDbEntity
  8
____1
  6
Continuous
 62
     0
100
AcDbLine
 10
1063.27549179333
 20
745.8466978605972
 30
0.0
 11
1243.275491793329
 21
745.8466978605972
 31
0.0
  0
LINE
  5
8D6
330
306
100
AcDbEntity
  8
____1
  6
Continuous
 62
     0
100
AcDbLine
 10
1063.27549179333
 20
735.8466978605973
 30
0.0
 11
1243.275491793329
 21
735.8466978605973
 31
0.0
  0
TEXT
  5
8D7
330
306
100
AcDbEntity
  8
____1
  6
Continuous
 62
     0
100
AcDbText
 10
1092.692158777888
 20
738.3671348017972
 30
0.0
 40
4.93888874053955
  1
H22.11
  7
STYLE1
100
AcDbText
  0
LINE
  5
8D8
330
306
100
AcDbEntity
  8
____1
  6
Continuous
 62
     0
100
AcDbLine
 10
1067.756921021245
 20
746.6082813626038
 30
0.0
 11
1077.656921021245
 21
746.6082813626038
 31
0.0
  0
LINE
  5
8D9
330
306
100
AcDbEntity
  8
____1
  6
Continuous
 62
     0
100
AcDbLine
 10
1072.706921021245
 20
755.1819328600696
 30
0.0
 11
1077.656921021245
 21
746.6082813626038
 31
0.0
  0
LINE
  5
8DA
330
306
100
AcDbEntity
  8
____1
  6
Continuous
 62
     0
100
AcDbLine
 10
1072.706921021245
 20
755.1819328600696
 30
0.0
 11
1067.756921021245
 21
746.6082813626038
 31
0.0
  0
LINE
  5
8DB
330
306
100
AcDbEntity
  8
____1
  6
Continuous
 62
     0
100
AcDbLine
 10
1063.27549179333
 20
705.8466978605975
 30
0.0
 11
1063.27549179333
 21
755.8466978605972
 31
0.0
  0
LINE
  5
8DC
330
306
100
AcDbEntity
  8
____1
  6
Continuous
 62
     0
100
AcDbLine
 10
1083.27549179333
 20
705.8466978605975
 30
0.0
 11
1083.27549179333
 21
755.8466978605972
 31
0.0
  0
LINE
  5
8DD
330
306
100
AcDbEntity
  8
____1
  6
Continuous
 62
     0
100
AcDbLine
 10
1123.27549179333
 20
725.8466978605973
 30
0.0
 11
1123.27549179333
 21
755.8466978605972
 31
0.0
  0
LINE
  5
8DE
330
306
100
AcDbEntity
  8
____1
  6
Continuous
 62
     0
100
AcDbLine
 10
1123.27549179333
 20
705.8466978605975
 30
0.0
 11
1123.27549179333
 21
755.8466978605972
 31
0.0
  0
TEXT
  5
8DF
330
306
100
AcDbEntity
  8
____1
  6
Continuous
 62
     0
100
AcDbText
 10
1158.581049044306
 20
748.2962858004715
 30
0.0
 40
4.93888874053955
  1
改　訂　内　容
  7
STYLE1
100
AcDbText
  0
TEXT
  5
8E0
330
306
100
AcDbEntity
  8
____1
  6
Continuous
 62
     0
100
AcDbText
 10
1133.886604387934
 20
738.3671348017972
 30
0.0
 40
4.93888874053955
  1
色変更アイボリー → ホワイト
  7
STYLE1
100
AcDbText
  0
TEXT
  5
8E2
330
306
100
AcDbEntity
  8
____1
  6
Continuous
 62
     0
100
AcDbText
 10
1144.46993835705
 20
728.3671348017973
 30
0.0
 40
4.93888874053955
  1
品番変更　LY634→LY834
  7
STYLE1
100
AcDbText
  0
TEXT
  5
8E3
330
306
100
AcDbEntity
  8
____1
  6
Continuous
 62
     0
100
AcDbText
 10
1092.692158777887
 20
728.3671348017973
 30
0.0
 40
4.93888874053955
  1
H22.12
  7
STYLE1
100
AcDbText
  0
TEXT
  5
8F0
330
306
100
AcDbEntity
  8
____1
  6
Continuous
 62
     0
100
AcDbText
 10
1071.243599202012
 20
737.8082299907195
 30
0.0
 40
4.682630310058594
  1
1
  7
STYLE1
100
AcDbText
  0
LINE
  5
8F1
330
306
100
AcDbEntity
  8
____1
  6
Continuous
 62
     0
100
AcDbLine
 10
1067.756921021245
 20
736.7082813626037
 30
0.0
 11
1077.656921021245
 21
736.7082813626037
 31
0.0
  0
LINE
  5
8F2
330
306
100
AcDbEntity
  8
____1
  6
Continuous
 62
     0
100
AcDbLine
 10
1072.706921021245
 20
745.2819328600697
 30
0.0
 11
1077.656921021245
 21
736.7082813626037
 31
0.0
  0
LINE
  5
8F3
330
306
100
AcDbEntity
  8
____1
  6
Continuous
 62
     0
100
AcDbLine
 10
1072.706921021245
 20
745.2819328600697
 30
0.0
 11
1067.756921021245
 21
736.7082813626037
 31
0.0
  0
LINE
  5
8F4
330
306
100
AcDbEntity
  8
____1
  6
Continuous
 62
     0
100
AcDbLine
 10
1072.706921021245
 20
735.2819328600698
 30
0.0
 11
1067.756921021245
 21
726.7082813626038
 31
0.0
  0
LINE
  5
8F5
330
306
100
AcDbEntity
  8
____1
  6
Continuous
 62
     0
100
AcDbLine
 10
1072.706921021245
 20
735.2819328600698
 30
0.0
 11
1077.656921021245
 21
726.7082813626038
 31
0.0
  0
LINE
  5
8F6
330
306
100
AcDbEntity
  8
____1
  6
Continuous
 62
     0
100
AcDbLine
 10
1067.756921021245
 20
726.7082813626038
 30
0.0
 11
1077.656921021245
 21
726.7082813626038
 31
0.0
  0
TEXT
  5
8F7
330
306
100
AcDbEntity
  8
____1
  6
Continuous
 62
     0
100
AcDbText
 10
1071.243599202011
 20
727.8082299907198
 30
0.0
 40
4.682630310058594
  1
2
  7
STYLE1
100
AcDbText
  0
TEXT
  5
8F8
330
306
100
AcDbEntity
  8
____1
  6
Continuous
 62
     0
100
AcDbText
 10
1127.940727756135
 20
718.3671348017973
 30
0.0
 40
4.93888874053955
  1
ﾈｼﾞ仕様変更（木ﾈｼﾞ ⇒ 皿ﾀｯﾋﾟﾝﾈｼﾞ）
  7
STYLE1
100
AcDbText
  0
LINE
  5
8F9
330
306
100
AcDbEntity
  8
____1
  6
Continuous
 62
     0
100
AcDbLine
 10
1063.27549179333
 20
715.8466978605974
 30
0.0
 11
1243.275491793329
 21
715.8466978605974
 31
0.0
  0
TEXT
  5
8FA
330
306
100
AcDbEntity
  8
____1
  6
Continuous
 62
     0
100
AcDbText
 10
1092.692158777887
 20
718.3671348017973
 30
0.0
 40
4.93888874053955
  1
H25.03
  7
STYLE1
100
AcDbText
  0
TEXT
  5
8FB
330
306
100
AcDbEntity
  8
____1
  6
Continuous
 62
     0
100
AcDbText
 10
1071.243599202011
 20
717.8082299907199
 30
0.0
 40
4.682630310058594
  1
3
  7
STYLE1
100
AcDbText
  0
LINE
  5
8FC
330
306
100
AcDbEntity
  8
____1
  6
Continuous
 62
     0
100
AcDbLine
 10
1072.706921021245
 20
725.28193286007
 30
0.0
 11
1077.656921021245
 21
716.708281362604
 31
0.0
  0
LINE
  5
8FD
330
306
100
AcDbEntity
  8
____1
  6
Continuous
 62
     0
100
AcDbLine
 10
1072.706921021245
 20
725.28193286007
 30
0.0
 11
1067.756921021245
 21
716.708281362604
 31
0.0
  0
LINE
  5
8FE
330
306
100
AcDbEntity
  8
____1
  6
Continuous
 62
     0
100
AcDbLine
 10
1067.756921021245
 20
716.708281362604
 30
0.0
 11
1077.656921021245
 21
716.708281362604
 31
0.0
  0
LWPOLYLINE
  5
903
330
306
100
AcDbEntity
  8
DEFPOINTS
100
AcDbPolyline
 90
        4
 70
     1
 43
0.0
 10
1265.270491793327
 20
771.1966978605974
 10
423.2754917933294
 20
771.1966978605974
 10
423.2754917933294
 20
175.8466978605972
 10
1265.270491793327
 20
175.8466978605972
  0
LINE
  5
A3D
330
306
100
AcDbEntity
  8
0
  6
Continuous
 62
     5
100
AcDbLine
 10
1128.270869397496
 20
539.6154231279228
 30
0.0
 11
1128.270869397496
 21
500.2316587677411
 31
0.0
  0
LINE
  5
A3E
330
306
100
AcDbEntity
  8
0
  6
Continuous
 62
     5
100
AcDbLine
 10
830.7397158401222
 20
655.2316587677412
 30
0.0
 11
912.7315892054378
 21
655.2316587677412
 31
0.0
  0
LINE
  5
A3F
330
306
100
AcDbEntity
  8
0
  6
Continuous
 62
     5
100
AcDbLine
 10
830.7397158401222
 20
652.2316583023257
 30
0.0
 11
830.7397158401222
 21
655.2316587677412
 31
0.0
  0
ARC
  5
A40
330
306
100
AcDbEntity
  8
0
  6
Continuous
 62
     5
100
AcDbCircle
 10
833.7397158401222
 20
652.2316587677412
 30
0.0
 40
2.999999999999922
100
AcDbArc
 50
180.0000088887812
 51
252.7386287740821
  0
ARC
  5
A41
330
306
100
AcDbEntity
  8
0
  6
Continuous
 62
     5
100
AcDbCircle
 10
536.1184150328702
 20
-305.594296876496
 30
0.0
 40
1032.0
100
AcDbArc
 50
54.98498126844314
 51
68.59640229472382
  0
ARC
  5
A42
330
306
100
AcDbEntity
  8
0
  6
Continuous
 62
     5
100
AcDbCircle
 10
536.1184150328702
 20
-305.594296876496
 30
0.0
 40
999.9999999999992
100
AcDbArc
 50
53.69009786742961
 51
72.73862877407932
  0
TEXT
  5
A43
330
306
100
AcDbEntity
  8
寸法線_1
  6
Continuous
 62
     7
100
AcDbText
 10
1108.078754168584
 20
640.3883506988758
 30
0.0000000000000001
 40
7.055555343627929
  1
90ﾟ
 50
318.5096828392217
  7
STYLE1
100
AcDbText
  0
LINE
  5
A44
330
306
100
AcDbEntity
  8
寸法線_1
  6
Continuous
 62
     7
100
AcDbLine
 10
736.7708693974959
 20
655.231658767741
 30
0.0000000000000001
 11
1104.629480708169
 21
655.231658767741
 31
0.0000000000000001
  0
LINE
  5
A45
330
306
100
AcDbEntity
  8
寸法線_1
  6
Continuous
 62
     7
100
AcDbLine
 10
1128.270869397496
 20
463.731658767741
 30
0.0000000000000001
 11
1128.270869397496
 21
631.5902700784143
 31
0.0000000000000001
  0
SOLID
  5
A46
330
306
100
AcDbEntity
  8
寸法線_1
  6
Continuous
 62
     7
100
AcDbTrace
 10
1100.091012665741
 20
650.7667459271565
 30
0.0000000000000001
 11
1102.360932619395
 21
650.7667459271565
 31
0.0000000000000001
 12
1100.629480708169
 22
655.231658767741
 32
0.0000000000000001
 13
1100.629480708169
 23
655.231658767741
 33
0.0000000000000001
  0
SOLID
  5
A47
330
306
100
AcDbEntity
  8
寸法線_1
  6
Continuous
 62
     7
100
AcDbTrace
 10
1102.865585705707
 20
649.4653918262975
 30
0.0000000000000001
 11
1102.865585705707
 21
649.4653918262975
 31
0.0000000000000001
 12
1101.190331246177
 22
650.7667459271565
 32
0.0000000000000001
 13
1102.360932619395
 23
650.7667459271565
 33
0.0000000000000001
  0
SOLID
  5
A48
330
306
100
AcDbEntity
  8
寸法線_1
  6
Continuous
 62
     7
100
AcDbTrace
 10
1099.934069491212
 20
649.4653918262975
 30
0.0000000000000001
 11
1100.179426612442
 21
649.4653918262975
 31
0.0000000000000001
 12
1100.091012665741
 22
650.7667459271565
 32
0.0000000000000001
 13
1101.190331246177
 23
650.7667459271565
 33
0.0000000000000001
  0
SOLID
  5
A49
330
306
100
AcDbEntity
  8
寸法線_1
  6
Continuous
 62
     7
100
AcDbTrace
 10
1099.888977145317
 20
649.0914914676259
 30
0.0000000000000001
 11
1099.888977145317
 21
649.0914914676259
 31
0.0000000000000001
 12
1099.934069491212
 22
649.4653918262975
 32
0.0000000000000001
 13
1100.179426612442
 23
649.4653918262975
 33
0.0000000000000001
  0
ARC
  5
A4A
330
306
100
AcDbEntity
  8
寸法線_1
  6
Continuous
 62
     7
100
AcDbCircle
 10
1128.270869397496
 20
655.231658767741
 30
0.0000000000000001
 40
27.64138868932673
100
AcDbArc
 50
180.0
 51
245.3963571759622
  0
SOLID
  5
A4B
330
306
100
AcDbEntity
  8
寸法線_1
  6
Continuous
 62
     7
100
AcDbTrace
 10
1123.805956556911
 20
628.1511206164216
 30
0.0000000000000001
 11
1126.824598350312
 21
628.1511206164216
 31
0.0000000000000001
 12
1122.504602456052
 22
629.8263750759522
 32
0.0000000000000001
 13
1122.504602456052
 23
629.8263750759522
 33
0.0000000000000001
  0
SOLID
  5
A4C
330
306
100
AcDbEntity
  8
寸法線_1
  6
Continuous
 62
     7
100
AcDbTrace
 10
1123.083964468588
 20
627.5902700784143
 30
0.0000000000000001
 11
1128.270869397496
 21
627.5902700784143
 31
0.0000000000000001
 12
1123.805956556911
 22
628.1511206164216
 32
0.0000000000000001
 13
1126.824598350312
 23
628.1511206164216
 33
0.0000000000000001
  0
SOLID
  5
A4D
330
306
100
AcDbEntity
  8
寸法線_1
  6
Continuous
 62
     7
100
AcDbTrace
 10
1122.130702097381
 20
626.8497665155625
 30
0.0000000000000001
 11
1122.130702097381
 21
626.8497665155625
 31
0.0000000000000001
 12
1123.083964468588
 22
627.5902700784143
 32
0.0000000000000001
 13
1128.270869397496
 23
627.5902700784143
 33
0.0000000000000001
  0
ARC
  5
A4E
330
306
100
AcDbEntity
  8
寸法線_1
  6
Continuous
 62
     7
100
AcDbCircle
 10
1128.270869397496
 20
655.231658767741
 30
0.0000000000000001
 40
27.64138868932684
100
AcDbArc
 50
211.6230085024812
 51
270.0
  0
TEXT
  5
A4F
330
306
100
AcDbEntity
  8
寸法線_1
  6
Continuous
 62
     7
100
AcDbText
 10
709.9919342432169
 20
561.3566592445782
 30
0.0000000000000001
 40
7.055555343627929
  1
補強(155)
 50
90.0
  7
STYLE1
100
AcDbText
  0
LINE
  5
A50
330
306
100
AcDbEntity
  8
寸法線_1
  6
Continuous
 62
     7
100
AcDbLine
 10
712.0208693974961
 20
654.7316587677411
 30
0.0000000000000001
 11
712.0208693974961
 21
577.2316587677411
 31
0.0000000000000001
  0
SOLID
  5
A51
330
306
100
AcDbEntity
  8
寸法線_1
  6
Continuous
 62
     7
100
AcDbTrace
 10
710.8958693974962
 20
650.2316587677411
 30
0.0000000000000001
 11
713.1458693974962
 21
650.2316587677411
 31
0.0000000000000001
 12
712.0208693974961
 22
654.7316587677411
 32
0.0000000000000001
 13
712.0208693974961
 23
654.7316587677411
 33
0.0000000000000001
  0
SOLID
  5
A52
330
306
100
AcDbEntity
  8
寸法線_1
  6
Continuous
 62
     7
100
AcDbTrace
 10
713.5208693974962
 20
648.7316587677411
 30
0.0000000000000001
 11
713.5208693974962
 21
648.7316587677411
 31
0.0000000000000001
 12
712.0208693974961
 22
650.2316587677411
 32
0.0000000000000001
 13
713.1458693974962
 23
650.2316587677411
 33
0.0000000000000001
  0
SOLID
  5
A53
330
306
100
AcDbEntity
  8
寸法線_1
  6
Continuous
 62
     7
100
AcDbTrace
 10
710.5208693974962
 20
648.7316587677411
 30
0.0000000000000001
 11
710.5208693974962
 21
648.7316587677411
 31
0.0000000000000001
 12
710.8958693974962
 22
650.2316587677411
 32
0.0000000000000001
 13
712.0208693974961
 23
650.2316587677411
 33
0.0000000000000001
  0
LINE
  5
A54
330
306
100
AcDbEntity
  8
寸法線_1
  6
Continuous
 62
     7
100
AcDbLine
 10
712.0208693974961
 20
499.7316587677411
 30
0.0000000000000001
 11
712.0208693974961
 21
577.2316587677411
 31
0.0000000000000001
  0
SOLID
  5
A55
330
306
100
AcDbEntity
  8
寸法線_1
  6
Continuous
 62
     7
100
AcDbTrace
 10
712.0208693974961
 20
504.2316587677411
 30
0.0000000000000001
 11
713.1458693974962
 21
504.2316587677411
 31
0.0000000000000001
 12
713.5208693974962
 22
505.7316587677411
 32
0.0000000000000001
 13
713.5208693974962
 23
505.7316587677411
 33
0.0000000000000001
  0
SOLID
  5
A56
330
306
100
AcDbEntity
  8
寸法線_1
  6
Continuous
 62
     7
100
AcDbTrace
 10
710.8958693974962
 20
504.2316587677411
 30
0.0000000000000001
 11
712.0208693974961
 21
504.2316587677411
 31
0.0000000000000001
 12
710.5208693974962
 22
505.7316587677411
 32
0.0000000000000001
 13
710.5208693974962
 23
505.7316587677411
 33
0.0000000000000001
  0
SOLID
  5
A57
330
306
100
AcDbEntity
  8
寸法線_1
  6
Continuous
 62
     7
100
AcDbTrace
 10
712.0208693974961
 20
499.7316587677411
 30
0.0000000000000001
 11
712.0208693974961
 21
499.7316587677411
 31
0.0000000000000001
 12
710.8958693974962
 22
504.2316587677411
 32
0.0000000000000001
 13
713.1458693974962
 23
504.2316587677411
 33
0.0000000000000001
  0
LINE
  5
A58
330
306
100
AcDbEntity
  8
寸法線_1
  6
Continuous
 62
     7
100
AcDbLine
 10
1126.770869397496
 20
499.7316587677411
 30
0.0000000000000001
 11
711.5208693974961
 21
499.7316587677411
 31
0.0000000000000001
  0
LINE
  5
A59
330
306
100
AcDbEntity
  8
寸法線_1
  6
Continuous
 62
     7
100
AcDbLine
 10
731.0208693974959
 20
654.7316587677411
 30
0.0000000000000001
 11
711.5208693974961
 21
654.7316587677411
 31
0.0000000000000001
  0
TEXT
  5
A5A
330
306
100
AcDbEntity
  8
寸法線_1
  6
Continuous
 62
     7
100
AcDbText
 10
990.3975915068972
 20
531.5953017216799
 30
0.0000000000000001
 40
7.055555343627929
  1
(R1000)
 50
49.21017103608097
  7
STYLE1
100
AcDbText
  0
LINE
  5
A5B
330
306
100
AcDbEntity
  8
寸法線_1
  6
Continuous
 62
     7
100
AcDbLine
 10
1024.298312045149
 20
567.14872839101
 30
0.0000000000000001
 11
992.2449774348001
 21
530.0012531641431
 31
0.0000000000000001
  0
SOLID
  5
A5C
330
306
100
AcDbEntity
  8
寸法線_1
  6
Continuous
 62
     7
100
AcDbTrace
 10
1019.463913234267
 20
563.7417287214192
 30
0.0000000000000001
 11
1022.580775459882
 21
563.7417287214192
 31
0.0000000000000001
 12
1024.298312045149
 22
567.14872839101
 32
0.0000000000000001
 13
1024.298312045149
 23
567.14872839101
 33
0.0000000000000001
  0
SOLID
  5
A5D
330
306
100
AcDbEntity
  8
寸法線_1
  6
Continuous
 62
     7
100
AcDbTrace
 10
1021.369988508241
 20
563.5859914849823
 30
0.0000000000000001
 11
1022.50226520828
 21
563.5859914849823
 31
0.0000000000000001
 12
1021.358524084869
 22
563.7417287214192
 32
0.0000000000000001
 13
1022.580775459882
 23
563.7417287214192
 33
0.0000000000000001
  0
SOLID
  5
A5E
330
306
100
AcDbEntity
  8
寸法線_1
  6
Continuous
 62
     7
100
AcDbTrace
 10
1019.242928208246
 20
563.5859914849823
 30
0.0000000000000001
 11
1019.242928208246
 21
563.5859914849823
 31
0.0000000000000001
 12
1019.463913234267
 22
563.7417287214192
 32
0.0000000000000001
 13
1021.358524084869
 23
563.7417287214192
 33
0.0000000000000001
  0
SOLID
  5
A5F
330
306
100
AcDbEntity
  8
寸法線_1
  6
Continuous
 62
     7
100
AcDbTrace
 10
1021.514261321306
 20
561.6261328447954
 30
0.0000000000000001
 11
1021.514261321306
 21
561.6261328447954
 31
0.0000000000000001
 12
1021.369988508241
 22
563.5859914849823
 32
0.0000000000000001
 13
1022.50226520828
 23
563.5859914849823
 33
0.0000000000000001
  0
TEXT
  5
A60
330
306
100
AcDbEntity
  8
寸法線_1
  6
Continuous
 62
     7
100
AcDbText
 10
1007.164883408531
 20
590.2407995840206
 30
0.0000000000000001
 40
7.055555343627929
  1
32
 50
61.96880560427413
  7
STYLE1
100
AcDbText
  0
LINE
  5
A61
330
306
100
AcDbEntity
  8
寸法線_1
  6
Continuous
 62
     7
100
AcDbLine
 10
1018.300489631734
 20
606.8390273698248
 30
0.0000000000000001
 11
1010.61369486643
 21
592.4012376622551
 31
0.0000000000000001
  0
SOLID
  5
A62
330
306
100
AcDbEntity
  8
寸法線_1
  6
Continuous
 62
     7
100
AcDbTrace
 10
1014.715508137518
 20
602.8669139971007
 30
0.0000000000000001
 11
1017.310502323253
 21
602.8669139971007
 31
0.0000000000000001
 12
1018.300489631734
 22
606.8390273698248
 32
0.0000000000000001
 13
1018.300489631734
 23
606.8390273698248
 33
0.0000000000000001
  0
SOLID
  5
A63
330
306
100
AcDbEntity
  8
寸法線_1
  6
Continuous
 62
     7
100
AcDbTrace
 10
1016.374616934994
 20
602.247804520454
 30
0.0000000000000001
 11
1017.156198941922
 21
602.247804520454
 31
0.0000000000000001
 12
1016.18570468895
 22
602.8669139971007
 32
0.0000000000000001
 13
1017.310502323253
 23
602.8669139971007
 33
0.0000000000000001
  0
SOLID
  5
A64
330
306
100
AcDbEntity
  8
寸法線_1
  6
Continuous
 62
     7
100
AcDbTrace
 10
1014.156738583781
 20
602.247804520454
 30
0.0000000000000001
 11
1014.156738583781
 21
602.247804520454
 31
0.0000000000000001
 12
1014.715508137518
 22
602.8669139971007
 32
0.0000000000000001
 13
1016.18570468895
 23
602.8669139971007
 33
0.0000000000000001
  0
SOLID
  5
A65
330
306
100
AcDbEntity
  8
寸法線_1
  6
Continuous
 62
     7
100
AcDbTrace
 10
1016.804814165597
 20
600.8379478919313
 30
0.0000000000000001
 11
1016.804814165597
 21
600.8379478919313
 31
0.0000000000000001
 12
1016.374616934994
 22
602.247804520454
 32
0.0000000000000001
 13
1017.156198941922
 23
602.247804520454
 33
0.0000000000000001
  0
LINE
  5
A66
330
306
100
AcDbEntity
  8
寸法線_1
  6
Continuous
 62
     7
100
AcDbLine
 10
1003.262018927491
 20
578.5928878304537
 30
0.0000000000000001
 11
1010.61369486643
 21
592.4012376622551
 31
0.0000000000000001
  0
SOLID
  5
A67
330
306
100
AcDbEntity
  8
寸法線_1
  6
Continuous
 62
     7
100
AcDbTrace
 10
1004.406309617303
 20
583.1841106798244
 30
0.0000000000000001
 11
1005.187891624232
 21
583.1841106798244
 31
0.0000000000000001
 12
1004.757694393629
 22
584.5939673083472
 32
0.0000000000000001
 13
1004.757694393629
 23
584.5939673083472
 33
0.0000000000000001
  0
SOLID
  5
A68
330
306
100
AcDbEntity
  8
寸法線_1
  6
Continuous
 62
     7
100
AcDbTrace
 10
1005.376803870276
 20
582.5650012031778
 30
0.0000000000000001
 11
1006.847000421707
 21
582.5650012031778
 31
0.0000000000000001
 12
1007.405769975445
 22
583.1841106798244
 32
0.0000000000000001
 13
1007.405769975445
 23
583.1841106798244
 33
0.0000000000000001
  0
SOLID
  5
A69
330
306
100
AcDbEntity
  8
寸法線_1
  6
Continuous
 62
     7
100
AcDbTrace
 10
1004.252006235972
 20
582.5650012031778
 30
0.0000000000000001
 11
1005.376803870276
 21
582.5650012031778
 31
0.0000000000000001
 12
1004.406309617303
 22
583.1841106798244
 32
0.0000000000000001
 13
1005.187891624232
 23
583.1841106798244
 33
0.0000000000000001
  0
SOLID
  5
A6A
330
306
100
AcDbEntity
  8
寸法線_1
  6
Continuous
 62
     7
100
AcDbTrace
 10
1003.262018927491
 20
578.5928878304537
 30
0.0000000000000001
 11
1003.262018927491
 21
578.5928878304537
 31
0.0000000000000001
 12
1004.252006235972
 22
582.5650012031778
 32
0.0000000000000001
 13
1006.847000421707
 23
582.5650012031778
 33
0.0000000000000001
  0
LINE
  5
A6B
330
306
100
AcDbEntity
  8
寸法線_1
  6
Continuous
 62
     7
100
AcDbLine
 10
1005.187932679864
 20
577.5675159383554
 30
0.0000000000000001
 11
1002.820672997189
 21
578.8278639352076
 31
0.0000000000000001
  0
LINE
  5
A6C
330
306
100
AcDbEntity
  8
寸法線_1
  6
Continuous
 62
     7
100
AcDbLine
 10
1020.226403384107
 20
605.8136554777264
 30
0.0000000000000001
 11
1017.859143701432
 21
607.0740034745786
 31
0.0000000000000001
  0
TEXT
  5
A6D
330
306
100
AcDbEntity
  8
寸法線_1
  6
Continuous
 62
     7
100
AcDbText
 10
963.1302930956465
 20
441.7605939220202
 30
0.0000000000000001
 40
7.055555343627929
  1
補強(300)
  7
STYLE1
100
AcDbText
  0
LINE
  5
A6E
330
306
100
AcDbEntity
  8
寸法線_1
  6
Continuous
 62
     7
100
AcDbLine
 10
830.2397158401227
 20
439.7316587677411
 30
0.0000000000000001
 11
979.0052926188096
 21
439.7316587677411
 31
0.0000000000000001
  0
SOLID
  5
A6F
330
306
100
AcDbEntity
  8
寸法線_1
  6
Continuous
 62
     7
100
AcDbTrace
 10
830.2397158401227
 20
439.7316587677411
 30
0.0000000000000001
 11
834.7397158401227
 21
439.7316587677411
 31
0.0000000000000001
 12
836.2397158401227
 22
441.2316587677411
 32
0.0000000000000001
 13
836.2397158401227
 23
441.2316587677411
 33
0.0000000000000001
  0
SOLID
  5
A70
330
306
100
AcDbEntity
  8
寸法線_1
  6
Continuous
 62
     7
100
AcDbTrace
 10
836.2397158401227
 20
438.2316587677411
 30
0.0000000000000001
 11
836.2397158401227
 21
438.2316587677411
 31
0.0000000000000001
 12
830.2397158401227
 22
439.7316587677411
 32
0.0000000000000001
 13
834.7397158401227
 23
439.7316587677411
 33
0.0000000000000001
  0
LINE
  5
A71
330
306
100
AcDbEntity
  8
寸法線_1
  6
Continuous
 62
     7
100
AcDbLine
 10
1127.770869397496
 20
439.7316587677411
 30
0.0000000000000001
 11
979.0052926188096
 21
439.7316587677411
 31
0.0000000000000001
  0
SOLID
  5
A72
330
306
100
AcDbEntity
  8
寸法線_1
  6
Continuous
 62
     7
100
AcDbTrace
 10
1123.270869397496
 20
439.7316587677411
 30
0.0000000000000001
 11
1127.770869397496
 21
439.7316587677411
 31
0.0000000000000001
 12
1121.770869397496
 22
441.2316587677411
 32
0.0000000000000001
 13
1121.770869397496
 23
441.2316587677411
 33
0.0000000000000001
  0
SOLID
  5
A73
330
306
100
AcDbEntity
  8
寸法線_1
  6
Continuous
 62
     7
100
AcDbTrace
 10
1121.770869397496
 20
438.2316587677411
 30
0.0000000000000001
 11
1121.770869397496
 21
438.2316587677411
 31
0.0000000000000001
 12
1123.270869397496
 22
439.7316587677411
 32
0.0000000000000001
 13
1127.770869397496
 23
439.7316587677411
 33
0.0000000000000001
  0
LINE
  5
A74
330
306
100
AcDbEntity
  8
寸法線_1
  6
Continuous
 62
     7
100
AcDbLine
 10
1127.770869397496
 20
458.7316587677411
 30
0.0000000000000001
 11
1127.770869397496
 21
439.2316587677411
 31
0.0000000000000001
  0
LINE
  5
A75
330
306
100
AcDbEntity
  8
寸法線_1
  6
Continuous
 62
     7
100
AcDbLine
 10
830.2397158401227
 20
653.7316587677412
 30
0.0000000000000001
 11
830.2397158401227
 21
439.2316587677411
 31
0.0000000000000001
  0
TEXT
  5
A76
330
306
100
AcDbEntity
  8
寸法線_1
  6
Continuous
 62
     7
100
AcDbText
 10
979.9792028897762
 20
325.0270197297557
 30
0.0000000000000001
 40
7.055555343627929
  1
155
  7
STYLE1
100
AcDbText
  0
LINE
  5
A77
330
306
100
AcDbEntity
  8
寸法線_1
  6
Continuous
 62
     7
100
AcDbLine
 10
1062.770869397497
 20
322.9980845754766
 30
0.0000000000000001
 11
985.2708693974973
 21
322.9980845754766
 31
0.0000000000000001
  0
SOLID
  5
A78
330
306
100
AcDbEntity
  8
寸法線_1
  6
Continuous
 62
     7
100
AcDbTrace
 10
1058.270869397497
 20
322.9980845754766
 30
0.0000000000000001
 11
1062.770869397497
 21
322.9980845754766
 31
0.0000000000000001
 12
1056.770869397497
 22
324.4980845754766
 32
0.0000000000000001
 13
1056.770869397497
 23
324.4980845754766
 33
0.0000000000000001
  0
SOLID
  5
A79
330
306
100
AcDbEntity
  8
寸法線_1
  6
Continuous
 62
     7
100
AcDbTrace
 10
1056.770869397497
 20
321.4980845754766
 30
0.0000000000000001
 11
1056.770869397497
 21
321.4980845754766
 31
0.0000000000000001
 12
1058.270869397497
 22
322.9980845754766
 32
0.0000000000000001
 13
1062.770869397497
 23
322.9980845754766
 33
0.0000000000000001
  0
LINE
  5
A7A
330
306
100
AcDbEntity
  8
寸法線_1
  6
Continuous
 62
     7
100
AcDbLine
 10
907.7708693974972
 20
322.9980845754766
 30
0.0000000000000001
 11
985.2708693974973
 21
322.9980845754766
 31
0.0000000000000001
  0
SOLID
  5
A7B
330
306
100
AcDbEntity
  8
寸法線_1
  6
Continuous
 62
     7
100
AcDbTrace
 10
907.7708693974972
 20
322.9980845754766
 30
0.0000000000000001
 11
912.2708693974972
 21
322.9980845754766
 31
0.0000000000000001
 12
913.7708693974973
 22
324.4980845754766
 32
0.0000000000000001
 13
913.7708693974973
 23
324.4980845754766
 33
0.0000000000000001
  0
SOLID
  5
A7C
330
306
100
AcDbEntity
  8
寸法線_1
  6
Continuous
 62
     7
100
AcDbTrace
 10
913.7708693974973
 20
321.4980845754766
 30
0.0000000000000001
 11
913.7708693974973
 21
321.4980845754766
 31
0.0000000000000001
 12
907.7708693974972
 22
322.9980845754766
 32
0.0000000000000001
 13
912.2708693974972
 23
322.9980845754766
 33
0.0000000000000001
  0
LINE
  5
A7D
330
306
100
AcDbEntity
  8
寸法線_1
  6
Continuous
 62
     7
100
AcDbLine
 10
907.7708693974972
 20
347.6819843189304
 30
0.0000000000000001
 11
907.7708693974972
 21
322.4980845754766
 31
0.0000000000000001
  0
LINE
  5
A7E
330
306
100
AcDbEntity
  8
寸法線_1
  6
Continuous
 62
     7
100
AcDbLine
 10
1062.770869397497
 20
369.6819843189305
 30
0.0000000000000001
 11
1062.770869397497
 21
322.4980845754766
 31
0.0000000000000001
  0
TEXT
  5
A7F
330
306
100
AcDbEntity
  8
寸法線_1
  6
Continuous
 62
     7
100
AcDbText
 10
824.9792028897761
 20
325.0270197297557
 30
0.0000000000000001
 40
7.055555343627929
  1
155
  7
STYLE1
100
AcDbText
  0
LINE
  5
A80
330
306
100
AcDbEntity
  8
寸法線_1
  6
Continuous
 62
     7
100
AcDbLine
 10
907.7708693974972
 20
322.9980845754766
 30
0.0000000000000001
 11
830.2708693974969
 21
322.9980845754766
 31
0.0000000000000001
  0
SOLID
  5
A81
330
306
100
AcDbEntity
  8
寸法線_1
  6
Continuous
 62
     7
100
AcDbTrace
 10
903.2708693974973
 20
322.9980845754766
 30
0.0000000000000001
 11
907.7708693974972
 21
322.9980845754766
 31
0.0000000000000001
 12
901.7708693974974
 22
324.4980845754766
 32
0.0000000000000001
 13
901.7708693974974
 23
324.4980845754766
 33
0.0000000000000001
  0
SOLID
  5
A82
330
306
100
AcDbEntity
  8
寸法線_1
  6
Continuous
 62
     7
100
AcDbTrace
 10
901.7708693974974
 20
321.4980845754766
 30
0.0000000000000001
 11
901.7708693974974
 21
321.4980845754766
 31
0.0000000000000001
 12
903.2708693974973
 22
322.9980845754766
 32
0.0000000000000001
 13
907.7708693974972
 23
322.9980845754766
 33
0.0000000000000001
  0
LINE
  5
A83
330
306
100
AcDbEntity
  8
寸法線_1
  6
Continuous
 62
     7
100
AcDbLine
 10
752.7708693974968
 20
322.9980845754766
 30
0.0000000000000001
 11
830.2708693974969
 21
322.9980845754766
 31
0.0000000000000001
  0
SOLID
  5
A84
330
306
100
AcDbEntity
  8
寸法線_1
  6
Continuous
 62
     7
100
AcDbTrace
 10
752.7708693974968
 20
322.9980845754766
 30
0.0000000000000001
 11
757.2708693974968
 21
322.9980845754766
 31
0.0000000000000001
 12
758.7708693974969
 22
324.4980845754766
 32
0.0000000000000001
 13
758.7708693974969
 23
324.4980845754766
 33
0.0000000000000001
  0
SOLID
  5
A85
330
306
100
AcDbEntity
  8
寸法線_1
  6
Continuous
 62
     7
100
AcDbTrace
 10
758.7708693974969
 20
321.4980845754766
 30
0.0000000000000001
 11
758.7708693974969
 21
321.4980845754766
 31
0.0000000000000001
 12
752.7708693974968
 22
322.9980845754766
 32
0.0000000000000001
 13
757.2708693974968
 23
322.9980845754766
 33
0.0000000000000001
  0
LINE
  5
A86
330
306
100
AcDbEntity
  8
寸法線_1
  6
Continuous
 62
     7
100
AcDbLine
 10
752.7708693974968
 20
358.6819843189305
 30
0.0000000000000001
 11
752.7708693974968
 21
322.4980845754766
 31
0.0000000000000001
  0
LINE
  5
A87
330
306
100
AcDbEntity
  8
寸法線_1
  6
Continuous
 62
     7
100
AcDbLine
 10
907.7708693974972
 20
347.6819843189304
 30
0.0000000000000001
 11
907.7708693974972
 21
322.4980845754766
 31
0.0000000000000001
  0
TEXT
  5
A88
330
306
100
AcDbEntity
  8
寸法線_1
  6
Continuous
 62
     7
100
AcDbText
 10
1188.058317605033
 20
363.6542066471165
 30
0.0000000000000001
 40
7.055555343627929
  1
38
 50
90.0
  7
STYLE1
100
AcDbText
  0
LINE
  5
A89
330
306
100
AcDbEntity
  8
寸法線_1
  6
Continuous
 62
     7
100
AcDbLine
 10
1190.087252759312
 20
348.1819843189305
 30
0.0000000000000001
 11
1190.087252759312
 21
367.1819843189305
 31
0.0000000000000001
  0
SOLID
  5
A8A
330
306
100
AcDbEntity
  8
寸法線_1
  6
Continuous
 62
     7
100
AcDbTrace
 10
1190.087252759312
 20
352.6819843189305
 30
0.0000000000000001
 11
1191.212252759312
 21
352.6819843189305
 31
0.0000000000000001
 12
1191.587252759312
 22
354.1819843189305
 32
0.0000000000000001
 13
1191.587252759312
 23
354.1819843189305
 33
0.0000000000000001
  0
SOLID
  5
A8B
330
306
100
AcDbEntity
  8
寸法線_1
  6
Continuous
 62
     7
100
AcDbTrace
 10
1188.962252759312
 20
352.6819843189305
 30
0.0000000000000001
 11
1190.087252759312
 21
352.6819843189305
 31
0.0000000000000001
 12
1188.587252759312
 22
354.1819843189305
 32
0.0000000000000001
 13
1188.587252759312
 23
354.1819843189305
 33
0.0000000000000001
  0
SOLID
  5
A8C
330
306
100
AcDbEntity
  8
寸法線_1
  6
Continuous
 62
     7
100
AcDbTrace
 10
1190.087252759312
 20
348.1819843189305
 30
0.0000000000000001
 11
1190.087252759312
 21
348.1819843189305
 31
0.0000000000000001
 12
1188.962252759312
 22
352.6819843189305
 32
0.0000000000000001
 13
1191.212252759312
 23
352.6819843189305
 33
0.0000000000000001
  0
LINE
  5
A8D
330
306
100
AcDbEntity
  8
寸法線_1
  6
Continuous
 62
     7
100
AcDbLine
 10
1190.087252759312
 20
386.1819843189305
 30
0.0000000000000001
 11
1190.087252759312
 21
367.1819843189305
 31
0.0000000000000001
  0
SOLID
  5
A8E
330
306
100
AcDbEntity
  8
寸法線_1
  6
Continuous
 62
     7
100
AcDbTrace
 10
1188.962252759312
 20
381.6819843189305
 30
0.0000000000000001
 11
1191.212252759312
 21
381.6819843189305
 31
0.0000000000000001
 12
1190.087252759312
 22
386.1819843189305
 32
0.0000000000000001
 13
1190.087252759312
 23
386.1819843189305
 33
0.0000000000000001
  0
SOLID
  5
A8F
330
306
100
AcDbEntity
  8
寸法線_1
  6
Continuous
 62
     7
100
AcDbTrace
 10
1191.587252759312
 20
380.1819843189305
 30
0.0000000000000001
 11
1191.587252759312
 21
380.1819843189305
 31
0.0000000000000001
 12
1190.087252759312
 22
381.6819843189305
 32
0.0000000000000001
 13
1191.212252759312
 23
381.6819843189305
 33
0.0000000000000001
  0
SOLID
  5
A90
330
306
100
AcDbEntity
  8
寸法線_1
  6
Continuous
 62
     7
100
AcDbTrace
 10
1188.587252759312
 20
380.1819843189305
 30
0.0000000000000001
 11
1188.587252759312
 21
380.1819843189305
 31
0.0000000000000001
 12
1188.962252759312
 22
381.6819843189305
 32
0.0000000000000001
 13
1190.087252759312
 23
381.6819843189305
 33
0.0000000000000001
  0
LINE
  5
A91
330
306
100
AcDbEntity
  8
寸法線_1
  6
Continuous
 62
     7
100
AcDbLine
 10
1133.770869397496
 20
386.1819843189305
 30
0.0000000000000001
 11
1190.587252759312
 21
386.1819843189305
 31
0.0000000000000001
  0
LINE
  5
A92
330
306
100
AcDbEntity
  8
寸法線_1
  6
Continuous
 62
     7
100
AcDbLine
 10
1133.770869397496
 20
348.1819843189305
 30
0.0000000000000001
 11
1190.587252759312
 21
348.1819843189305
 31
0.0000000000000001
  0
TEXT
  5
A93
330
306
100
AcDbEntity
  8
寸法線_1
  6
Continuous
 62
     7
100
AcDbText
 10
1175.226026955619
 20
379.5758036510533
 30
0.0000000000000001
 40
7.055555343627929
  1
8
 50
90.0
  7
STYLE1
100
AcDbText
  0
LINE
  5
A94
330
306
100
AcDbEntity
  8
寸法線_1
  6
Continuous
 62
     7
100
AcDbLine
 10
1177.254962109898
 20
378.1819843189305
 30
0.0000000000000001
 11
1177.254962109898
 21
375.1819843189305
 31
0.0000000000000001
  0
SOLID
  5
A95
330
306
100
AcDbEntity
  8
寸法線_1
  6
Continuous
 62
     7
100
AcDbTrace
 10
1176.129962109898
 20
373.6819843189305
 30
0.0000000000000001
 11
1178.379962109898
 21
373.6819843189305
 31
0.0000000000000001
 12
1177.254962109898
 22
378.1819843189305
 32
0.0000000000000001
 13
1177.254962109898
 23
378.1819843189305
 33
0.0000000000000001
  0
SOLID
  5
A96
330
306
100
AcDbEntity
  8
寸法線_1
  6
Continuous
 62
     7
100
AcDbTrace
 10
1178.754962109898
 20
372.1819843189305
 30
0.0000000000000001
 11
1178.754962109898
 21
372.1819843189305
 31
0.0000000000000001
 12
1177.254962109898
 22
373.6819843189305
 32
0.0000000000000001
 13
1178.379962109898
 23
373.6819843189305
 33
0.0000000000000001
  0
SOLID
  5
A97
330
306
100
AcDbEntity
  8
寸法線_1
  6
Continuous
 62
     7
100
AcDbTrace
 10
1175.754962109898
 20
372.1819843189305
 30
0.0000000000000001
 11
1175.754962109898
 21
372.1819843189305
 31
0.0000000000000001
 12
1176.129962109898
 22
373.6819843189305
 32
0.0000000000000001
 13
1177.254962109898
 23
373.6819843189305
 33
0.0000000000000001
  0
LINE
  5
A98
330
306
100
AcDbEntity
  8
寸法線_1
  6
Continuous
 62
     7
100
AcDbLine
 10
1177.254962109898
 20
386.1819843189305
 30
0.0000000000000001
 11
1177.254962109898
 21
389.1819843189304
 31
0.0000000000000001
  0
SOLID
  5
A99
330
306
100
AcDbEntity
  8
寸法線_1
  6
Continuous
 62
     7
100
AcDbTrace
 10
1177.254962109898
 20
390.6819843189305
 30
0.0000000000000001
 11
1178.379962109898
 21
390.6819843189305
 31
0.0000000000000001
 12
1178.754962109898
 22
392.1819843189305
 32
0.0000000000000001
 13
1178.754962109898
 23
392.1819843189305
 33
0.0000000000000001
  0
SOLID
  5
A9A
330
306
100
AcDbEntity
  8
寸法線_1
  6
Continuous
 62
     7
100
AcDbTrace
 10
1176.129962109898
 20
390.6819843189305
 30
0.0000000000000001
 11
1177.254962109898
 21
390.6819843189305
 31
0.0000000000000001
 12
1175.754962109898
 22
392.1819843189305
 32
0.0000000000000001
 13
1175.754962109898
 23
392.1819843189305
 33
0.0000000000000001
  0
SOLID
  5
A9B
330
306
100
AcDbEntity
  8
寸法線_1
  6
Continuous
 62
     7
100
AcDbTrace
 10
1177.254962109898
 20
386.1819843189305
 30
0.0000000000000001
 11
1177.254962109898
 21
386.1819843189305
 31
0.0000000000000001
 12
1176.129962109898
 22
390.6819843189305
 32
0.0000000000000001
 13
1178.379962109898
 23
390.6819843189305
 33
0.0000000000000001
  0
LINE
  5
A9C
330
306
100
AcDbEntity
  8
寸法線_1
  6
Continuous
 62
     7
100
AcDbLine
 10
1133.770869397496
 20
386.1819843189305
 30
0.0000000000000001
 11
1177.754962109898
 21
386.1819843189305
 31
0.0000000000000001
  0
LINE
  5
A9D
330
306
100
AcDbEntity
  8
寸法線_1
  6
Continuous
 62
     7
100
AcDbLine
 10
1071.270869397497
 20
378.1819843189305
 30
0.0000000000000001
 11
1177.754962109898
 21
378.1819843189305
 31
0.0000000000000001
  0
LINE
  5
A9E
330
306
100
AcDbEntity
  8
寸法線_1
  6
Continuous
 62
     7
100
AcDbLine
 10
1177.254962109898
 20
386.1819843189305
 30
0.0000000000000001
 11
1177.254962109898
 21
378.1819843189305
 31
0.0000000000000001
  0
TEXT
  5
A9F
330
306
100
AcDbEntity
  8
寸法線_1
  6
Continuous
 62
     7
100
AcDbText
 10
1175.22602695562
 20
363.6542066471165
 30
0.0000000000000001
 40
7.055555343627929
  1
22
 50
90.0
  7
STYLE1
100
AcDbText
  0
LINE
  5
AA0
330
306
100
AcDbEntity
  8
寸法線_1
  6
Continuous
 62
     7
100
AcDbLine
 10
1177.254962109899
 20
356.1819843189305
 30
0.0000000000000001
 11
1177.254962109899
 21
353.1819843189305
 31
0.0000000000000001
  0
SOLID
  5
AA1
330
306
100
AcDbEntity
  8
寸法線_1
  6
Continuous
 62
     7
100
AcDbTrace
 10
1176.129962109899
 20
351.6819843189304
 30
0.0000000000000001
 11
1178.379962109899
 21
351.6819843189304
 31
0.0000000000000001
 12
1177.254962109899
 22
356.1819843189305
 32
0.0000000000000001
 13
1177.254962109899
 23
356.1819843189305
 33
0.0000000000000001
  0
SOLID
  5
AA2
330
306
100
AcDbEntity
  8
寸法線_1
  6
Continuous
 62
     7
100
AcDbTrace
 10
1178.754962109899
 20
350.1819843189305
 30
0.0000000000000001
 11
1178.754962109899
 21
350.1819843189305
 31
0.0000000000000001
 12
1177.254962109899
 22
351.6819843189304
 32
0.0000000000000001
 13
1178.379962109899
 23
351.6819843189304
 33
0.0000000000000001
  0
SOLID
  5
AA3
330
306
100
AcDbEntity
  8
寸法線_1
  6
Continuous
 62
     7
100
AcDbTrace
 10
1175.754962109899
 20
350.1819843189305
 30
0.0000000000000001
 11
1175.754962109899
 21
350.1819843189305
 31
0.0000000000000001
 12
1176.129962109899
 22
351.6819843189304
 32
0.0000000000000001
 13
1177.254962109899
 23
351.6819843189304
 33
0.0000000000000001
  0
LINE
  5
AA4
330
306
100
AcDbEntity
  8
寸法線_1
  6
Continuous
 62
     7
100
AcDbLine
 10
1177.254962109899
 20
378.1819843189305
 30
0.0000000000000001
 11
1177.254962109899
 21
381.1819843189305
 31
0.0000000000000001
  0
SOLID
  5
AA5
330
306
100
AcDbEntity
  8
寸法線_1
  6
Continuous
 62
     7
100
AcDbTrace
 10
1177.254962109899
 20
382.6819843189305
 30
0.0000000000000001
 11
1178.379962109899
 21
382.6819843189305
 31
0.0000000000000001
 12
1178.754962109899
 22
384.1819843189305
 32
0.0000000000000001
 13
1178.754962109899
 23
384.1819843189305
 33
0.0000000000000001
  0
SOLID
  5
AA6
330
306
100
AcDbEntity
  8
寸法線_1
  6
Continuous
 62
     7
100
AcDbTrace
 10
1176.129962109899
 20
382.6819843189305
 30
0.0000000000000001
 11
1177.254962109899
 21
382.6819843189305
 31
0.0000000000000001
 12
1175.754962109899
 22
384.1819843189305
 32
0.0000000000000001
 13
1175.754962109899
 23
384.1819843189305
 33
0.0000000000000001
  0
SOLID
  5
AA7
330
306
100
AcDbEntity
  8
寸法線_1
  6
Continuous
 62
     7
100
AcDbTrace
 10
1177.254962109899
 20
378.1819843189305
 30
0.0000000000000001
 11
1177.254962109899
 21
378.1819843189305
 31
0.0000000000000001
 12
1176.129962109899
 22
382.6819843189305
 32
0.0000000000000001
 13
1178.379962109899
 23
382.6819843189305
 33
0.0000000000000001
  0
LINE
  5
AA8
330
306
100
AcDbEntity
  8
寸法線_1
  6
Continuous
 62
     7
100
AcDbLine
 10
1071.270869397497
 20
378.1819843189305
 30
0.0000000000000001
 11
1177.754962109899
 21
378.1819843189305
 31
0.0000000000000001
  0
LINE
  5
AA9
330
306
100
AcDbEntity
  8
寸法線_1
  6
Continuous
 62
     7
100
AcDbLine
 10
916.2708693974968
 20
356.1819843189305
 30
0.0000000000000001
 11
1177.754962109899
 21
356.1819843189305
 31
0.0000000000000001
  0
LINE
  5
AAA
330
306
100
AcDbEntity
  8
寸法線_1
  6
Continuous
 62
     7
100
AcDbLine
 10
1177.254962109899
 20
378.1819843189305
 30
0.0000000000000001
 11
1177.254962109899
 21
356.1819843189305
 31
0.0000000000000001
  0
TEXT
  5
AAB
330
306
100
AcDbEntity
  8
寸法線_1
  6
Continuous
 62
     7
100
AcDbText
 10
1175.226027233051
 20
350.4180954830235
 30
0.0000000000000001
 40
7.055555343627929
  1
8
 50
90.0
  7
STYLE1
100
AcDbText
  0
LINE
  5
AAC
330
306
100
AcDbEntity
  8
寸法線_1
  6
Continuous
 62
     7
100
AcDbLine
 10
1177.254962387331
 20
348.1819843189305
 30
0.0000000000000001
 11
1177.254962387331
 21
345.1819843189305
 31
0.0000000000000001
  0
SOLID
  5
AAD
330
306
100
AcDbEntity
  8
寸法線_1
  6
Continuous
 62
     7
100
AcDbTrace
 10
1176.129962387331
 20
343.6819843189305
 30
0.0000000000000001
 11
1178.379962387331
 21
343.6819843189305
 31
0.0000000000000001
 12
1177.254962387331
 22
348.1819843189305
 32
0.0000000000000001
 13
1177.254962387331
 23
348.1819843189305
 33
0.0000000000000001
  0
SOLID
  5
AAE
330
306
100
AcDbEntity
  8
寸法線_1
  6
Continuous
 62
     7
100
AcDbTrace
 10
1178.754962387331
 20
342.1819843189305
 30
0.0000000000000001
 11
1178.754962387331
 21
342.1819843189305
 31
0.0000000000000001
 12
1177.254962387331
 22
343.6819843189305
 32
0.0000000000000001
 13
1178.379962387331
 23
343.6819843189305
 33
0.0000000000000001
  0
SOLID
  5
AAF
330
306
100
AcDbEntity
  8
寸法線_1
  6
Continuous
 62
     7
100
AcDbTrace
 10
1175.754962387331
 20
342.1819843189305
 30
0.0000000000000001
 11
1175.754962387331
 21
342.1819843189305
 31
0.0000000000000001
 12
1176.129962387331
 22
343.6819843189305
 32
0.0000000000000001
 13
1177.254962387331
 23
343.6819843189305
 33
0.0000000000000001
  0
LINE
  5
AB0
330
306
100
AcDbEntity
  8
寸法線_1
  6
Continuous
 62
     7
100
AcDbLine
 10
1177.254962387331
 20
356.1819843189305
 30
0.0000000000000001
 11
1177.254962387331
 21
359.1819843189305
 31
0.0000000000000001
  0
SOLID
  5
AB1
330
306
100
AcDbEntity
  8
寸法線_1
  6
Continuous
 62
     7
100
AcDbTrace
 10
1177.254962387331
 20
360.6819843189305
 30
0.0000000000000001
 11
1178.379962387331
 21
360.6819843189305
 31
0.0000000000000001
 12
1178.754962387331
 22
362.1819843189304
 32
0.0000000000000001
 13
1178.754962387331
 23
362.1819843189304
 33
0.0000000000000001
  0
SOLID
  5
AB2
330
306
100
AcDbEntity
  8
寸法線_1
  6
Continuous
 62
     7
100
AcDbTrace
 10
1176.129962387331
 20
360.6819843189305
 30
0.0000000000000001
 11
1177.254962387331
 21
360.6819843189305
 31
0.0000000000000001
 12
1175.754962387331
 22
362.1819843189304
 32
0.0000000000000001
 13
1175.754962387331
 23
362.1819843189304
 33
0.0000000000000001
  0
SOLID
  5
AB3
330
306
100
AcDbEntity
  8
寸法線_1
  6
Continuous
 62
     7
100
AcDbTrace
 10
1177.254962387331
 20
356.1819843189305
 30
0.0000000000000001
 11
1177.254962387331
 21
356.1819843189305
 31
0.0000000000000001
 12
1176.129962387331
 22
360.6819843189305
 32
0.0000000000000001
 13
1178.379962387331
 23
360.6819843189305
 33
0.0000000000000001
  0
LINE
  5
AB4
330
306
100
AcDbEntity
  8
寸法線_1
  6
Continuous
 62
     7
100
AcDbLine
 10
916.2708693974968
 20
356.1819843189305
 30
0.0000000000000001
 11
1177.754962387331
 21
356.1819843189305
 31
0.0000000000000001
  0
LINE
  5
AB5
330
306
100
AcDbEntity
  8
寸法線_1
  6
Continuous
 62
     7
100
AcDbLine
 10
1135.079356613404
 20
348.1819843189305
 30
0.0000000000000001
 11
1177.754962387331
 21
348.1819843189305
 31
0.0000000000000001
  0
LINE
  5
AB6
330
306
100
AcDbEntity
  8
寸法線_1
  6
Continuous
 62
     7
100
AcDbLine
 10
1177.254962387331
 20
356.1819843189305
 30
0.0000000000000001
 11
1177.254962387331
 21
348.1819843189305
 31
0.0000000000000001
  0
TEXT
  5
AB7
330
306
100
AcDbEntity
  8
寸法線_1
  6
Continuous
 62
     7
100
AcDbText
 10
968.588055519821
 20
425.9039105220609
 30
0.0000000000000001
 40
7.055555343627929
  1
3－\U+03C66穴　皿\U+03C611
 50
335.0000000000033
  7
STYLE1
100
AcDbText
  0
LINE
  5
AB8
330
306
100
AcDbEntity
  8
寸法線_1
  6
Continuous
 62
     7
100
AcDbLine
 10
1058.296209658636
 20
381.3800181244777
 30
0.0000000000000001
 11
967.5568474264879
 21
423.6924776294223
 31
0.0000000000000001
  0
SOLID
  5
AB9
330
306
100
AcDbEntity
  8
寸法線_1
  6
Continuous
 62
     7
100
AcDbTrace
 10
1054.217824616971
 20
383.2818003023105
 30
0.0000000000000001
 11
1055.641205047317
 21
383.5327806759928
 31
0.0000000000000001
 12
1053.492290329027
 22
385.2751893754764
 32
0.0000000000000001
 13
1053.492290329027
 23
385.2751893754764
 33
0.0000000000000001
  0
SOLID
  5
ABA
330
306
100
AcDbEntity
  8
寸法線_1
  6
Continuous
 62
     7
100
AcDbTrace
 10
1052.224435543805
 20
382.5562660143665
 30
0.0000000000000001
 11
1056.020116691392
 21
383.2255470108526
 31
0.0000000000000001
 12
1054.217824616971
 22
383.2818003023105
 32
0.0000000000000001
 13
1055.641205047317
 23
383.5327806759928
 33
0.0000000000000001
  0
SOLID
  5
ABB
330
306
100
AcDbEntity
  8
寸法線_1
  6
Continuous
 62
     7
100
AcDbTrace
 10
1058.296209658636
 20
381.3800181244776
 30
0.0000000000000001
 11
1058.296209658636
 21
381.3800181244776
 31
0.0000000000000001
 12
1052.224435543805
 22
382.5562660143665
 32
0.0000000000000001
 13
1056.020116691392
 23
383.2255470108526
 33
0.0000000000000001
  0
TEXT
  5
ABC
330
306
100
AcDbEntity
  8
寸法線_1
  6
Continuous
 62
     7
100
AcDbText
 10
1157.920699914407
 20
361.8903178112095
 30
0.0000000000000001
 40
7.055555343627929
  1
4.5
 50
90.0
  7
STYLE1
100
AcDbText
  0
LINE
  5
ABD
330
306
100
AcDbEntity
  8
寸法線_1
  6
Continuous
 62
     7
100
AcDbLine
 10
1159.949635068686
 20
364.9319843189305
 30
0.0000000000000001
 11
1159.949635068686
 21
361.9319843189304
 31
0.0000000000000001
  0
SOLID
  5
ABE
330
306
100
AcDbEntity
  8
寸法線_1
  6
Continuous
 62
     7
100
AcDbTrace
 10
1158.824635068686
 20
360.4319843189305
 30
0.0000000000000001
 11
1161.074635068686
 21
360.4319843189305
 31
0.0000000000000001
 12
1159.949635068686
 22
364.9319843189305
 32
0.0000000000000001
 13
1159.949635068686
 23
364.9319843189305
 33
0.0000000000000001
  0
SOLID
  5
ABF
330
306
100
AcDbEntity
  8
寸法線_1
  6
Continuous
 62
     7
100
AcDbTrace
 10
1161.449635068686
 20
358.9319843189305
 30
0.0000000000000001
 11
1161.449635068686
 21
358.9319843189305
 31
0.0000000000000001
 12
1159.949635068686
 22
360.4319843189305
 32
0.0000000000000001
 13
1161.074635068686
 23
360.4319843189305
 33
0.0000000000000001
  0
SOLID
  5
AC0
330
306
100
AcDbEntity
  8
寸法線_1
  6
Continuous
 62
     7
100
AcDbTrace
 10
1158.449635068686
 20
358.9319843189305
 30
0.0000000000000001
 11
1158.449635068686
 21
358.9319843189305
 31
0.0000000000000001
 12
1158.824635068686
 22
360.4319843189305
 32
0.0000000000000001
 13
1159.949635068686
 23
360.4319843189305
 33
0.0000000000000001
  0
LINE
  5
AC1
330
306
100
AcDbEntity
  8
寸法線_1
  6
Continuous
 62
     7
100
AcDbLine
 10
1159.949635068686
 20
369.4319843189305
 30
0.0000000000000001
 11
1159.949635068686
 21
372.4319843189304
 31
0.0000000000000001
  0
SOLID
  5
AC2
330
306
100
AcDbEntity
  8
寸法線_1
  6
Continuous
 62
     7
100
AcDbTrace
 10
1159.949635068686
 20
373.9319843189305
 30
0.0000000000000001
 11
1161.074635068686
 21
373.9319843189305
 31
0.0000000000000001
 12
1161.449635068686
 22
375.4319843189305
 32
0.0000000000000001
 13
1161.449635068686
 23
375.4319843189305
 33
0.0000000000000001
  0
SOLID
  5
AC3
330
306
100
AcDbEntity
  8
寸法線_1
  6
Continuous
 62
     7
100
AcDbTrace
 10
1158.824635068686
 20
373.9319843189305
 30
0.0000000000000001
 11
1159.949635068686
 21
373.9319843189305
 31
0.0000000000000001
 12
1158.449635068686
 22
375.4319843189305
 32
0.0000000000000001
 13
1158.449635068686
 23
375.4319843189305
 33
0.0000000000000001
  0
SOLID
  5
AC4
330
306
100
AcDbEntity
  8
寸法線_1
  6
Continuous
 62
     7
100
AcDbTrace
 10
1159.949635068686
 20
369.4319843189305
 30
0.0000000000000001
 11
1159.949635068686
 21
369.4319843189305
 31
0.0000000000000001
 12
1158.824635068686
 22
373.9319843189305
 32
0.0000000000000001
 13
1161.074635068686
 23
373.9319843189305
 33
0.0000000000000001
  0
LINE
  5
AC5
330
306
100
AcDbEntity
  8
寸法線_1
  6
Continuous
 62
     7
100
AcDbLine
 10
1129.270869397496
 20
369.4319843189305
 30
0.0000000000000001
 11
1160.449635068686
 21
369.4319843189305
 31
0.0000000000000001
  0
LINE
  5
AC6
330
306
100
AcDbEntity
  8
寸法線_1
  6
Continuous
 62
     7
100
AcDbLine
 10
1129.270869397496
 20
364.9319843189305
 30
0.0000000000000001
 11
1160.449635068686
 21
364.9319843189305
 31
0.0000000000000001
  0
LINE
  5
AC7
330
306
100
AcDbEntity
  8
寸法線_1
  6
Continuous
 62
     7
100
AcDbLine
 10
1159.949635068686
 20
369.4319843189305
 30
0.0000000000000001
 11
1159.949635068686
 21
364.9319843189305
 31
0.0000000000000001
  0
TEXT
  5
AC8
330
306
100
AcDbEntity
  8
寸法線_1
  6
Continuous
 62
     7
100
AcDbText
 10
703.9221946715086
 20
400.5798860484644
 30
0.0000000000000001
 40
7.055555343627932
  1
R50
 50
329.9999999999999
  7
STYLE1
100
AcDbText
  0
LINE
  5
AC9
330
306
100
AcDbEntity
  8
寸法線_1
  6
Continuous
 62
     7
100
AcDbLine
 10
734.4745780830431
 20
380.1229365740566
 30
0.0000000000000001
 11
702.7021715600064
 21
398.4667440329342
 31
0.0000000000000001
  0
SOLID
  5
ACA
330
306
100
AcDbEntity
  8
寸法線_1
  6
Continuous
 62
     7
100
AcDbTrace
 10
730.5774637660131
 20
382.3729365740566
 30
0.0000000000000001
 11
732.1475824376961
 21
382.3729365740566
 31
0.0000000000000001
 12
730.0284256603365
 22
384.4219746797332
 32
0.0000000000000001
 13
730.0284256603365
 23
384.4219746797332
 33
0.0000000000000001
  0
SOLID
  5
ACB
330
306
100
AcDbEntity
  8
寸法線_1
  6
Continuous
 62
     7
100
AcDbTrace
 10
728.5284256603365
 20
381.8238984683799
 30
0.0000000000000001
 11
732.7154087848246
 21
381.8238984683799
 31
0.0000000000000001
 12
730.5774637660131
 22
382.3729365740566
 32
0.0000000000000001
 13
732.1475824376961
 23
382.3729365740566
 33
0.0000000000000001
  0
SOLID
  5
ACC
330
306
100
AcDbEntity
  8
寸法線_1
  6
Continuous
 62
     7
100
AcDbTrace
 10
734.4745780830431
 20
380.1229365740566
 30
0.0000000000000001
 11
734.4745780830431
 21
380.1229365740566
 31
0.0000000000000001
 12
728.5284256603365
 22
381.8238984683799
 32
0.0000000000000001
 13
732.7154087848246
 23
381.8238984683799
 33
0.0000000000000001
  0
TEXT
  5
ACD
330
306
100
AcDbEntity
  8
寸法線_1
  6
Continuous
 62
     7
100
AcDbText
 10
739.1982316996418
 20
325.0270197297557
 30
0.0000000000000001
 40
7.055555343627929
  1
20
  7
STYLE1
100
AcDbText
  0
LINE
  5
ACE
330
306
100
AcDbEntity
  8
寸法線_1
  6
Continuous
 62
     7
100
AcDbLine
 10
752.7708693974968
 20
322.9980845754766
 30
0.0000000000000001
 11
755.7708693974968
 21
322.9980845754766
 31
0.0000000000000001
  0
SOLID
  5
ACF
330
306
100
AcDbEntity
  8
寸法線_1
  6
Continuous
 62
     7
100
AcDbTrace
 10
752.7708693974968
 20
322.9980845754766
 30
0.0000000000000001
 11
757.2708693974968
 21
322.9980845754766
 31
0.0000000000000001
 12
758.7708693974969
 22
324.4980845754766
 32
0.0000000000000001
 13
758.7708693974969
 23
324.4980845754766
 33
0.0000000000000001
  0
SOLID
  5
AD0
330
306
100
AcDbEntity
  8
寸法線_1
  6
Continuous
 62
     7
100
AcDbTrace
 10
758.7708693974969
 20
321.4980845754766
 30
0.0000000000000001
 11
758.7708693974969
 21
321.4980845754766
 31
0.0000000000000001
 12
752.7708693974968
 22
322.9980845754766
 32
0.0000000000000001
 13
757.2708693974968
 23
322.9980845754766
 33
0.0000000000000001
  0
LINE
  5
AD1
330
306
100
AcDbEntity
  8
寸法線_1
  6
Continuous
 62
     7
100
AcDbLine
 10
732.7708693974959
 20
322.9980845754766
 30
0.0000000000000001
 11
729.770869397496
 21
322.9980845754766
 31
0.0000000000000001
  0
SOLID
  5
AD2
330
306
100
AcDbEntity
  8
寸法線_1
  6
Continuous
 62
     7
100
AcDbTrace
 10
728.2708693974962
 20
322.9980845754766
 30
0.0000000000000001
 11
732.7708693974959
 21
322.9980845754766
 31
0.0000000000000001
 12
726.7708693974961
 22
324.4980845754766
 32
0.0000000000000001
 13
726.7708693974961
 23
324.4980845754766
 33
0.0000000000000001
  0
SOLID
  5
AD3
330
306
100
AcDbEntity
  8
寸法線_1
  6
Continuous
 62
     7
100
AcDbTrace
 10
726.7708693974961
 20
321.4980845754766
 30
0.0000000000000001
 11
726.7708693974961
 21
321.4980845754766
 31
0.0000000000000001
 12
728.2708693974962
 22
322.9980845754766
 32
0.0000000000000001
 13
732.7708693974959
 23
322.9980845754766
 33
0.0000000000000001
  0
LINE
  5
AD4
330
306
100
AcDbEntity
  8
寸法線_1
  6
Continuous
 62
     7
100
AcDbLine
 10
732.7708693974959
 20
366.1819843189304
 30
0.0000000000000001
 11
732.7708693974959
 21
322.4980845754766
 31
0.0000000000000001
  0
LINE
  5
AD5
330
306
100
AcDbEntity
  8
寸法線_1
  6
Continuous
 62
     7
100
AcDbLine
 10
752.7708693974968
 20
358.6819843189305
 30
0.0000000000000001
 11
752.7708693974968
 21
322.4980845754766
 31
0.0000000000000001
  0
LINE
  5
AD6
330
306
100
AcDbEntity
  8
寸法線_1
  6
Continuous
 62
     7
100
AcDbLine
 10
732.7708693974959
 20
322.9980845754766
 30
0.0000000000000001
 11
752.7708693974968
 21
322.9980845754766
 31
0.0000000000000001
  0
TEXT
  5
AD7
330
306
100
AcDbEntity
  8
寸法線_1
  6
Continuous
 62
     7
100
AcDbText
 10
1094.243091725683
 20
325.0270197297557
 30
0.0000000000000001
 40
7.055555343627929
  1
70
  7
STYLE1
100
AcDbText
  0
LINE
  5
AD8
330
306
100
AcDbEntity
  8
寸法線_1
  6
Continuous
 62
     7
100
AcDbLine
 10
1132.770869397496
 20
322.9980845754766
 30
0.0000000000000001
 11
1097.770869397497
 21
322.9980845754766
 31
0.0000000000000001
  0
SOLID
  5
AD9
330
306
100
AcDbEntity
  8
寸法線_1
  6
Continuous
 62
     7
100
AcDbTrace
 10
1128.270869397496
 20
322.9980845754766
 30
0.0000000000000001
 11
1132.770869397496
 21
322.9980845754766
 31
0.0000000000000001
 12
1126.770869397496
 22
324.4980845754766
 32
0.0000000000000001
 13
1126.770869397496
 23
324.4980845754766
 33
0.0000000000000001
  0
SOLID
  5
ADA
330
306
100
AcDbEntity
  8
寸法線_1
  6
Continuous
 62
     7
100
AcDbTrace
 10
1126.770869397496
 20
321.4980845754766
 30
0.0000000000000001
 11
1126.770869397496
 21
321.4980845754766
 31
0.0000000000000001
 12
1128.270869397496
 22
322.9980845754766
 32
0.0000000000000001
 13
1132.770869397496
 23
322.9980845754766
 33
0.0000000000000001
  0
LINE
  5
ADB
330
306
100
AcDbEntity
  8
寸法線_1
  6
Continuous
 62
     7
100
AcDbLine
 10
1062.770869397497
 20
322.9980845754766
 30
0.0000000000000001
 11
1097.770869397497
 21
322.9980845754766
 31
0.0000000000000001
  0
SOLID
  5
ADC
330
306
100
AcDbEntity
  8
寸法線_1
  6
Continuous
 62
     7
100
AcDbTrace
 10
1062.770869397497
 20
322.9980845754766
 30
0.0000000000000001
 11
1067.270869397497
 21
322.9980845754766
 31
0.0000000000000001
 12
1068.770869397497
 22
324.4980845754766
 32
0.0000000000000001
 13
1068.770869397497
 23
324.4980845754766
 33
0.0000000000000001
  0
SOLID
  5
ADD
330
306
100
AcDbEntity
  8
寸法線_1
  6
Continuous
 62
     7
100
AcDbTrace
 10
1068.770869397497
 20
321.4980845754766
 30
0.0000000000000001
 11
1068.770869397497
 21
321.4980845754766
 31
0.0000000000000001
 12
1062.770869397497
 22
322.9980845754766
 32
0.0000000000000001
 13
1067.270869397497
 23
322.9980845754766
 33
0.0000000000000001
  0
LINE
  5
ADE
330
306
100
AcDbEntity
  8
寸法線_1
  6
Continuous
 62
     7
100
AcDbLine
 10
1062.770869397497
 20
369.6819843189305
 30
0.0000000000000001
 11
1062.770869397497
 21
322.4980845754766
 31
0.0000000000000001
  0
LINE
  5
ADF
330
306
100
AcDbEntity
  8
寸法線_1
  6
Continuous
 62
     7
100
AcDbLine
 10
1132.770869397496
 20
347.1819843189305
 30
0.0000000000000001
 11
1132.770869397496
 21
322.4980845754766
 31
0.0000000000000001
  0
LINE
  5
AE0
330
306
100
AcDbEntity
  8
寸法線_1
  6
Continuous
 62
     7
100
AcDbLine
 10
1132.770869397496
 20
690.5872915497235
 30
0.0000000000000001
 11
932.7708693974956
 21
690.5872915497235
 31
0.0000000000000001
  0
SOLID
  5
AE1
330
306
100
AcDbEntity
  8
寸法線_1
  6
Continuous
 62
     7
100
AcDbTrace
 10
1128.270869397496
 20
690.5872915497235
 30
0.0000000000000001
 11
1132.770869397496
 21
690.5872915497235
 31
0.0000000000000001
 12
1126.770869397496
 22
692.0872915497235
 32
0.0000000000000001
 13
1126.770869397496
 23
692.0872915497235
 33
0.0000000000000001
  0
SOLID
  5
AE2
330
306
100
AcDbEntity
  8
寸法線_1
  6
Continuous
 62
     7
100
AcDbTrace
 10
1126.770869397496
 20
689.0872915497235
 30
0.0000000000000001
 11
1126.770869397496
 21
689.0872915497235
 31
0.0000000000000001
 12
1128.270869397496
 22
690.5872915497235
 32
0.0000000000000001
 13
1132.770869397496
 23
690.5872915497235
 33
0.0000000000000001
  0
LINE
  5
AE3
330
306
100
AcDbEntity
  8
寸法線_1
  6
Continuous
 62
     7
100
AcDbLine
 10
732.7708693974959
 20
690.5872915497235
 30
0.0000000000000001
 11
932.7708693974956
 21
690.5872915497235
 31
0.0000000000000001
  0
SOLID
  5
AE4
330
306
100
AcDbEntity
  8
寸法線_1
  6
Continuous
 62
     7
100
AcDbTrace
 10
732.7708693974959
 20
690.5872915497235
 30
0.0000000000000001
 11
737.2708693974959
 21
690.5872915497235
 31
0.0000000000000001
 12
738.770869397496
 22
692.0872915497235
 32
0.0000000000000001
 13
738.770869397496
 23
692.0872915497235
 33
0.0000000000000001
  0
SOLID
  5
AE5
330
306
100
AcDbEntity
  8
寸法線_1
  6
Continuous
 62
     7
100
AcDbTrace
 10
738.770869397496
 20
689.0872915497235
 30
0.0000000000000001
 11
738.770869397496
 21
689.0872915497235
 31
0.0000000000000001
 12
732.7708693974959
 22
690.5872915497235
 32
0.0000000000000001
 13
737.2708693974959
 23
690.5872915497235
 33
0.0000000000000001
  0
LINE
  5
AE6
330
306
100
AcDbEntity
  8
寸法線_1
  6
Continuous
 62
     7
100
AcDbLine
 10
732.7708693974959
 20
660.7316587677411
 30
0.0000000000000001
 11
732.7708693974959
 21
691.0872915497235
 31
0.0000000000000001
  0
LINE
  5
AE7
330
306
100
AcDbEntity
  8
寸法線_1
  6
Continuous
 62
     7
100
AcDbLine
 10
1132.770869397496
 20
656.2316587677411
 30
0.0000000000000001
 11
1132.770869397496
 21
691.0872915497235
 31
0.0000000000000001
  0
TEXT
  5
AE8
330
306
100
AcDbEntity
  8
寸法線_1
  6
Continuous
 62
     7
100
AcDbText
 10
1165.709967674609
 20
540.3288815727643
 30
0.0000000000000001
 40
7.055555343627929
  1
200（壁側）
 50
90.0
  7
STYLE1
100
AcDbText
  0
LINE
  5
AE9
330
306
100
AcDbEntity
  8
寸法線_1
  6
Continuous
 62
     7
100
AcDbLine
 10
1167.738902828888
 20
459.731658767741
 30
0.0000000000000001
 11
1167.738902828888
 21
559.731658767741
 31
0.0000000000000001
  0
SOLID
  5
AEA
330
306
100
AcDbEntity
  8
寸法線_1
  6
Continuous
 62
     7
100
AcDbTrace
 10
1167.738902828888
 20
464.2316587677411
 30
0.0000000000000001
 11
1168.863902828888
 21
464.2316587677411
 31
0.0000000000000001
 12
1169.238902828888
 22
465.7316587677411
 32
0.0000000000000001
 13
1169.238902828888
 23
465.7316587677411
 33
0.0000000000000001
  0
SOLID
  5
AEB
330
306
100
AcDbEntity
  8
寸法線_1
  6
Continuous
 62
     7
100
AcDbTrace
 10
1166.613902828888
 20
464.2316587677411
 30
0.0000000000000001
 11
1167.738902828888
 21
464.2316587677411
 31
0.0000000000000001
 12
1166.238902828888
 22
465.7316587677411
 32
0.0000000000000001
 13
1166.238902828888
 23
465.7316587677411
 33
0.0000000000000001
  0
SOLID
  5
AEC
330
306
100
AcDbEntity
  8
寸法線_1
  6
Continuous
 62
     7
100
AcDbTrace
 10
1167.738902828888
 20
459.731658767741
 30
0.0000000000000001
 11
1167.738902828888
 21
459.731658767741
 31
0.0000000000000001
 12
1166.613902828888
 22
464.2316587677411
 32
0.0000000000000001
 13
1168.863902828888
 23
464.2316587677411
 33
0.0000000000000001
  0
LINE
  5
AED
330
306
100
AcDbEntity
  8
寸法線_1
  6
Continuous
 62
     7
100
AcDbLine
 10
1167.738902828888
 20
659.7316587677411
 30
0.0000000000000001
 11
1167.738902828888
 21
559.731658767741
 31
0.0000000000000001
  0
SOLID
  5
AEE
330
306
100
AcDbEntity
  8
寸法線_1
  6
Continuous
 62
     7
100
AcDbTrace
 10
1166.613902828888
 20
655.231658767741
 30
0.0000000000000001
 11
1168.863902828888
 21
655.231658767741
 31
0.0000000000000001
 12
1167.738902828888
 22
659.7316587677411
 32
0.0000000000000001
 13
1167.738902828888
 23
659.7316587677411
 33
0.0000000000000001
  0
SOLID
  5
AEF
330
306
100
AcDbEntity
  8
寸法線_1
  6
Continuous
 62
     7
100
AcDbTrace
 10
1169.238902828888
 20
653.7316587677411
 30
0.0000000000000001
 11
1169.238902828888
 21
653.7316587677411
 31
0.0000000000000001
 12
1167.738902828888
 22
655.231658767741
 32
0.0000000000000001
 13
1168.863902828888
 23
655.231658767741
 33
0.0000000000000001
  0
SOLID
  5
AF0
330
306
100
AcDbEntity
  8
寸法線_1
  6
Continuous
 62
     7
100
AcDbTrace
 10
1166.238902828888
 20
653.7316587677411
 30
0.0000000000000001
 11
1166.238902828888
 21
653.7316587677411
 31
0.0000000000000001
 12
1166.613902828888
 22
655.231658767741
 32
0.0000000000000001
 13
1167.738902828888
 23
655.231658767741
 33
0.0000000000000001
  0
LINE
  5
AF1
330
306
100
AcDbEntity
  8
寸法線_1
  6
Continuous
 62
     7
100
AcDbLine
 10
1129.270869397496
 20
659.7316587677411
 30
0.0000000000000001
 11
1168.238902828889
 21
659.7316587677411
 31
0.0000000000000001
  0
LINE
  5
AF2
330
306
100
AcDbEntity
  8
寸法線_1
  6
Continuous
 62
     7
100
AcDbLine
 10
1134.199474117951
 20
459.731658767741
 30
0.0000000000000001
 11
1168.238902828889
 21
459.731658767741
 31
0.0000000000000001
  0
SOLID
  5
AF3
330
306
100
AcDbEntity
  8
寸法線_1
  6
Continuous
 62
     7
100
AcDbTrace
 10
594.6948928349956
 20
689.4371698608807
 30
0.0000000000000001
 11
594.6948928349956
 21
689.4371698608807
 31
0.0000000000000001
 12
588.6948928349957
 22
690.9371698608808
 32
0.0000000000000001
 13
593.1948928349957
 23
690.9371698608808
 33
0.0000000000000001
  0
SOLID
  5
AF4
330
306
100
AcDbEntity
  8
寸法線_1
  6
Continuous
 62
     7
100
AcDbTrace
 10
574.6948928349957
 20
689.4371698608807
 30
0.0000000000000001
 11
574.6948928349957
 21
689.4371698608807
 31
0.0000000000000001
 12
576.1948928349957
 22
690.9371698608808
 32
0.0000000000000001
 13
580.6948928349957
 23
690.9371698608808
 33
0.0000000000000001
  0
LINE
  5
AF5
330
306
100
AcDbEntity
  8
寸法線_1
  6
Continuous
 62
     7
100
AcDbLine
 10
580.6948928349957
 20
618.2316587677411
 30
0.0000000000000001
 11
580.6948928349957
 21
691.4371698608808
 31
0.0000000000000001
  0
LINE
  5
AF6
330
306
100
AcDbEntity
  8
寸法線_1
  6
Continuous
 62
     7
100
AcDbLine
 10
588.6948928349957
 20
660.7316587677411
 30
0.0000000000000001
 11
588.6948928349957
 21
691.4371698608808
 31
0.0000000000000001
  0
SOLID
  5
AF7
330
306
100
AcDbEntity
  8
寸法線_1
  6
Continuous
 62
     7
100
AcDbTrace
 10
586.6948928349956
 20
689.4371679535321
 30
0.0000000000000001
 11
586.6948928349956
 21
689.4371679535321
 31
0.0000000000000001
 12
580.6948928349957
 22
690.9371679535321
 32
0.0000000000000001
 13
585.1948928349957
 23
690.9371679535321
 33
0.0000000000000001
  0
SOLID
  5
AF8
330
306
100
AcDbEntity
  8
寸法線_1
  6
Continuous
 62
     7
100
AcDbTrace
 10
552.6948928349956
 20
689.4371679535321
 30
0.0000000000000001
 11
552.6948928349956
 21
689.4371679535321
 31
0.0000000000000001
 12
554.1948928349957
 22
690.9371679535321
 32
0.0000000000000001
 13
558.6948928349957
 23
690.9371679535321
 33
0.0000000000000001
  0
LINE
  5
AF9
330
306
100
AcDbEntity
  8
寸法線_1
  6
Continuous
 62
     7
100
AcDbLine
 10
558.6948928349957
 20
638.2316587677411
 30
0.0000000000000001
 11
558.6948928349957
 21
691.4371679535321
 31
0.0000000000000001
  0
LINE
  5
AFA
330
306
100
AcDbEntity
  8
寸法線_1
  6
Continuous
 62
     7
100
AcDbLine
 10
580.6948928349957
 20
618.2316587677411
 30
0.0000000000000001
 11
580.6948928349957
 21
691.4371679535321
 31
0.0000000000000001
  0
TEXT
  5
AFB
330
306
100
AcDbEntity
  8
寸法線_1
  6
Continuous
 62
     7
100
AcDbText
 10
483.6195460338315
 20
544.2847542237289
 30
0.0000000000000001
 40
7.055555343627929
  1
5－\U+03C66穴　皿\U+03C611
 50
325.0000000000034
  7
STYLE1
100
AcDbText
  0
LINE
  5
AFC
330
306
100
AcDbEntity
  8
寸法線_1
  6
Continuous
 62
     7
100
AcDbLine
 10
565.8878657291798
 20
483.7011101927595
 30
0.0000000000000001
 11
482.2199930167088
 21
542.2859853719948
 31
0.0000000000000001
  0
SOLID
  5
AFD
330
306
100
AcDbEntity
  8
寸法線_1
  6
Continuous
 62
     7
100
AcDbTrace
 10
562.2016815298791
 20
486.2822041563389
 30
0.0000000000000001
 11
563.647019897689
 21
486.2822041563389
 31
0.0000000000000001
 12
561.833318117972
 22
488.371296877299
 32
0.0000000000000001
 13
561.833318117972
 23
488.371296877299
 33
0.0000000000000001
  0
SOLID
  5
AFE
330
306
100
AcDbEntity
  8
寸法線_1
  6
Continuous
 62
     7
100
AcDbTrace
 10
560.1125888089191
 20
485.9138407444318
 30
0.0000000000000001
 11
563.9668244564124
 21
485.9138407444318
 31
0.0000000000000001
 12
562.2016815298791
 22
486.2822041563389
 32
0.0000000000000001
 13
563.647019897689
 23
486.2822041563389
 33
0.0000000000000001
  0
SOLID
  5
AFF
330
306
100
AcDbEntity
  8
寸法線_1
  6
Continuous
 62
     7
100
AcDbTrace
 10
565.8878657291798
 20
483.7011101927595
 30
0.0000000000000001
 11
565.8878657291798
 21
483.7011101927595
 31
0.0000000000000001
 12
560.1125888089191
 22
485.9138407444318
 32
0.0000000000000001
 13
563.9668244564124
 23
485.9138407444318
 33
0.0000000000000001
  0
TEXT
  5
B00
330
306
100
AcDbEntity
  8
寸法線_1
  6
Continuous
 62
     7
100
AcDbText
 10
610.7292832724599
 20
521.2038810959271
 30
0.0000000000000001
 40
7.055555343627929
  1
90
 50
90.0
  7
STYLE1
100
AcDbText
  0
LINE
  5
B01
330
306
100
AcDbEntity
  8
寸法線_1
  6
Continuous
 62
     7
100
AcDbLine
 10
612.7582184267389
 20
479.7316587677411
 30
0.0000000000000001
 11
612.7582184267389
 21
524.7316587677411
 31
0.0000000000000001
  0
SOLID
  5
B02
330
306
100
AcDbEntity
  8
寸法線_1
  6
Continuous
 62
     7
100
AcDbTrace
 10
612.7582184267389
 20
484.2316587677411
 30
0.0000000000000001
 11
613.8832184267389
 21
484.2316587677411
 31
0.0000000000000001
 12
614.2582184267389
 22
485.731658767741
 32
0.0000000000000001
 13
614.2582184267389
 23
485.731658767741
 33
0.0000000000000001
  0
SOLID
  5
B03
330
306
100
AcDbEntity
  8
寸法線_1
  6
Continuous
 62
     7
100
AcDbTrace
 10
611.6332184267389
 20
484.2316587677411
 30
0.0000000000000001
 11
612.7582184267389
 21
484.2316587677411
 31
0.0000000000000001
 12
611.2582184267389
 22
485.731658767741
 32
0.0000000000000001
 13
611.2582184267389
 23
485.731658767741
 33
0.0000000000000001
  0
SOLID
  5
B04
330
306
100
AcDbEntity
  8
寸法線_1
  6
Continuous
 62
     7
100
AcDbTrace
 10
612.7582184267389
 20
479.7316587677411
 30
0.0000000000000001
 11
612.7582184267389
 21
479.7316587677411
 31
0.0000000000000001
 12
611.6332184267389
 22
484.2316587677411
 32
0.0000000000000001
 13
613.8832184267389
 23
484.2316587677411
 33
0.0000000000000001
  0
LINE
  5
B05
330
306
100
AcDbEntity
  8
寸法線_1
  6
Continuous
 62
     7
100
AcDbLine
 10
612.7582184267389
 20
569.7316587677411
 30
0.0000000000000001
 11
612.7582184267389
 21
524.7316587677411
 31
0.0000000000000001
  0
SOLID
  5
B06
330
306
100
AcDbEntity
  8
寸法線_1
  6
Continuous
 62
     7
100
AcDbTrace
 10
611.6332184267389
 20
565.2316587677411
 30
0.0000000000000001
 11
613.8832184267389
 21
565.2316587677411
 31
0.0000000000000001
 12
612.7582184267389
 22
569.7316587677411
 32
0.0000000000000001
 13
612.7582184267389
 23
569.7316587677411
 33
0.0000000000000001
  0
SOLID
  5
B07
330
306
100
AcDbEntity
  8
寸法線_1
  6
Continuous
 62
     7
100
AcDbTrace
 10
614.2582184267389
 20
563.731658767741
 30
0.0000000000000001
 11
614.2582184267389
 21
563.731658767741
 31
0.0000000000000001
 12
612.7582184267389
 22
565.2316587677411
 32
0.0000000000000001
 13
613.8832184267389
 23
565.2316587677411
 33
0.0000000000000001
  0
SOLID
  5
B08
330
306
100
AcDbEntity
  8
寸法線_1
  6
Continuous
 62
     7
100
AcDbTrace
 10
611.2582184267389
 20
563.731658767741
 30
0.0000000000000001
 11
611.2582184267389
 21
563.731658767741
 31
0.0000000000000001
 12
611.6332184267389
 22
565.2316587677411
 32
0.0000000000000001
 13
612.7582184267389
 23
565.2316587677411
 33
0.0000000000000001
  0
LINE
  5
B09
330
306
100
AcDbEntity
  8
寸法線_1
  6
Continuous
 62
     7
100
AcDbLine
 10
589.1948928349957
 20
569.7316587677411
 30
0.0000000000000001
 11
613.2582184267389
 21
569.7316587677411
 31
0.0000000000000001
  0
LINE
  5
B0A
330
306
100
AcDbEntity
  8
寸法線_1
  6
Continuous
 62
     7
100
AcDbLine
 10
578.1948928349956
 20
479.7316587677411
 30
0.0000000000000001
 11
613.2582184267389
 21
479.7316587677411
 31
0.0000000000000001
  0
SOLID
  5
B0B
330
306
100
AcDbEntity
  8
寸法線_1
  6
Continuous
 62
     7
100
AcDbTrace
 10
564.6948928349956
 20
689.4371698608807
 30
0.0000000000000001
 11
564.6948928349956
 21
689.4371698608807
 31
0.0000000000000001
 12
558.6948928349957
 22
690.9371698608808
 32
0.0000000000000001
 13
563.1948928349957
 23
690.9371698608808
 33
0.0000000000000001
  0
SOLID
  5
B0C
330
306
100
AcDbEntity
  8
寸法線_1
  6
Continuous
 62
     7
100
AcDbTrace
 10
544.6948928349956
 20
689.4371698608807
 30
0.0000000000000001
 11
544.6948928349956
 21
689.4371698608807
 31
0.0000000000000001
 12
546.1948928349957
 22
690.9371698608808
 32
0.0000000000000001
 13
550.6948928349957
 23
690.9371698608808
 33
0.0000000000000001
  0
LINE
  5
B0D
330
306
100
AcDbEntity
  8
寸法線_1
  6
Continuous
 62
     7
100
AcDbLine
 10
550.6948928349957
 20
660.7316587677411
 30
0.0000000000000001
 11
550.6948928349957
 21
691.4371698608808
 31
0.0000000000000001
  0
LINE
  5
B0E
330
306
100
AcDbEntity
  8
寸法線_1
  6
Continuous
 62
     7
100
AcDbLine
 10
558.6948928349957
 20
638.2316587677411
 30
0.0000000000000001
 11
558.6948928349957
 21
691.4371698608808
 31
0.0000000000000001
  0
TEXT
  5
B0F
330
306
100
AcDbEntity
  8
寸法線_1
  6
Continuous
 62
     7
100
AcDbText
 10
564.4032263272749
 20
677.2605939220205
 30
0.0000000000000001
 40
7.055555343627929
  1
4.5
  7
STYLE1
100
AcDbText
  0
LINE
  5
B10
330
306
100
AcDbEntity
  8
寸法線_1
  6
Continuous
 62
     7
100
AcDbLine
 10
571.9448928349956
 20
675.2316587677413
 30
0.0000000000000001
 11
574.9448928349957
 21
675.2316587677413
 31
0.0000000000000001
  0
SOLID
  5
B11
330
306
100
AcDbEntity
  8
寸法線_1
  6
Continuous
 62
     7
100
AcDbTrace
 10
571.9448928349956
 20
675.2316587677413
 30
0.0000000000000001
 11
576.4448928349956
 21
675.2316587677413
 31
0.0000000000000001
 12
577.9448928349957
 22
676.7316587677413
 32
0.0000000000000001
 13
577.9448928349957
 23
676.7316587677413
 33
0.0000000000000001
  0
SOLID
  5
B12
330
306
100
AcDbEntity
  8
寸法線_1
  6
Continuous
 62
     7
100
AcDbTrace
 10
577.9448928349957
 20
673.7316587677413
 30
0.0000000000000001
 11
577.9448928349957
 21
673.7316587677413
 31
0.0000000000000001
 12
571.9448928349956
 22
675.2316587677413
 32
0.0000000000000001
 13
576.4448928349956
 23
675.2316587677413
 33
0.0000000000000001
  0
LINE
  5
B13
330
306
100
AcDbEntity
  8
寸法線_1
  6
Continuous
 62
     7
100
AcDbLine
 10
567.4448928349959
 20
675.2316587677413
 30
0.0000000000000001
 11
564.4448928349959
 21
675.2316587677413
 31
0.0000000000000001
  0
SOLID
  5
B14
330
306
100
AcDbEntity
  8
寸法線_1
  6
Continuous
 62
     7
100
AcDbTrace
 10
562.9448928349959
 20
675.2316587677413
 30
0.0000000000000001
 11
567.4448928349959
 21
675.2316587677413
 31
0.0000000000000001
 12
561.4448928349959
 22
676.7316587677413
 32
0.0000000000000001
 13
561.4448928349959
 23
676.7316587677413
 33
0.0000000000000001
  0
SOLID
  5
B15
330
306
100
AcDbEntity
  8
寸法線_1
  6
Continuous
 62
     7
100
AcDbTrace
 10
561.4448928349959
 20
673.7316587677413
 30
0.0000000000000001
 11
561.4448928349959
 21
673.7316587677413
 31
0.0000000000000001
 12
562.9448928349959
 22
675.2316587677413
 32
0.0000000000000001
 13
567.4448928349959
 23
675.2316587677413
 33
0.0000000000000001
  0
LINE
  5
B16
330
306
100
AcDbEntity
  8
寸法線_1
  6
Continuous
 62
     7
100
AcDbLine
 10
567.4448928349959
 20
656.2316587677413
 30
0.0000000000000001
 11
567.4448928349959
 21
675.7316587677413
 31
0.0000000000000001
  0
LINE
  5
B17
330
306
100
AcDbEntity
  8
寸法線_1
  6
Continuous
 62
     7
100
AcDbLine
 10
571.9448928349956
 20
656.2316587677413
 30
0.0000000000000001
 11
571.9448928349956
 21
675.7316587677413
 31
0.0000000000000001
  0
LINE
  5
B18
330
306
100
AcDbEntity
  8
寸法線_1
  6
Continuous
 62
     7
100
AcDbLine
 10
567.4448928349959
 20
675.2316587677413
 30
0.0000000000000001
 11
571.9448928349956
 21
675.2316587677413
 31
0.0000000000000001
  0
TEXT
  5
B19
330
306
100
AcDbEntity
  8
寸法線_1
  6
Continuous
 62
     7
100
AcDbText
 10
610.7292832724599
 20
466.2038810959271
 30
0.0000000000000001
 40
7.055555343627929
  1
20
 50
90.0
  7
STYLE1
100
AcDbText
  0
LINE
  5
B1A
330
306
100
AcDbEntity
  8
寸法線_1
  6
Continuous
 62
     7
100
AcDbLine
 10
612.7582184267389
 20
459.731658767741
 30
0.0000000000000001
 11
612.7582184267389
 21
456.7316587677411
 31
0.0000000000000001
  0
SOLID
  5
B1B
330
306
100
AcDbEntity
  8
寸法線_1
  6
Continuous
 62
     7
100
AcDbTrace
 10
611.6332184267389
 20
455.231658767741
 30
0.0000000000000001
 11
613.8832184267389
 21
455.231658767741
 31
0.0000000000000001
 12
612.7582184267389
 22
459.731658767741
 32
0.0000000000000001
 13
612.7582184267389
 23
459.731658767741
 33
0.0000000000000001
  0
SOLID
  5
B1C
330
306
100
AcDbEntity
  8
寸法線_1
  6
Continuous
 62
     7
100
AcDbTrace
 10
614.2582184267389
 20
453.7316587677411
 30
0.0000000000000001
 11
614.2582184267389
 21
453.7316587677411
 31
0.0000000000000001
 12
612.7582184267389
 22
455.231658767741
 32
0.0000000000000001
 13
613.8832184267389
 23
455.231658767741
 33
0.0000000000000001
  0
SOLID
  5
B1D
330
306
100
AcDbEntity
  8
寸法線_1
  6
Continuous
 62
     7
100
AcDbTrace
 10
611.2582184267389
 20
453.7316587677411
 30
0.0000000000000001
 11
611.2582184267389
 21
453.7316587677411
 31
0.0000000000000001
 12
611.6332184267389
 22
455.231658767741
 32
0.0000000000000001
 13
612.7582184267389
 23
455.231658767741
 33
0.0000000000000001
  0
LINE
  5
B1E
330
306
100
AcDbEntity
  8
寸法線_1
  6
Continuous
 62
     7
100
AcDbLine
 10
612.7582184267389
 20
479.7316587677411
 30
0.0000000000000001
 11
612.7582184267389
 21
482.731658767741
 31
0.0000000000000001
  0
SOLID
  5
B1F
330
306
100
AcDbEntity
  8
寸法線_1
  6
Continuous
 62
     7
100
AcDbTrace
 10
612.7582184267389
 20
484.2316587677411
 30
0.0000000000000001
 11
613.8832184267389
 21
484.2316587677411
 31
0.0000000000000001
 12
614.2582184267389
 22
485.731658767741
 32
0.0000000000000001
 13
614.2582184267389
 23
485.731658767741
 33
0.0000000000000001
  0
SOLID
  5
B20
330
306
100
AcDbEntity
  8
寸法線_1
  6
Continuous
 62
     7
100
AcDbTrace
 10
611.6332184267389
 20
484.2316587677411
 30
0.0000000000000001
 11
612.7582184267389
 21
484.2316587677411
 31
0.0000000000000001
 12
611.2582184267389
 22
485.731658767741
 32
0.0000000000000001
 13
611.2582184267389
 23
485.731658767741
 33
0.0000000000000001
  0
SOLID
  5
B21
330
306
100
AcDbEntity
  8
寸法線_1
  6
Continuous
 62
     7
100
AcDbTrace
 10
612.7582184267389
 20
479.7316587677411
 30
0.0000000000000001
 11
612.7582184267389
 21
479.7316587677411
 31
0.0000000000000001
 12
611.6332184267389
 22
484.2316587677411
 32
0.0000000000000001
 13
613.8832184267389
 23
484.2316587677411
 33
0.0000000000000001
  0
LINE
  5
B22
330
306
100
AcDbEntity
  8
寸法線_1
  6
Continuous
 62
     7
100
AcDbLine
 10
578.1948928349956
 20
479.7316587677411
 30
0.0000000000000001
 11
613.2582184267389
 21
479.7316587677411
 31
0.0000000000000001
  0
LINE
  5
B23
330
306
100
AcDbEntity
  8
寸法線_1
  6
Continuous
 62
     7
100
AcDbLine
 10
570.6948928349961
 20
459.731658767741
 30
0.0000000000000001
 11
613.2582184267389
 21
459.731658767741
 31
0.0000000000000001
  0
LINE
  5
B24
330
306
100
AcDbEntity
  8
寸法線_1
  6
Continuous
 62
     7
100
AcDbLine
 10
612.7582184267389
 20
479.7316587677411
 30
0.0000000000000001
 11
612.7582184267389
 21
459.731658767741
 31
0.0000000000000001
  0
LINE
  5
B25
330
306
100
AcDbEntity
  8
寸法線_1
  6
Continuous
 62
     7
100
AcDbLine
 10
550.6948928349957
 20
660.7316587677411
 30
0.0000000000000001
 11
550.6948928349957
 21
704.6294172516278
 31
0.0000000000000001
  0
LINE
  5
B26
330
306
100
AcDbEntity
  8
寸法線_1
  6
Continuous
 62
     7
100
AcDbLine
 10
588.6948928349957
 20
660.7316587677411
 30
0.0000000000000001
 11
588.6948928349957
 21
704.6294172516278
 31
0.0000000000000001
  0
TEXT
  5
B27
330
306
100
AcDbEntity
  8
寸法線_1
  6
Continuous
 62
     7
100
AcDbText
 10
537.2467174432479
 20
435.5387101288613
 30
0.0000000000000001
 40
7.055555343627929
  1
R50
 50
54.99999999999982
  7
STYLE1
100
AcDbText
  0
LINE
  5
B28
330
306
100
AcDbEntity
  8
寸法線_1
  6
Continuous
 62
     7
100
AcDbLine
 10
558.1170781837263
 20
461.0905834516994
 30
0.0000000000000001
 11
539.2454862949819
 21
434.1391571117384
 31
0.0000000000000001
  0
SOLID
  5
B29
330
306
100
AcDbEntity
  8
寸法線_1
  6
Continuous
 62
     7
100
AcDbTrace
 10
553.8711868993946
 20
457.404399252399
 30
0.0000000000000001
 11
556.7047593443869
 21
457.404399252399
 31
0.0000000000000001
 12
558.1170781837263
 22
461.0905834516994
 32
0.0000000000000001
 13
558.1170781837263
 23
461.0905834516994
 33
0.0000000000000001
  0
SOLID
  5
B2A
330
306
100
AcDbEntity
  8
寸法線_1
  6
Continuous
 62
     7
100
AcDbTrace
 10
555.6009366283717
 20
457.0360358404921
 30
0.0000000000000001
 11
556.5636251638277
 21
457.0360358404921
 31
0.0000000000000001
 12
555.5359842201466
 22
457.404399252399
 32
0.0000000000000001
 13
556.7047593443869
 23
457.404399252399
 33
0.0000000000000001
  0
SOLID
  5
B2B
330
306
100
AcDbEntity
  8
寸法線_1
  6
Continuous
 62
     7
100
AcDbTrace
 10
553.4468914991864
 20
457.0360358404921
 30
0.0000000000000001
 11
553.4468914991864
 21
457.0360358404921
 31
0.0000000000000001
 12
553.8711868993946
 22
457.404399252399
 32
0.0000000000000001
 13
555.5359842201466
 23
457.404399252399
 33
0.0000000000000001
  0
SOLID
  5
B2C
330
306
100
AcDbEntity
  8
寸法線_1
  6
Continuous
 62
     7
100
AcDbTrace
 10
555.9043476320537
 20
455.315306531439
 30
0.0000000000000001
 11
555.9043476320537
 21
455.315306531439
 31
0.0000000000000001
 12
555.6009366283717
 22
457.0360358404921
 32
0.0000000000000001
 13
556.5636251638277
 23
457.0360358404921
 33
0.0000000000000001
  0
TEXT
  5
B2D
330
306
100
AcDbEntity
  8
寸法線_1
  6
Continuous
 62
     7
100
AcDbText
 10
610.7292832724599
 20
640.5850920601363
 30
0.0000000000000001
 40
7.055555343627929
  1
30
 50
90.0
  7
STYLE1
100
AcDbText
  0
LINE
  5
B2E
330
306
100
AcDbEntity
  8
寸法線_1
  6
Continuous
 62
     7
100
AcDbLine
 10
612.7582184267389
 20
629.7316587677411
 30
0.0000000000000001
 11
612.7582184267389
 21
644.1128697319503
 31
0.0000000000000001
  0
SOLID
  5
B2F
330
306
100
AcDbEntity
  8
寸法線_1
  6
Continuous
 62
     7
100
AcDbTrace
 10
612.7582184267389
 20
634.2316587677411
 30
0.0000000000000001
 11
613.8832184267389
 21
634.2316587677411
 31
0.0000000000000001
 12
614.2582184267389
 22
635.7316587677411
 32
0.0000000000000001
 13
614.2582184267389
 23
635.7316587677411
 33
0.0000000000000001
  0
SOLID
  5
B30
330
306
100
AcDbEntity
  8
寸法線_1
  6
Continuous
 62
     7
100
AcDbTrace
 10
611.6332184267389
 20
634.2316587677411
 30
0.0000000000000001
 11
612.7582184267389
 21
634.2316587677411
 31
0.0000000000000001
 12
611.2582184267389
 22
635.7316587677411
 32
0.0000000000000001
 13
611.2582184267389
 23
635.7316587677411
 33
0.0000000000000001
  0
SOLID
  5
B31
330
306
100
AcDbEntity
  8
寸法線_1
  6
Continuous
 62
     7
100
AcDbTrace
 10
612.7582184267389
 20
629.7316587677411
 30
0.0000000000000001
 11
612.7582184267389
 21
629.7316587677411
 31
0.0000000000000001
 12
611.6332184267389
 22
634.2316587677411
 32
0.0000000000000001
 13
613.8832184267389
 23
634.2316587677411
 33
0.0000000000000001
  0
LINE
  5
B32
330
306
100
AcDbEntity
  8
寸法線_1
  6
Continuous
 62
     7
100
AcDbLine
 10
612.7582184267389
 20
659.7316587677411
 30
0.0000000000000001
 11
612.7582184267389
 21
644.1128697319503
 31
0.0000000000000001
  0
SOLID
  5
B33
330
306
100
AcDbEntity
  8
寸法線_1
  6
Continuous
 62
     7
100
AcDbTrace
 10
611.6332184267389
 20
655.231658767741
 30
0.0000000000000001
 11
613.8832184267389
 21
655.231658767741
 31
0.0000000000000001
 12
612.7582184267389
 22
659.7316587677411
 32
0.0000000000000001
 13
612.7582184267389
 23
659.7316587677411
 33
0.0000000000000001
  0
SOLID
  5
B34
330
306
100
AcDbEntity
  8
寸法線_1
  6
Continuous
 62
     7
100
AcDbTrace
 10
614.2582184267389
 20
653.7316587677411
 30
0.0000000000000001
 11
614.2582184267389
 21
653.7316587677411
 31
0.0000000000000001
 12
612.7582184267389
 22
655.231658767741
 32
0.0000000000000001
 13
613.8832184267389
 23
655.231658767741
 33
0.0000000000000001
  0
SOLID
  5
B35
330
306
100
AcDbEntity
  8
寸法線_1
  6
Continuous
 62
     7
100
AcDbTrace
 10
611.2582184267389
 20
653.7316587677411
 30
0.0000000000000001
 11
611.2582184267389
 21
653.7316587677411
 31
0.0000000000000001
 12
611.6332184267389
 22
655.231658767741
 32
0.0000000000000001
 13
612.7582184267389
 23
655.231658767741
 33
0.0000000000000001
  0
LINE
  5
B36
330
306
100
AcDbEntity
  8
寸法線_1
  6
Continuous
 62
     7
100
AcDbLine
 10
589.6948928349956
 20
659.7316587677411
 30
0.0000000000000001
 11
613.2582184267389
 21
659.7316587677411
 31
0.0000000000000001
  0
LINE
  5
B37
330
306
100
AcDbEntity
  8
寸法線_1
  6
Continuous
 62
     7
100
AcDbLine
 10
567.1948928349959
 20
629.7316587677411
 30
0.0000000000000001
 11
613.2582184267389
 21
629.7316587677411
 31
0.0000000000000001
  0
TEXT
  5
B38
330
306
100
AcDbEntity
  8
寸法線_1
  6
Continuous
 62
     7
100
AcDbText
 10
610.7292832724599
 20
616.2038810959272
 30
0.0000000000000001
 40
7.055555343627929
  1
20
 50
90.0
  7
STYLE1
100
AcDbText
  0
LINE
  5
B39
330
306
100
AcDbEntity
  8
寸法線_1
  6
Continuous
 62
     7
100
AcDbLine
 10
612.7582184267389
 20
609.7316587677411
 30
0.0000000000000001
 11
612.7582184267389
 21
606.7316587677411
 31
0.0000000000000001
  0
SOLID
  5
B3A
330
306
100
AcDbEntity
  8
寸法線_1
  6
Continuous
 62
     7
100
AcDbTrace
 10
611.6332184267389
 20
605.231658767741
 30
0.0000000000000001
 11
613.8832184267389
 21
605.231658767741
 31
0.0000000000000001
 12
612.7582184267389
 22
609.7316587677411
 32
0.0000000000000001
 13
612.7582184267389
 23
609.7316587677411
 33
0.0000000000000001
  0
SOLID
  5
B3B
330
306
100
AcDbEntity
  8
寸法線_1
  6
Continuous
 62
     7
100
AcDbTrace
 10
614.2582184267389
 20
603.7316587677411
 30
0.0000000000000001
 11
614.2582184267389
 21
603.7316587677411
 31
0.0000000000000001
 12
612.7582184267389
 22
605.231658767741
 32
0.0000000000000001
 13
613.8832184267389
 23
605.231658767741
 33
0.0000000000000001
  0
SOLID
  5
B3C
330
306
100
AcDbEntity
  8
寸法線_1
  6
Continuous
 62
     7
100
AcDbTrace
 10
611.2582184267389
 20
603.7316587677411
 30
0.0000000000000001
 11
611.2582184267389
 21
603.7316587677411
 31
0.0000000000000001
 12
611.6332184267389
 22
605.231658767741
 32
0.0000000000000001
 13
612.7582184267389
 23
605.231658767741
 33
0.0000000000000001
  0
LINE
  5
B3D
330
306
100
AcDbEntity
  8
寸法線_1
  6
Continuous
 62
     7
100
AcDbLine
 10
612.7582184267389
 20
629.7316587677411
 30
0.0000000000000001
 11
612.7582184267389
 21
632.7316587677411
 31
0.0000000000000001
  0
SOLID
  5
B3E
330
306
100
AcDbEntity
  8
寸法線_1
  6
Continuous
 62
     7
100
AcDbTrace
 10
612.7582184267389
 20
634.2316587677411
 30
0.0000000000000001
 11
613.8832184267389
 21
634.2316587677411
 31
0.0000000000000001
 12
614.2582184267389
 22
635.7316587677411
 32
0.0000000000000001
 13
614.2582184267389
 23
635.7316587677411
 33
0.0000000000000001
  0
SOLID
  5
B3F
330
306
100
AcDbEntity
  8
寸法線_1
  6
Continuous
 62
     7
100
AcDbTrace
 10
611.6332184267389
 20
634.2316587677411
 30
0.0000000000000001
 11
612.7582184267389
 21
634.2316587677411
 31
0.0000000000000001
 12
611.2582184267389
 22
635.7316587677411
 32
0.0000000000000001
 13
611.2582184267389
 23
635.7316587677411
 33
0.0000000000000001
  0
SOLID
  5
B40
330
306
100
AcDbEntity
  8
寸法線_1
  6
Continuous
 62
     7
100
AcDbTrace
 10
612.7582184267389
 20
629.7316587677411
 30
0.0000000000000001
 11
612.7582184267389
 21
629.7316587677411
 31
0.0000000000000001
 12
611.6332184267389
 22
634.2316587677411
 32
0.0000000000000001
 13
613.8832184267389
 23
634.2316587677411
 33
0.0000000000000001
  0
LINE
  5
B41
330
306
100
AcDbEntity
  8
寸法線_1
  6
Continuous
 62
     7
100
AcDbLine
 10
567.1948928349959
 20
629.7316587677411
 30
0.0000000000000001
 11
613.2582184267389
 21
629.7316587677411
 31
0.0000000000000001
  0
LINE
  5
B42
330
306
100
AcDbEntity
  8
寸法線_1
  6
Continuous
 62
     7
100
AcDbLine
 10
589.1948928349957
 20
609.7316587677411
 30
0.0000000000000001
 11
613.2582184267389
 21
609.7316587677411
 31
0.0000000000000001
  0
LINE
  5
B43
330
306
100
AcDbEntity
  8
寸法線_1
  6
Continuous
 62
     7
100
AcDbLine
 10
612.7582184267389
 20
629.7316587677411
 30
0.0000000000000001
 11
612.7582184267389
 21
609.7316587677411
 31
0.0000000000000001
  0
TEXT
  5
B44
330
306
100
AcDbEntity
  8
寸法線_1
  6
Continuous
 62
     7
100
AcDbText
 10
610.7292832724599
 20
596.2038810959271
 30
0.0000000000000001
 40
7.055555343627929
  1
20
 50
90.0
  7
STYLE1
100
AcDbText
  0
LINE
  5
B45
330
306
100
AcDbEntity
  8
寸法線_1
  6
Continuous
 62
     7
100
AcDbLine
 10
612.7582184267389
 20
589.7316587677411
 30
0.0000000000000001
 11
612.7582184267389
 21
586.7316587677411
 31
0.0000000000000001
  0
SOLID
  5
B46
330
306
100
AcDbEntity
  8
寸法線_1
  6
Continuous
 62
     7
100
AcDbTrace
 10
611.6332184267389
 20
585.2316587677411
 30
0.0000000000000001
 11
613.8832184267389
 21
585.2316587677411
 31
0.0000000000000001
 12
612.7582184267389
 22
589.7316587677411
 32
0.0000000000000001
 13
612.7582184267389
 23
589.7316587677411
 33
0.0000000000000001
  0
SOLID
  5
B47
330
306
100
AcDbEntity
  8
寸法線_1
  6
Continuous
 62
     7
100
AcDbTrace
 10
614.2582184267389
 20
583.7316587677411
 30
0.0000000000000001
 11
614.2582184267389
 21
583.7316587677411
 31
0.0000000000000001
 12
612.7582184267389
 22
585.2316587677411
 32
0.0000000000000001
 13
613.8832184267389
 23
585.2316587677411
 33
0.0000000000000001
  0
SOLID
  5
B48
330
306
100
AcDbEntity
  8
寸法線_1
  6
Continuous
 62
     7
100
AcDbTrace
 10
611.2582184267389
 20
583.7316587677411
 30
0.0000000000000001
 11
611.2582184267389
 21
583.7316587677411
 31
0.0000000000000001
 12
611.6332184267389
 22
585.2316587677411
 32
0.0000000000000001
 13
612.7582184267389
 23
585.2316587677411
 33
0.0000000000000001
  0
LINE
  5
B49
330
306
100
AcDbEntity
  8
寸法線_1
  6
Continuous
 62
     7
100
AcDbLine
 10
612.7582184267389
 20
609.7316587677411
 30
0.0000000000000001
 11
612.7582184267389
 21
612.7316587677411
 31
0.0000000000000001
  0
SOLID
  5
B4A
330
306
100
AcDbEntity
  8
寸法線_1
  6
Continuous
 62
     7
100
AcDbTrace
 10
612.7582184267389
 20
614.2316587677411
 30
0.0000000000000001
 11
613.8832184267389
 21
614.2316587677411
 31
0.0000000000000001
 12
614.2582184267389
 22
615.7316587677411
 32
0.0000000000000001
 13
614.2582184267389
 23
615.7316587677411
 33
0.0000000000000001
  0
SOLID
  5
B4B
330
306
100
AcDbEntity
  8
寸法線_1
  6
Continuous
 62
     7
100
AcDbTrace
 10
611.6332184267389
 20
614.2316587677411
 30
0.0000000000000001
 11
612.7582184267389
 21
614.2316587677411
 31
0.0000000000000001
 12
611.2582184267389
 22
615.7316587677411
 32
0.0000000000000001
 13
611.2582184267389
 23
615.7316587677411
 33
0.0000000000000001
  0
SOLID
  5
B4C
330
306
100
AcDbEntity
  8
寸法線_1
  6
Continuous
 62
     7
100
AcDbTrace
 10
612.7582184267389
 20
609.7316587677411
 30
0.0000000000000001
 11
612.7582184267389
 21
609.7316587677411
 31
0.0000000000000001
 12
611.6332184267389
 22
614.2316587677411
 32
0.0000000000000001
 13
613.8832184267389
 23
614.2316587677411
 33
0.0000000000000001
  0
LINE
  5
B4D
330
306
100
AcDbEntity
  8
寸法線_1
  6
Continuous
 62
     7
100
AcDbLine
 10
589.1948928349957
 20
609.7316587677411
 30
0.0000000000000001
 11
613.2582184267389
 21
609.7316587677411
 31
0.0000000000000001
  0
LINE
  5
B4E
330
306
100
AcDbEntity
  8
寸法線_1
  6
Continuous
 62
     7
100
AcDbLine
 10
567.1948928349959
 20
589.7316587677411
 30
0.0000000000000001
 11
613.2582184267389
 21
589.7316587677411
 31
0.0000000000000001
  0
LINE
  5
B4F
330
306
100
AcDbEntity
  8
寸法線_1
  6
Continuous
 62
     7
100
AcDbLine
 10
612.7582184267389
 20
609.7316587677411
 30
0.0000000000000001
 11
612.7582184267389
 21
589.7316587677411
 31
0.0000000000000001
  0
TEXT
  5
B50
330
306
100
AcDbEntity
  8
寸法線_1
  6
Continuous
 62
     7
100
AcDbText
 10
610.7292832724599
 20
576.2038810959271
 30
0.0000000000000001
 40
7.055555343627929
  1
20
 50
90.0
  7
STYLE1
100
AcDbText
  0
LINE
  5
B51
330
306
100
AcDbEntity
  8
寸法線_1
  6
Continuous
 62
     7
100
AcDbLine
 10
612.7582184267389
 20
569.7316587677411
 30
0.0000000000000001
 11
612.7582184267389
 21
566.7316587677411
 31
0.0000000000000001
  0
SOLID
  5
B52
330
306
100
AcDbEntity
  8
寸法線_1
  6
Continuous
 62
     7
100
AcDbTrace
 10
611.6332184267389
 20
565.2316587677411
 30
0.0000000000000001
 11
613.8832184267389
 21
565.2316587677411
 31
0.0000000000000001
 12
612.7582184267389
 22
569.7316587677411
 32
0.0000000000000001
 13
612.7582184267389
 23
569.7316587677411
 33
0.0000000000000001
  0
SOLID
  5
B53
330
306
100
AcDbEntity
  8
寸法線_1
  6
Continuous
 62
     7
100
AcDbTrace
 10
614.2582184267389
 20
563.731658767741
 30
0.0000000000000001
 11
614.2582184267389
 21
563.731658767741
 31
0.0000000000000001
 12
612.7582184267389
 22
565.2316587677411
 32
0.0000000000000001
 13
613.8832184267389
 23
565.2316587677411
 33
0.0000000000000001
  0
SOLID
  5
B54
330
306
100
AcDbEntity
  8
寸法線_1
  6
Continuous
 62
     7
100
AcDbTrace
 10
611.2582184267389
 20
563.731658767741
 30
0.0000000000000001
 11
611.2582184267389
 21
563.731658767741
 31
0.0000000000000001
 12
611.6332184267389
 22
565.2316587677411
 32
0.0000000000000001
 13
612.7582184267389
 23
565.2316587677411
 33
0.0000000000000001
  0
LINE
  5
B55
330
306
100
AcDbEntity
  8
寸法線_1
  6
Continuous
 62
     7
100
AcDbLine
 10
612.7582184267389
 20
589.7316587677411
 30
0.0000000000000001
 11
612.7582184267389
 21
592.731658767741
 31
0.0000000000000001
  0
SOLID
  5
B56
330
306
100
AcDbEntity
  8
寸法線_1
  6
Continuous
 62
     7
100
AcDbTrace
 10
612.7582184267389
 20
594.2316587677411
 30
0.0000000000000001
 11
613.8832184267389
 21
594.2316587677411
 31
0.0000000000000001
 12
614.2582184267389
 22
595.7316587677411
 32
0.0000000000000001
 13
614.2582184267389
 23
595.7316587677411
 33
0.0000000000000001
  0
SOLID
  5
B57
330
306
100
AcDbEntity
  8
寸法線_1
  6
Continuous
 62
     7
100
AcDbTrace
 10
611.6332184267389
 20
594.2316587677411
 30
0.0000000000000001
 11
612.7582184267389
 21
594.2316587677411
 31
0.0000000000000001
 12
611.2582184267389
 22
595.7316587677411
 32
0.0000000000000001
 13
611.2582184267389
 23
595.7316587677411
 33
0.0000000000000001
  0
SOLID
  5
B58
330
306
100
AcDbEntity
  8
寸法線_1
  6
Continuous
 62
     7
100
AcDbTrace
 10
612.7582184267389
 20
589.7316587677411
 30
0.0000000000000001
 11
612.7582184267389
 21
589.7316587677411
 31
0.0000000000000001
 12
611.6332184267389
 22
594.2316587677411
 32
0.0000000000000001
 13
613.8832184267389
 23
594.2316587677411
 33
0.0000000000000001
  0
LINE
  5
B59
330
306
100
AcDbEntity
  8
寸法線_1
  6
Continuous
 62
     7
100
AcDbLine
 10
567.1948928349959
 20
589.7316587677411
 30
0.0000000000000001
 11
613.2582184267389
 21
589.7316587677411
 31
0.0000000000000001
  0
LINE
  5
B5A
330
306
100
AcDbEntity
  8
寸法線_1
  6
Continuous
 62
     7
100
AcDbLine
 10
589.1948928349957
 20
569.7316587677411
 30
0.0000000000000001
 11
613.2582184267389
 21
569.7316587677411
 31
0.0000000000000001
  0
LINE
  5
B5B
330
306
100
AcDbEntity
  8
寸法線_1
  6
Continuous
 62
     7
100
AcDbLine
 10
612.7582184267389
 20
589.7316587677411
 30
0.0000000000000001
 11
612.7582184267389
 21
569.7316587677411
 31
0.0000000000000001
  0
LINE
  5
B5C
330
306
100
AcDbEntity
  8
0
  6
CENTER
 62
     3
100
AcDbLine
 10
907.7708693974969
 20
363.6819843189305
 30
0.0
 11
907.7708693974969
 21
348.6819843189305
 31
0.0
  0
LINE
  5
B5D
330
306
100
AcDbEntity
  8
0
  6
CENTER
 62
     3
100
AcDbLine
 10
745.2708693974969
 20
367.1819843189305
 30
0.0
 11
760.2708693974968
 21
367.1819843189305
 31
0.0
  0
LINE
  5
B5E
330
306
100
AcDbEntity
  8
0
  6
Continuous
 62
     5
100
AcDbLine
 10
1128.270869397496
 20
369.4319843189305
 30
0.0
 11
830.7397158401222
 21
369.4319843189305
 31
0.0
  0
CIRCLE
  5
B5F
330
306
100
AcDbEntity
  8
0
  6
Continuous
 62
     5
100
AcDbCircle
 10
752.7708693974968
 20
367.1819843189305
 30
0.0
 40
5.499999999999803
  0
CIRCLE
  5
B60
330
306
100
AcDbEntity
  8
0
  6
Continuous
 62
     5
100
AcDbCircle
 10
752.7708693974968
 20
367.1819843189305
 30
0.0
 40
2.999999999999612
  0
CIRCLE
  5
B61
330
306
100
AcDbEntity
  8
0
  6
Continuous
 62
     5
100
AcDbCircle
 10
907.7708693974969
 20
356.1819843189305
 30
0.0
 40
5.499999999999803
  0
CIRCLE
  5
B62
330
306
100
AcDbEntity
  8
0
  6
Continuous
 62
     5
100
AcDbCircle
 10
907.7708693974969
 20
356.1819843189305
 30
0.0
 40
2.999999999999612
  0
CIRCLE
  5
B63
330
306
100
AcDbEntity
  8
0
  6
Continuous
 62
     5
100
AcDbCircle
 10
1062.770869397497
 20
378.1819843189305
 30
0.0
 40
2.999999999999612
  0
CIRCLE
  5
B64
330
306
100
AcDbEntity
  8
0
  6
Continuous
 62
     5
100
AcDbCircle
 10
1062.770869397497
 20
378.1819843189305
 30
0.0
 40
5.499999999999803
  0
LINE
  5
B65
330
306
100
AcDbEntity
  8
0
  6
CENTER
 62
     3
100
AcDbLine
 10
1055.270869397497
 20
378.1819843189305
 30
0.0
 11
1070.270869397497
 21
378.1819843189305
 31
0.0
  0
LINE
  5
B66
330
306
100
AcDbEntity
  8
0
  6
CENTER
 62
     3
100
AcDbLine
 10
1062.770869397497
 20
385.6819843189305
 30
0.0
 11
1062.770869397497
 21
370.6819843189304
 31
0.0
  0
LINE
  5
B67
330
306
100
AcDbEntity
  8
0
  6
CENTER
 62
     3
100
AcDbLine
 10
900.2708693974968
 20
356.1819843189305
 30
0.0
 11
915.2708693974968
 21
356.1819843189305
 31
0.0
  0
LINE
  5
B68
330
306
100
AcDbEntity
  8
0
  6
CENTER
 62
     3
100
AcDbLine
 10
752.7708693974968
 20
374.6819843189304
 30
0.0
 11
752.7708693974968
 21
359.6819843189305
 31
0.0
  0
LINE
  5
B69
330
306
100
AcDbEntity
  8
0
  6
CENTER
 62
     3
100
AcDbLine
 10
1138.270869397496
 20
367.1819843189305
 30
0.0
 11
727.2708693974959
 21
367.1819843189305
 31
0.0
  0
LINE
  5
B6A
330
306
100
AcDbEntity
  8
0
  6
Continuous
 62
     5
100
AcDbLine
 10
1132.770869397496
 20
386.1819843189305
 30
0.0
 11
1132.770869397496
 21
348.1819843189305
 31
0.0
  0
LINE
  5
B6B
330
306
100
AcDbEntity
  8
0
  6
Continuous
 62
     5
100
AcDbLine
 10
1128.270869397496
 20
386.1819843189305
 30
0.0
 11
1128.270869397496
 21
348.1819843189305
 31
0.0
  0
ARC
  5
B6C
330
306
100
AcDbEntity
  8
0
  6
Continuous
 62
     5
100
AcDbCircle
 10
782.7708693974964
 20
367.1819843189303
 30
0.0
 40
50.00000000000017
100
AcDbArc
 50
157.6663173421946
 51
202.3336826578052
  0
LINE
  5
B6D
330
306
100
AcDbEntity
  8
0
  6
Continuous
 62
     5
100
AcDbLine
 10
1132.770869397496
 20
386.1819843189305
 30
0.0
 11
736.5215450781077
 21
386.1819843189305
 31
0.0
  0
LINE
  5
B6E
330
306
100
AcDbEntity
  8
0
  6
Continuous
 62
     5
100
AcDbLine
 10
1132.770869397496
 20
348.1819843189305
 30
0.0
 11
736.5215450781077
 21
348.1819843189305
 31
0.0
  0
LINE
  5
B6F
330
306
100
AcDbEntity
  8
0
  6
Continuous
 62
     5
100
AcDbLine
 10
830.7397158401222
 20
369.4319843189305
 30
0.0
 11
830.7397158401222
 21
364.9319843189305
 31
0.0
  0
LINE
  5
B70
330
306
100
AcDbEntity
  8
0
  6
Continuous
 62
     5
100
AcDbLine
 10
1128.270869397496
 20
364.9319843189305
 30
0.0
 11
830.7397158401222
 21
364.9319843189305
 31
0.0
  0
LINE
  5
B71
330
306
100
AcDbEntity
  8
0
  6
CENTER
 62
     3
100
AcDbLine
 10
573.1948928349956
 20
609.7316587677411
 30
0.0
 11
588.1948928349957
 21
609.7316587677411
 31
0.0
  0
LINE
  5
B72
330
306
100
AcDbEntity
  8
0
  6
Continuous
 62
     5
100
AcDbLine
 10
1128.270869397496
 20
459.731658767741
 30
0.0
 11
1132.770869397496
 21
459.731658767741
 31
0.0
  0
LINE
  5
B73
330
306
100
AcDbEntity
  8
0
  6
Continuous
 62
     5
100
AcDbLine
 10
550.6948928349957
 20
659.7316587677411
 30
0.0
 11
550.6948928349957
 21
463.4823344483526
 31
0.0
  0
LINE
  5
B74
330
306
100
AcDbEntity
  8
0
  6
Continuous
 62
     5
100
AcDbLine
 10
588.6948928349957
 20
659.7316587677411
 30
0.0
 11
550.6948928349957
 21
659.7316587677411
 31
0.0
  0
LINE
  5
B75
330
306
100
AcDbEntity
  8
0
  6
Continuous
 62
     5
100
AcDbLine
 10
1128.270869397496
 20
651.7316587677411
 30
0.0
 11
1128.270869397496
 21
459.731658767741
 31
0.0
  0
LINE
  5
B76
330
306
100
AcDbEntity
  8
0
  6
Continuous
 62
     5
100
AcDbLine
 10
1132.770869397496
 20
651.7316587677411
 30
0.0
 11
1132.770869397496
 21
459.731658767741
 31
0.0
  0
LINE
  5
B77
330
306
100
AcDbEntity
  8
0
  6
Continuous
 62
     5
100
AcDbLine
 10
732.7708693974959
 20
655.231658767741
 30
0.0
 11
1124.770869397496
 21
655.231658767741
 31
0.0
  0
LINE
  5
B78
330
306
100
AcDbEntity
  8
0
  6
Continuous
 62
     5
100
AcDbLine
 10
732.7708693974959
 20
659.7316587677411
 30
0.0
 11
1124.770869397496
 21
659.7316587677411
 31
0.0
  0
LINE
  5
B79
330
306
100
AcDbEntity
  8
0
  6
CENTER
 62
     3
100
AcDbLine
 10
569.6948928349959
 20
665.2316587677411
 30
0.0
 11
569.6948928349955
 21
454.2316587677411
 31
0.0
  0
LINE
  5
B7A
330
306
100
AcDbEntity
  8
0
  6
CENTER
 62
     3
100
AcDbLine
 10
580.6948928349957
 20
617.2316587677411
 30
0.0
 11
580.6948928349957
 21
602.2316587677411
 31
0.0
  0
ARC
  5
B7B
330
306
100
AcDbEntity
  8
0
  6
Continuous
 62
     5
100
AcDbCircle
 10
1124.770869397496
 20
651.7316587677411
 30
0.0
 40
3.5
100
AcDbArc
 50
0.0
 51
90.0
  0
ARC
  5
B7C
330
306
100
AcDbEntity
  8
0
  6
Continuous
 62
     5
100
AcDbCircle
 10
1124.770869397496
 20
651.7316587677411
 30
0.0
 40
7.999999999999998
100
AcDbArc
 50
0.0
 51
90.0
  0
LINE
  5
B7D
330
306
100
AcDbEntity
  8
0
  6
CENTER
 62
     3
100
AcDbLine
 10
580.6948928349957
 20
577.2316587677411
 30
0.0
 11
580.6948928349957
 21
562.2316587677411
 31
0.0
  0
LINE
  5
B7E
330
306
100
AcDbEntity
  8
0
  6
CENTER
 62
     3
100
AcDbLine
 10
573.1948928349956
 20
569.7316587677411
 30
0.0
 11
588.1948928349957
 21
569.7316587677411
 31
0.0
  0
LINE
  5
B7F
330
306
100
AcDbEntity
  8
0
  6
CENTER
 62
     3
100
AcDbLine
 10
562.1948928349957
 20
479.7316587677411
 30
0.0
 11
577.1948928349956
 21
479.7316587677411
 31
0.0
  0
LINE
  5
B80
330
306
100
AcDbEntity
  8
0
  6
CENTER
 62
     3
100
AcDbLine
 10
569.6948928349956
 20
487.231658767741
 30
0.0
 11
569.6948928349956
 21
472.231658767741
 31
0.0
  0
LINE
  5
B81
330
306
100
AcDbEntity
  8
0
  6
CENTER
 62
     3
100
AcDbLine
 10
558.6948928349957
 20
597.231658767741
 30
0.0
 11
558.6948928349957
 21
582.2316587677411
 31
0.0
  0
LINE
  5
B82
330
306
100
AcDbEntity
  8
0
  6
CENTER
 62
     3
100
AcDbLine
 10
551.1948928349957
 20
589.7316587677411
 30
0.0
 11
566.1948928349956
 21
589.7316587677411
 31
0.0
  0
LINE
  5
B83
330
306
100
AcDbEntity
  8
0
  6
CENTER
 62
     3
100
AcDbLine
 10
558.6948928349957
 20
637.2316587677411
 30
0.0
 11
558.6948928349957
 21
622.2316587677411
 31
0.0
  0
LINE
  5
B84
330
306
100
AcDbEntity
  8
0
  6
CENTER
 62
     3
100
AcDbLine
 10
551.1948928349957
 20
629.7316587677411
 30
0.0
 11
566.1948928349956
 21
629.7316587677411
 31
0.0
  0
CIRCLE
  5
B85
330
306
100
AcDbEntity
  8
0
  6
Continuous
 62
     5
100
AcDbCircle
 10
558.6948928349957
 20
629.7316587677411
 30
0.0
 40
3.000000000000264
  0
CIRCLE
  5
B86
330
306
100
AcDbEntity
  8
0
  6
Continuous
 62
     5
100
AcDbCircle
 10
558.6948928349957
 20
629.7316587677411
 30
0.0
 40
5.500000000000133
  0
CIRCLE
  5
B87
330
306
100
AcDbEntity
  8
0
  6
Continuous
 62
     5
100
AcDbCircle
 10
558.6948928349957
 20
589.7316587677411
 30
0.0
 40
3.000000000000264
  0
CIRCLE
  5
B88
330
306
100
AcDbEntity
  8
0
  6
Continuous
 62
     5
100
AcDbCircle
 10
558.6948928349957
 20
589.7316587677411
 30
0.0
 40
5.500000000000133
  0
CIRCLE
  5
B89
330
306
100
AcDbEntity
  8
0
  6
Continuous
 62
     5
100
AcDbCircle
 10
569.6948928349956
 20
479.7316587677411
 30
0.0
 40
3.000000000000224
  0
CIRCLE
  5
B8A
330
306
100
AcDbEntity
  8
0
  6
Continuous
 62
     5
100
AcDbCircle
 10
569.6948928349956
 20
479.7316587677411
 30
0.0
 40
5.5000000000001
  0
CIRCLE
  5
B8B
330
306
100
AcDbEntity
  8
0
  6
Continuous
 62
     5
100
AcDbCircle
 10
580.6948928349957
 20
569.7316587677411
 30
0.0
 40
3.000000000000224
  0
CIRCLE
  5
B8C
330
306
100
AcDbEntity
  8
0
  6
Continuous
 62
     5
100
AcDbCircle
 10
580.6948928349957
 20
569.7316587677411
 30
0.0
 40
5.5000000000001
  0
CIRCLE
  5
B8D
330
306
100
AcDbEntity
  8
0
  6
Continuous
 62
     5
100
AcDbCircle
 10
580.6948928349957
 20
609.7316587677411
 30
0.0
 40
3.000000000000224
  0
CIRCLE
  5
B8E
330
306
100
AcDbEntity
  8
0
  6
Continuous
 62
     5
100
AcDbCircle
 10
580.6948928349957
 20
609.7316587677411
 30
0.0
 40
5.5000000000001
  0
LINE
  5
B8F
330
306
100
AcDbEntity
  8
0
  6
Continuous
 62
     5
100
AcDbLine
 10
571.9448928349956
 20
655.2316587677413
 30
0.0
 11
571.9448928349956
 21
500.2316587677411
 31
0.0
  0
LINE
  5
B90
330
306
100
AcDbEntity
  8
0
  6
Continuous
 62
     5
100
AcDbLine
 10
567.4448928349956
 20
655.2316587677413
 30
0.0
 11
567.4448928349956
 21
500.2316587677411
 31
0.0
  0
LINE
  5
B91
330
306
100
AcDbEntity
  8
0
  6
Continuous
 62
     5
100
AcDbLine
 10
588.6948928349957
 20
659.7316587677411
 30
0.0
 11
588.6948928349957
 21
463.4823344483522
 31
0.0
  0
LINE
  5
B92
330
306
100
AcDbEntity
  8
0
  6
Continuous
 62
     5
100
AcDbLine
 10
571.9448928349956
 20
500.2316587677411
 30
0.0
 11
567.4448928349956
 21
500.2316587677411
 31
0.0
  0
ARC
  5
B93
330
306
100
AcDbEntity
  8
0
  6
Continuous
 62
     5
100
AcDbCircle
 10
569.6948928349961
 20
509.731658767741
 30
0.0
 40
49.99999999999997
100
AcDbArc
 50
247.6663173421936
 51
292.3336826578047
  0
LINE
  5
B94
330
306
100
AcDbEntity
  8
0
  6
Continuous
 62
     5
100
AcDbLine
 10
732.7708693974959
 20
659.7316587677411
 30
0.0
 11
732.7708693974959
 21
655.231658767741
 31
0.0
  0
LINE
  5
B95
330
306
100
AcDbEntity
  8
0
  6
Continuous
 62
     5
100
AcDbLine
 10
588.6948928349957
 20
655.231658767741
 30
0.0
 11
550.6948928349957
 21
655.231658767741
 31
0.0
  0
TEXT
  5
B96
330
306
100
AcDbEntity
  8
寸法線_1
  6
Continuous
 62
     7
100
AcDbText
 10
909.8403145307049
 20
692.6162267040027
 30
0.0000000000000001
 40
7.055555343627929
  1
400（天板側）
  7
STYLE1
100
AcDbText
  0
TEXT
  5
B97
330
306
100
AcDbEntity
  8
寸法線_1
  6
Continuous
 62
     7
100
AcDbText
 10
582.9310039990887
 20
692.9661050151598
 30
0.0000000000000001
 40
7.055555343627929
  1
8
  7
STYLE1
100
AcDbText
  0
LINE
  5
B98
330
306
100
AcDbEntity
  8
寸法線_1
  6
Continuous
 62
     7
100
AcDbLine
 10
588.6948928349957
 20
690.9371698608808
 30
0.0000000000000001
 11
591.6948928349957
 21
690.9371698608808
 31
0.0000000000000001
  0
SOLID
  5
B99
330
306
100
AcDbEntity
  8
寸法線_1
  6
Continuous
 62
     7
100
AcDbTrace
 10
588.6948928349957
 20
690.9371698608808
 30
0.0000000000000001
 11
593.1948928349957
 21
690.9371698608808
 31
0.0000000000000001
 12
594.6948928349956
 22
692.4371698608807
 32
0.0000000000000001
 13
594.6948928349956
 23
692.4371698608807
 33
0.0000000000000001
  0
LINE
  5
B9A
330
306
100
AcDbEntity
  8
寸法線_1
  6
Continuous
 62
     7
100
AcDbLine
 10
580.6948928349957
 20
690.9371698608808
 30
0.0000000000000001
 11
577.6948928349956
 21
690.9371698608808
 31
0.0000000000000001
  0
SOLID
  5
B9B
330
306
100
AcDbEntity
  8
寸法線_1
  6
Continuous
 62
     7
100
AcDbTrace
 10
576.1948928349957
 20
690.9371698608808
 30
0.0000000000000001
 11
580.6948928349957
 21
690.9371698608808
 31
0.0000000000000001
 12
574.6948928349957
 22
692.4371698608807
 32
0.0000000000000001
 13
574.6948928349957
 23
692.4371698608807
 33
0.0000000000000001
  0
LINE
  5
B9C
330
306
100
AcDbEntity
  8
寸法線_1
  6
Continuous
 62
     7
100
AcDbLine
 10
580.6948928349957
 20
690.9371698608808
 30
0.0000000000000001
 11
588.6948928349957
 21
690.9371698608808
 31
0.0000000000000001
  0
TEXT
  5
B9D
330
306
100
AcDbEntity
  8
寸法線_1
  6
Continuous
 62
     7
100
AcDbText
 10
566.1671151631817
 20
692.9661031078112
 30
0.0000000000000001
 40
7.055555343627929
  1
22
  7
STYLE1
100
AcDbText
  0
LINE
  5
B9E
330
306
100
AcDbEntity
  8
寸法線_1
  6
Continuous
 62
     7
100
AcDbLine
 10
580.6948928349957
 20
690.9371679535321
 30
0.0000000000000001
 11
583.6948928349957
 21
690.9371679535321
 31
0.0000000000000001
  0
SOLID
  5
B9F
330
306
100
AcDbEntity
  8
寸法線_1
  6
Continuous
 62
     7
100
AcDbTrace
 10
580.6948928349957
 20
690.9371679535321
 30
0.0000000000000001
 11
585.1948928349957
 21
690.9371679535321
 31
0.0000000000000001
 12
586.6948928349956
 22
692.4371679535321
 32
0.0000000000000001
 13
586.6948928349956
 23
692.4371679535321
 33
0.0000000000000001
  0
LINE
  5
BA0
330
306
100
AcDbEntity
  8
寸法線_1
  6
Continuous
 62
     7
100
AcDbLine
 10
558.6948928349957
 20
690.9371679535321
 30
0.0000000000000001
 11
555.6948928349957
 21
690.9371679535321
 31
0.0000000000000001
  0
SOLID
  5
BA1
330
306
100
AcDbEntity
  8
寸法線_1
  6
Continuous
 62
     7
100
AcDbTrace
 10
554.1948928349957
 20
690.9371679535321
 30
0.0000000000000001
 11
558.6948928349957
 21
690.9371679535321
 31
0.0000000000000001
 12
552.6948928349956
 22
692.4371679535321
 32
0.0000000000000001
 13
552.6948928349956
 23
692.4371679535321
 33
0.0000000000000001
  0
LINE
  5
BA2
330
306
100
AcDbEntity
  8
寸法線_1
  6
Continuous
 62
     7
100
AcDbLine
 10
558.6948928349957
 20
690.9371679535321
 30
0.0000000000000001
 11
580.6948928349957
 21
690.9371679535321
 31
0.0000000000000001
  0
TEXT
  5
BA3
330
306
100
AcDbEntity
  8
寸法線_1
  6
Continuous
 62
     7
100
AcDbText
 10
552.9310039990887
 20
692.9661050151598
 30
0.0000000000000001
 40
7.055555343627929
  1
8
  7
STYLE1
100
AcDbText
  0
LINE
  5
BA4
330
306
100
AcDbEntity
  8
寸法線_1
  6
Continuous
 62
     7
100
AcDbLine
 10
558.6948928349957
 20
690.9371698608808
 30
0.0000000000000001
 11
561.6948928349956
 21
690.9371698608808
 31
0.0000000000000001
  0
SOLID
  5
BA5
330
306
100
AcDbEntity
  8
寸法線_1
  6
Continuous
 62
     7
100
AcDbTrace
 10
558.6948928349957
 20
690.9371698608808
 30
0.0000000000000001
 11
563.1948928349957
 21
690.9371698608808
 31
0.0000000000000001
 12
564.6948928349956
 22
692.4371698608807
 32
0.0000000000000001
 13
564.6948928349956
 23
692.4371698608807
 33
0.0000000000000001
  0
LINE
  5
BA6
330
306
100
AcDbEntity
  8
寸法線_1
  6
Continuous
 62
     7
100
AcDbLine
 10
550.6948928349957
 20
690.9371698608808
 30
0.0000000000000001
 11
547.6948928349957
 21
690.9371698608808
 31
0.0000000000000001
  0
SOLID
  5
BA7
330
306
100
AcDbEntity
  8
寸法線_1
  6
Continuous
 62
     7
100
AcDbTrace
 10
546.1948928349957
 20
690.9371698608808
 30
0.0000000000000001
 11
550.6948928349957
 21
690.9371698608808
 31
0.0000000000000001
 12
544.6948928349956
 22
692.4371698608807
 32
0.0000000000000001
 13
544.6948928349956
 23
692.4371698608807
 33
0.0000000000000001
  0
LINE
  5
BA8
330
306
100
AcDbEntity
  8
寸法線_1
  6
Continuous
 62
     7
100
AcDbLine
 10
550.6948928349957
 20
690.9371698608808
 30
0.0000000000000001
 11
558.6948928349957
 21
690.9371698608808
 31
0.0000000000000001
  0
TEXT
  5
BA9
330
306
100
AcDbEntity
  8
寸法線_1
  6
Continuous
 62
     7
100
AcDbText
 10
566.1671151631817
 20
706.1583524059069
 30
0.0000000000000001
 40
7.055555343627929
  1
38
  7
STYLE1
100
AcDbText
  0
LINE
  5
BAA
330
306
100
AcDbEntity
  8
寸法線_1
  6
Continuous
 62
     7
100
AcDbLine
 10
588.6948928349957
 20
704.1294172516278
 30
0.0000000000000001
 11
569.6948928349956
 21
704.1294172516278
 31
0.0000000000000001
  0
SOLID
  5
BAB
330
306
100
AcDbEntity
  8
寸法線_1
  6
Continuous
 62
     7
100
AcDbTrace
 10
584.1948928349957
 20
704.1294172516278
 30
0.0000000000000001
 11
588.6948928349957
 21
704.1294172516278
 31
0.0000000000000001
 12
582.6948928349956
 22
705.6294172516278
 32
0.0000000000000001
 13
582.6948928349956
 23
705.6294172516278
 33
0.0000000000000001
  0
SOLID
  5
BAC
330
306
100
AcDbEntity
  8
寸法線_1
  6
Continuous
 62
     7
100
AcDbTrace
 10
582.6948928349956
 20
702.6294172516278
 30
0.0000000000000001
 11
582.6948928349956
 21
702.6294172516278
 31
0.0000000000000001
 12
584.1948928349957
 22
704.1294172516278
 32
0.0000000000000001
 13
588.6948928349957
 23
704.1294172516278
 33
0.0000000000000001
  0
LINE
  5
BAD
330
306
100
AcDbEntity
  8
寸法線_1
  6
Continuous
 62
     7
100
AcDbLine
 10
550.6948928349957
 20
704.1294172516278
 30
0.0000000000000001
 11
569.6948928349956
 21
704.1294172516278
 31
0.0000000000000001
  0
SOLID
  5
BAE
330
306
100
AcDbEntity
  8
寸法線_1
  6
Continuous
 62
     7
100
AcDbTrace
 10
550.6948928349957
 20
704.1294172516278
 30
0.0000000000000001
 11
555.1948928349957
 21
704.1294172516278
 31
0.0000000000000001
 12
556.6948928349956
 22
705.6294172516278
 32
0.0000000000000001
 13
556.6948928349956
 23
705.6294172516278
 33
0.0000000000000001
  0
SOLID
  5
BAF
330
306
100
AcDbEntity
  8
寸法線_1
  6
Continuous
 62
     7
100
AcDbTrace
 10
556.6948928349956
 20
702.6294172516278
 30
0.0000000000000001
 11
556.6948928349956
 21
702.6294172516278
 31
0.0000000000000001
 12
550.6948928349957
 22
704.1294172516278
 32
0.0000000000000001
 13
555.1948928349957
 23
704.1294172516278
 33
0.0000000000000001
  0
TEXT
  5
C14
330
306
100
AcDbEntity
  8
____1
  6
Continuous
 62
     0
100
AcDbText
 10
1127.940727756135
 20
708.3671348017975
 30
0.0
 40
4.93888874053955
  1
ブラック色を追加
  7
STYLE1
100
AcDbText
  0
LINE
  5
C15
330
306
100
AcDbEntity
  8
____1
  6
Continuous
 62
     0
100
AcDbLine
 10
1063.27549179333
 20
705.8466978605975
 30
0.0
 11
1243.275491793329
 21
705.8466978605975
 31
0.0
  0
TEXT
  5
C16
330
306
100
AcDbEntity
  8
____1
  6
Continuous
 62
     0
100
AcDbText
 10
1087.053212818219
 20
708.3671348017975
 30
0.0
 40
4.93888874053955
  1
2020.03.10
  7
STYLE1
100
AcDbText
  0
TEXT
  5
C17
330
306
100
AcDbEntity
  8
____1
  6
Continuous
 62
     0
100
AcDbText
 10
1071.243599202011
 20
707.80822999072
 30
0.0
 40
4.682630310058594
  1
4
  7
STYLE1
100
AcDbText
  0
LINE
  5
C18
330
306
100
AcDbEntity
  8
____1
  6
Continuous
 62
     0
100
AcDbLine
 10
1072.706921021245
 20
715.2819328600701
 30
0.0
 11
1077.656921021245
 21
706.7082813626041
 31
0.0
  0
LINE
  5
C19
330
306
100
AcDbEntity
  8
____1
  6
Continuous
 62
     0
100
AcDbLine
 10
1072.706921021245
 20
715.2819328600701
 30
0.0
 11
1067.756921021245
 21
706.7082813626041
 31
0.0
  0
LINE
  5
C1A
330
306
100
AcDbEntity
  8
____1
  6
Continuous
 62
     0
100
AcDbLine
 10
1067.756921021245
 20
706.7082813626041
 30
0.0
 11
1077.656921021245
 21
706.7082813626041
 31
0.0
  0
TEXT
  5
C52
330
306
100
AcDbEntity
  8
____1
  6
Continuous
 62
     7
100
AcDbText
 10
950.2402557765561
 20
269.8616772205461
 30
0.0
 40
6.773332977294922
  1
表面処理：粉体塗装仕上げ
  7
STYLE1
100
AcDbText
  0
TEXT
  5
C53
330
306
100
AcDbEntity
  8
____1
  6
Continuous
 62
     7
100
AcDbText
 10
1130.765141075327
 20
243.1205575302237
 30
0.0
 40
6.773332977294922
  1
ＬＹ-８３４／８３４Ｂ
  7
STYLE1
100
AcDbText
  0
LINE
  5
C54
330
306
100
AcDbEntity
  8
____1
  6
Continuous
 62
     0
100
AcDbLine
 10
1166.244345597252
 20
260.7320804457016
 30
0.0
 11
1161.294345597252
 21
252.1584289482357
 31
0.0
  0
LINE
  5
C55
330
306
100
AcDbEntity
  8
____1
  6
Continuous
 62
     0
100
AcDbLine
 10
1166.244345597252
 20
260.7320804457016
 30
0.0
 11
1171.194345597252
 21
252.1584289482357
 31
0.0
  0
LINE
  5
C56
330
306
100
AcDbEntity
  8
____1
  6
Continuous
 62
     0
100
AcDbLine
 10
1161.294345597252
 20
252.1584289482357
 30
0.0
 11
1171.194345597252
 21
252.1584289482357
 31
0.0
  0
TEXT
  5
C57
330
306
100
AcDbEntity
  8
____1
  6
Continuous
 62
     0
100
AcDbText
 10
1164.781023778019
 20
253.2583775763515
 30
0.0
 40
4.682630310058594
  1
3
  7
STYLE1
100
AcDbText
  0
LINE
  5
C58
330
306
100
AcDbEntity
  8
____1
  6
Continuous
 62
     0
100
AcDbLine
 10
1201.386760699323
 20
260.7320804457016
 30
0.0
 11
1196.436760699323
 21
252.1584289482357
 31
0.0
  0
LINE
  5
C59
330
306
100
AcDbEntity
  8
____1
  6
Continuous
 62
     0
100
AcDbLine
 10
1201.386760699323
 20
260.7320804457016
 30
0.0
 11
1206.336760699323
 21
252.1584289482357
 31
0.0
  0
LINE
  5
C5A
330
306
100
AcDbEntity
  8
____1
  6
Continuous
 62
     0
100
AcDbLine
 10
1196.436760699323
 20
252.1584289482357
 30
0.0
 11
1206.336760699323
 21
252.1584289482357
 31
0.0
  0
TEXT
  5
C5B
330
306
100
AcDbEntity
  8
____1
  6
Continuous
 62
     0
100
AcDbText
 10
1199.92343888009
 20
253.2583775763515
 30
0.0
 40
4.682630310058594
  1
4
  7
STYLE1
100
AcDbText
  0
TEXT
  5
C5C
330
306
100
AcDbEntity
  8
____1
  6
Continuous
 62
     7
100
AcDbText
 10
1144.670600917149
 20
201.8176513529232
 30
0.0
 40
6.773332977294922
  1
ＳＲＫ００００３
  7
STYLE1
100
AcDbText
  0
LINE
  5
C5D
330
306
100
AcDbEntity
  8
____1
  6
Continuous
 62
     7
100
AcDbLine
 10
899.4693755714838
 20
261.8466978605974
 30
0.0
 11
614.648964884343
 21
261.8466978605974
 31
0.0
  0
LINE
  5
C5E
330
306
100
AcDbEntity
  8
____1
  6
Continuous
 62
     7
100
AcDbLine
 10
614.648964884343
 20
261.8466978605974
 30
0.0
 11
614.648964884343
 21
219.2842606124484
 31
0.0
  0
LINE
  5
C5F
330
306
100
AcDbEntity
  8
____1
  6
Continuous
 62
     7
100
AcDbLine
 10
670.945211445839
 20
261.8466978605974
 30
0.0
 11
670.9452114458389
 21
219.2842606124485
 31
0.0
  0
TEXT
  5
C60
330
306
100
AcDbEntity
  8
____1
  6
Continuous
 62
     7
100
AcDbText
 10
625.2597838176475
 20
243.1601945811334
 30
0.0
 40
5.644444274902344
  1
 型　　番
  7
STYLE1
 72
     1
 11
641.7633366214229
 21
243.1601945811334
 31
0.0
100
AcDbText
  0
LINE
  5
C61
330
306
100
AcDbEntity
  8
____1
  6
Continuous
 62
     7
100
AcDbLine
 10
614.648964884343
 20
240.5654792365229
 30
0.0
 11
899.4693755714838
 21
240.5654792365228
 31
0.0
  0
LINE
  5
C62
330
306
100
AcDbEntity
  8
____1
  6
Continuous
 62
     7
100
AcDbLine
 10
614.648964884343
 20
229.9248699244857
 30
0.0
 11
741.2097249266944
 21
229.9248699244857
 31
0.0
  0
LINE
  5
C63
330
306
100
AcDbEntity
  8
____1
  6
Continuous
 62
     7
100
AcDbLine
 10
858.6625138812642
 20
229.9248699244857
 30
0.0
 11
899.4693755714838
 21
229.9248699244857
 31
0.0
  0
TEXT
  5
C64
330
306
100
AcDbEntity
  8
____1
  6
Continuous
 62
     7
100
AcDbText
 10
614.7675656764434
 20
232.5195852690961
 30
0.0
 40
5.644444274902344
  1
 ＬＹ-８３４
  7
STYLE1
100
AcDbText
  0
LINE
  5
C65
330
306
100
AcDbEntity
  8
____1
  6
Continuous
 62
     7
100
AcDbLine
 10
614.648964884343
 20
219.2842606124485
 30
0.0
 11
899.4693755714838
 21
219.2842606124485
 31
0.0
  0
TEXT
  5
C66
330
306
100
AcDbEntity
  8
____1
  6
Continuous
 62
     7
100
AcDbText
 10
614.7675656764434
 20
221.8789759570589
 30
0.0
 40
5.644444274902344
  1
 ＬＹ-８３４Ｂ
  7
STYLE1
100
AcDbText
  0
LINE
  5
C67
330
306
100
AcDbEntity
  8
____1
  6
Continuous
 62
     7
100
AcDbLine
 10
741.2097249266944
 20
261.8466978605973
 30
0.0
 11
741.2097249266943
 21
219.2842606124484
 31
0.0
  0
TEXT
  5
C68
330
306
100
AcDbEntity
  8
____1
  6
Continuous
 62
     7
100
AcDbText
 10
683.8325181413643
 20
243.1601945811333
 30
0.0
 40
5.644444274902344
  1
 本体塗装色
  7
STYLE1
 72
     1
 11
704.0035271237563
 21
243.1601945811333
 31
0.0
100
AcDbText
  0
TEXT
  5
C69
330
306
100
AcDbEntity
  8
____1
  6
Continuous
 62
     7
100
AcDbText
 10
672.8301496055139
 20
232.519585269096
 30
0.0
 40
5.644444274902344
  1
 ホワイト(艶あり)
  7
STYLE1
 72
     1
 11
704.0035271237563
 21
232.519585269096
 31
0.0
100
AcDbText
  0
TEXT
  5
C6A
330
306
100
AcDbEntity
  8
____1
  6
Continuous
 62
     7
100
AcDbText
 10
672.8301496055139
 20
221.8789759570588
 30
0.0
 40
5.644444274902344
  1
 ブラック(艶消し)
  7
STYLE1
 72
     1
 11
704.0035271237563
 21
221.8789759570588
 31
0.0
100
AcDbText
  0
TEXT
  5
C6B
330
306
100
AcDbEntity
  8
____1
  6
Continuous
 62
     7
100
AcDbText
 10
769.3469336637209
 20
253.8008038931707
 30
0.0
 40
5.644444274902344
  1
 【付属品】取付ビスセット
  7
STYLE1
 72
     1
 11
815.1901358964304
 21
253.8008038931707
 31
0.0
100
AcDbText
  0
TEXT
  5
C6C
330
306
100
AcDbEntity
  8
____1
  6
Continuous
 62
     0
100
AcDbText
 10
603.2812803144572
 20
232.1785309017107
 30
0.0
 40
4.682630310058594
  1
1
  7
STYLE1
100
AcDbText
  0
LINE
  5
C6D
330
306
100
AcDbEntity
  8
____1
  6
Continuous
 62
     0
100
AcDbLine
 10
599.7946021336903
 20
231.0785822735949
 30
0.0
 11
609.6946021336904
 21
231.0785822735949
 31
0.0
  0
LINE
  5
C6E
330
306
100
AcDbEntity
  8
____1
  6
Continuous
 62
     0
100
AcDbLine
 10
604.7446021336901
 20
239.6522337710608
 30
0.0
 11
609.6946021336904
 21
231.0785822735949
 31
0.0
  0
LINE
  5
C6F
330
306
100
AcDbEntity
  8
____1
  6
Continuous
 62
     0
100
AcDbLine
 10
604.7446021336901
 20
239.6522337710608
 30
0.0
 11
599.7946021336903
 21
231.0785822735949
 31
0.0
  0
LINE
  5
C70
330
306
100
AcDbEntity
  8
____1
  6
Continuous
 62
     0
100
AcDbLine
 10
604.3934544877863
 20
229.3973866228927
 30
0.0
 11
599.4434544877862
 21
220.8237351254268
 31
0.0
  0
LINE
  5
C71
330
306
100
AcDbEntity
  8
____1
  6
Continuous
 62
     0
100
AcDbLine
 10
604.3934544877863
 20
229.3973866228927
 30
0.0
 11
609.3434544877859
 21
220.8237351254268
 31
0.0
  0
LINE
  5
C72
330
306
100
AcDbEntity
  8
____1
  6
Continuous
 62
     0
100
AcDbLine
 10
599.4434544877862
 20
220.8237351254268
 30
0.0
 11
609.3434544877859
 21
220.8237351254268
 31
0.0
  0
TEXT
  5
C73
330
306
100
AcDbEntity
  8
____1
  6
Continuous
 62
     0
100
AcDbText
 10
602.9301326685526
 20
221.9236837535425
 30
0.0
 40
4.682630310058594
  1
4
  7
STYLE1
100
AcDbText
  0
TEXT
  5
C74
330
306
100
AcDbEntity
  8
____1
  6
Continuous
 62
     7
100
AcDbText
 10
747.5352953462559
 20
243.1601945811333
 30
0.0
 40
5.644444274902344
  1
 仕　　様 ／ 頭部の塗装色(本体と同等色)
  7
STYLE1
 72
     1
 11
819.0506908292825
 21
243.1601945811333
 31
0.0
100
AcDbText
  0
TEXT
  5
C75
330
306
100
AcDbEntity
  8
____1
  6
Continuous
 62
     7
100
AcDbText
 10
747.2284172359921
 20
232.5195852690961
 30
0.0
 40
5.644444274902344
  1
＜壁　側＞ 鉄 皿ﾀｯﾋﾟﾝﾈｼﾞ 5x45
  7
STYLE1
100
AcDbText
  0
TEXT
  5
C76
330
306
100
AcDbEntity
  8
____1
  6
Continuous
 62
     7
100
AcDbText
 10
747.2284172359922
 20
221.8789759570589
 30
0.0
 40
5.644444274902344
  1
＜天板側＞ 鉄 皿ﾀｯﾋﾟﾝﾈｼﾞ 5x16
  7
STYLE1
100
AcDbText
  0
TEXT
  5
C77
330
306
100
AcDbEntity
  8
____1
  6
Continuous
 62
     7
100
AcDbText
 10
864.6697723299164
 20
232.5195852690961
 30
0.0
 40
5.644444274902344
  1
ホワイト
  7
STYLE1
100
AcDbText
  0
TEXT
  5
C78
330
306
100
AcDbEntity
  8
____1
  6
Continuous
 62
     7
100
AcDbText
 10
864.6697723299164
 20
221.8789759570589
 30
0.0
 40
5.644444274902344
  1
ブラック
  7
STYLE1
100
AcDbText
  0
LINE
  5
C79
330
306
100
AcDbEntity
  8
____1
  6
Continuous
 62
     7
100
AcDbLine
 10
858.6625138812642
 20
240.5654792365228
 30
0.0
 11
858.6625138812641
 21
219.2842606124484
 31
0.0
  0
LINE
  5
C7A
330
306
100
AcDbEntity
  8
____1
  6
Continuous
 62
     7
100
AcDbLine
 10
899.4693755714838
 20
261.8466978605973
 30
0.0
 11
899.4693755714838
 21
219.2842606124484
 31
0.0
  0
TEXT
  5
C7B
330
306
100
AcDbEntity
  8
____1
  6
Continuous
 62
     0
100
AcDbText
 10
781.5976889944805
 20
267.0474112878716
 30
0.0
 40
4.682630310058594
  1
1
  7
STYLE1
100
AcDbText
  0
LINE
  5
C7C
330
306
100
AcDbEntity
  8
____1
  6
Continuous
 62
     0
100
AcDbLine
 10
778.1110108137135
 20
265.9474626597559
 30
0.0
 11
788.0110108137135
 21
265.9474626597559
 31
0.0
  0
LINE
  5
C7D
330
306
100
AcDbEntity
  8
____1
  6
Continuous
 62
     0
100
AcDbLine
 10
783.0610108137133
 20
274.5211141572219
 30
0.0
 11
788.0110108137135
 21
265.9474626597559
 31
0.0
  0
LINE
  5
C7E
330
306
100
AcDbEntity
  8
____1
  6
Continuous
 62
     0
100
AcDbLine
 10
783.0610108137133
 20
274.5211141572219
 30
0.0
 11
778.1110108137135
 21
265.9474626597559
 31
0.0
  0
LINE
  5
C7F
330
306
100
AcDbEntity
  8
____1
  6
Continuous
 62
     0
100
AcDbLine
 10
795.7825833511487
 20
274.5211141572219
 30
0.0
 11
790.8325833511488
 21
265.9474626597559
 31
0.0
  0
LINE
  5
C80
330
306
100
AcDbEntity
  8
____1
  6
Continuous
 62
     0
100
AcDbLine
 10
795.7825833511487
 20
274.5211141572219
 30
0.0
 11
800.7325833511488
 21
265.9474626597559
 31
0.0
  0
LINE
  5
C81
330
306
100
AcDbEntity
  8
____1
  6
Continuous
 62
     0
100
AcDbLine
 10
790.8325833511488
 20
265.9474626597559
 30
0.0
 11
800.7325833511488
 21
265.9474626597559
 31
0.0
  0
TEXT
  5
C82
330
306
100
AcDbEntity
  8
____1
  6
Continuous
 62
     0
100
AcDbText
 10
794.3192615319158
 20
267.0474112878716
 30
0.0
 40
4.682630310058594
  1
3
  7
STYLE1
100
AcDbText
  0
ENDSEC
  0
SECTION
  2
OBJECTS
  0
DICTIONARY
  5
2F2
330
0
100
AcDbDictionary
281
     1
  3
ACAD_CIP_PREVIOUS_PRODUCT_INFO
350
C05
  3
ACAD_COLOR
350
301
  3
ACAD_DETAILVIEWSTYLE
350
BFF
  3
ACAD_GROUP
350
2F3
  3
ACAD_LAYOUT
350
2FF
  3
ACAD_MATERIAL
350
300
  3
ACAD_MLEADERSTYLE
350
BFB
  3
ACAD_MLINESTYLE
350
2FC
  3
ACAD_PLOTSETTINGS
350
2FE
  3
ACAD_PLOTSTYLENAME
350
2F4
  3
ACAD_SCALELIST
350
BE9
  3
ACAD_SECTIONVIEWSTYLE
350
BFD
  3
ACAD_TABLESTYLE
350
BE7
  3
ACAD_VISUALSTYLE
350
BCE
  3
ACDB_RECOMPOSE_DATA
350
CE7
  3
AcDbVariableDictionary
350
CD2
  3
AcDsDecomposeData
350
CEE
  3
DWGPROPS
350
CE8
  0
DICTIONARY
  5
4E6
330
2E8
100
AcDbDictionary
280
     1
281
     1
  3
ACAD_LAYERSTATES
360
4E7
  0
DICTIONARY
  5
C86
330
2F6
100
AcDbDictionary
280
     1
281
     1
  3
ADSK_XREC_LAYER_RECONCILED
360
C87
  0
DICTIONARY
  5
C88
330
316
100
AcDbDictionary
280
     1
281
     1
  3
ADSK_XREC_LAYER_RECONCILED
360
C89
  0
DICTIONARY
  5
C8A
330
317
100
AcDbDictionary
280
     1
281
     1
  3
ADSK_XREC_LAYER_RECONCILED
360
C8B
  0
DICTIONARY
  5
C8C
330
318
100
AcDbDictionary
280
     1
281
     1
  3
ADSK_XREC_LAYER_RECONCILED
360
C8D
  0
DICTIONARY
  5
C8E
330
319
100
AcDbDictionary
280
     1
281
     1
  3
ADSK_XREC_LAYER_RECONCILED
360
C8F
  0
DICTIONARY
  5
C90
330
31A
100
AcDbDictionary
280
     1
281
     1
  3
ADSK_XREC_LAYER_RECONCILED
360
C91
  0
DICTIONARY
  5
C92
330
31B
100
AcDbDictionary
280
     1
281
     1
  3
ADSK_XREC_LAYER_RECONCILED
360
C93
  0
DICTIONARY
  5
C94
330
31C
100
AcDbDictionary
280
     1
281
     1
  3
ADSK_XREC_LAYER_RECONCILED
360
C95
  0
DICTIONARY
  5
C96
330
31D
100
AcDbDictionary
280
     1
281
     1
  3
ADSK_XREC_LAYER_RECONCILED
360
C97
  0
DICTIONARY
  5
C98
330
31E
100
AcDbDictionary
280
     1
281
     1
  3
ADSK_XREC_LAYER_RECONCILED
360
C99
  0
XRECORD
  5
C05
102
{ACAD_REACTORS
330
2F2
102
}
330
2F2
100
AcDbXrecord
280
     1
300
ACDLT
300
2015
300
ACDLT_F_S
  0
DICTIONARY
  5
301
102
{ACAD_REACTORS
330
2F2
102
}
330
2F2
100
AcDbDictionary
281
     1
  0
DICTIONARY
  5
BFF
102
{ACAD_REACTORS
330
2F2
102
}
330
2F2
100
AcDbDictionary
281
     1
  3
Imperial24
350
C00
  0
DICTIONARY
  5
2F3
102
{ACAD_REACTORS
330
2F2
102
}
330
2F2
100
AcDbDictionary
281
     1
  0
DICTIONARY
  5
2FF
102
{ACAD_REACTORS
330
2F2
102
}
330
2F2
100
AcDbDictionary
281
     1
  3
Model
350
309
  3
レイアウト1
350
305
  0
DICTIONARY
  5
300
102
{ACAD_REACTORS
330
2F2
102
}
330
2F2
100
AcDbDictionary
281
     1
  3
ByBlock
350
BBE
  3
ByLayer
350
BB6
  3
Global
350
BC6
  0
DICTIONARY
  5
BFB
102
{ACAD_REACTORS
330
2F2
102
}
330
2F2
100
AcDbDictionary
281
     1
  3
Standard
350
BFC
  0
DICTIONARY
  5
2FC
102
{ACAD_REACTORS
330
2F2
102
}
330
2F2
100
AcDbDictionary
281
     1
  3
Standard
350
2FD
  0
DICTIONARY
  5
2FE
102
{ACAD_REACTORS
330
2F2
102
}
330
2F2
100
AcDbDictionary
281
     1
  0
ACDBDICTIONARYWDFLT
  5
2F4
102
{ACAD_REACTORS
330
2F2
102
}
330
2F2
100
AcDbDictionary
281
     1
  3
Normal
350
2F5
100
AcDbDictionaryWithDefault
340
2F5
  0
DICTIONARY
  5
BE9
102
{ACAD_REACTORS
330
2F2
102
}
330
2F2
100
AcDbDictionary
281
     1
  3
A0
350
BEA
  3
A1
350
BEB
  3
A2
350
BEC
  3
A3
350
BED
  3
A4
350
BEE
  3
A5
350
BEF
  3
A6
350
BF0
  3
A7
350
BF1
  3
A8
350
BF2
  3
A9
350
BF3
  3
B0
350
BF4
  3
B1
350
BF5
  3
B2
350
BF6
  3
B3
350
BF7
  3
B4
350
BF8
  3
B5
350
BF9
  3
B6
350
BFA
  0
DICTIONARY
  5
BFD
102
{ACAD_REACTORS
330
2F2
102
}
330
2F2
100
AcDbDictionary
281
     1
  3
Imperial24
350
BFE
  0
DICTIONARY
  5
BE7
102
{ACAD_REACTORS
330
2F2
102
}
330
2F2
100
AcDbDictionary
281
     1
  3
Standard
350
BE8
  0
DICTIONARY
  5
BCE
102
{ACAD_REACTORS
330
2F2
102
}
330
2F2
100
AcDbDictionary
281
     1
  3
2dWireframe
350
BD4
  3
Basic
350
BD3
  3
Brighten
350
BDA
  3
ColorChange
350
BDE
  3
Conceptual
350
BD7
  3
Dim
350
BD9
  3
EdgeColorOff
350
BE6
  3
Facepattern
350
BDD
  3
Flat
350
BCF
  3
FlatWithEdges
350
BD0
  3
Gouraud
350
BD1
  3
GouraudWithEdges
350
BD2
  3
Hidden
350
BD6
  3
JitterOff
350
BE4
  3
Linepattern
350
BDC
  3
OverhangOff
350
BE5
  3
Realistic
350
BD8
  3
Shaded
350
BE3
  3
Shaded with edges
350
BE2
  3
Shades of Gray
350
BDF
  3
Sketchy
350
BE0
  3
Thicken
350
BDB
  3
Wireframe
350
BD5
  3
X-Ray
350
BE1
  0
XRECORD
  5
CE7
102
{ACAD_REACTORS
330
2F2
102
}
330
2F2
100
AcDbXrecord
280
     1
 90
        1
330
BE8
  0
DICTIONARY
  5
CD2
102
{ACAD_REACTORS
330
2F2
102
}
330
2F2
100
AcDbDictionary
281
     1
  3
CANNOSCALE
350
CD8
  3
CMLEADERSTYLE
350
CD4
  3
CTABLESTYLE
350
CD3
  3
CVIEWDETAILSTYLE
350
CD5
  3
CVIEWSECTIONSTYLE
350
CD6
  3
DIMASSOC
350
CE4
  3
INDEXCTL
350
CE2
  3
LAYEREVAL
350
CDA
  3
LAYERNOTIFY
350
CDB
  3
LIGHTINGUNITS
350
CD9
  3
MSLTSCALE
350
CD7
  3
SORTENTS
350
CE1
  3
XCLIPFRAME
350
CE3
  0
DICTIONARY
  5
CEE
102
{ACAD_REACTORS
330
2F2
102
}
330
2F2
100
AcDbDictionary
281
     1
  3
AcDsRecords
350
CF0
  3
AcDsSchemas
350
CEF
1001
ACAD
1070
     2
  0
XRECORD
  5
CE8
102
{ACAD_REACTORS
330
2F2
102
}
330
2F2
100
AcDbXrecord
280
     1
  1
DWGPROPS COOKIE
  2

  3

  4

  6

  7

  8
峰輝行
  9

300
=
301
=
302
=
303
=
304
=
305
=
306
=
307
=
308
=
309
=
 40
0.0157114814814815
 41
2455539.456701389
 42
2458918.46542603
  1

 90
        0
  0
DICTIONARY
  5
4E7
102
{ACAD_REACTORS
330
4E6
102
}
330
4E6
100
AcDbDictionary
281
     1
  0
XRECORD
  5
C87
102
{ACAD_REACTORS
330
C86
102
}
330
C86
100
AcDbXrecord
280
     1
290
     1
  0
XRECORD
  5
C89
102
{ACAD_REACTORS
330
C88
102
}
330
C88
100
AcDbXrecord
280
     1
290
     1
  0
XRECORD
  5
C8B
102
{ACAD_REACTORS
330
C8A
102
}
330
C8A
100
AcDbXrecord
280
     1
290
     1
  0
XRECORD
  5
C8D
102
{ACAD_REACTORS
330
C8C
102
}
330
C8C
100
AcDbXrecord
280
     1
290
     1
  0
XRECORD
  5
C8F
102
{ACAD_REACTORS
330
C8E
102
}
330
C8E
100
AcDbXrecord
280
     1
290
     1
  0
XRECORD
  5
C91
102
{ACAD_REACTORS
330
C90
102
}
330
C90
100
AcDbXrecord
280
     1
290
     1
  0
XRECORD
  5
C93
102
{ACAD_REACTORS
330
C92
102
}
330
C92
100
AcDbXrecord
280
     1
290
     1
  0
XRECORD
  5
C95
102
{ACAD_REACTORS
330
C94
102
}
330
C94
100
AcDbXrecord
280
     1
290
     1
  0
XRECORD
  5
C97
102
{ACAD_REACTORS
330
C96
102
}
330
C96
100
AcDbXrecord
280
     1
290
     1
  0
XRECORD
  5
C99
102
{ACAD_REACTORS
330
C98
102
}
330
C98
100
AcDbXrecord
280
     1
290
     1
  0
ACDBDETAILVIEWSTYLE
  5
C00
102
{ACAD_XDICTIONARY
360
CCF
102
}
102
{ACAD_REACTORS
330
BFF
102
}
330
BFF
100
AcDbModelDocViewStyle
 70
     0
  3
Imperial24
290
     0
100
AcDbDetailViewStyle
 70
     0
 71
     0
 90
        3
 71
     1
340
2F7
 40
0.24
340
0
 40
0.24
300

 40
0.36
280
     3
 71
     2
340
2FB
 90
       25
 71
     3
340
2F7
 40
0.24
 90
        1
 40
0.75
 90
        1
300
%<\AcVar ViewType \f "%tc1">% %<\AcVar ViewDetailId>%\PSCALE %<\AcVar ViewScale \f "%sn">%
 71
     4
340
2FB
 90
       25
340
2FB
 90
       25
280
     0
  0
LAYOUT
  5
309
102
{ACAD_XDICTIONARY
360
CF3
102
}
102
{ACAD_REACTORS
330
2FF
102
}
330
2FF
100
AcDbPlotSettings
  1

  2
クセロPDF2.pc3
  4
A3
  6

 40
3.174999952316284
 41
3.174999952316284
 42
3.17498779296875
 43
3.17498779296875
 44
419.9466552734374
 45
296.9259948730469
 46
0.0
 47
0.0
 48
423.2754917933294
 49
175.8466978605972
140
1265.270491793327
141
771.1966978605974
142
1.0
143
2.048861521241269
 70
 11952
 72
     1
 73
     0
 74
     4
  7
monochrome.ctb
 75
     0
147
0.4880759336991044
148
-423.2754917933294
149
-175.8466978605972
100
AcDbLayout
  1
Model
 70
     1
 71
     0
 10
0.0
 20
0.0
 11
12.0
 21
9.0
 12
0.0
 22
0.0
 32
0.0
 14
0.0
 24
0.0
 34
0.0
 15
0.0
 25
0.0
 35
0.0
146
0.0
 13
0.0
 23
0.0
 33
0.0
 16
1.0
 26
0.0
 36
0.0
 17
0.0
 27
1.0
 37
0.0
 76
     0
330
306
331
BB4
  0
LAYOUT
  5
305
102
{ACAD_XDICTIONARY
360
CF1
102
}
102
{ACAD_REACTORS
330
2FF
102
}
330
2FF
100
AcDbPlotSettings
  1

  2
PX-1700F(ネットワーク)
  4

  6

 40
0.0
 41
0.0
 42
0.0
 43
0.0
 44
0.0
 45
0.0
 46
0.0
 47
0.0
 48
0.0
 49
0.0
140
0.0
141
0.0
142
1.0
143
1.0
 70
   688
 72
     0
 73
     0
 74
     5
  7
monochrome.ctb
 75
    16
147
1.0
148
0.0
149
0.0
100
AcDbLayout
  1
レイアウト1
 70
     1
 71
     1
 10
0.0
 20
0.0
 11
12.0
 21
9.0
 12
0.0
 22
0.0
 32
0.0
 14
1.000000000000000E+20
 24
1.000000000000000E+20
 34
1.000000000000000E+20
 15
-1.000000000000000E+20
 25
-1.000000000000000E+20
 35
-1.000000000000000E+20
146
0.0
 13
0.0
 23
0.0
 33
0.0
 16
1.0
 26
0.0
 36
0.0
 17
0.0
 27
1.0
 37
0.0
 76
     0
330
302
  0
MATERIAL
  5
BBE
102
{ACAD_XDICTIONARY
360
BBF
102
}
102
{ACAD_REACTORS
330
300
102
}
330
300
100
AcDbMaterial
  1
ByBlock
 72
     0
 43
0.0208333333333333
 43
0.0
 43
0.0
 43
0.0
 43
0.0
 43
0.0208333333333333
 43
0.0
 43
0.0
 43
0.0
 43
0.0
 43
1.0
 43
0.0
 43
0.0
 43
0.0
 43
0.0
 43
1.0
 77
     0
 47
0.0208333333333333
 47
0.0
 47
0.0
 47
0.0
 47
0.0
 47
0.0208333333333333
 47
0.0
 47
0.0
 47
0.0
 47
0.0
 47
1.0
 47
0.0
 47
0.0
 47
0.0
 47
0.0
 47
1.0
171
     0
 49
0.0208333333333333
 49
0.0
 49
0.0
 49
0.0
 49
0.0
 49
0.0208333333333333
 49
0.0
 49
0.0
 49
0.0
 49
0.0
 49
1.0
 49
0.0
 49
0.0
 49
0.0
 49
0.0
 49
1.0
175
     0
142
0.0208333333333333
142
0.0
142
0.0
142
0.0
142
0.0
142
0.0208333333333333
142
0.0
142
0.0
142
0.0
142
0.0
142
1.0
142
0.0
142
0.0
142
0.0
142
0.0
142
1.0
179
     0
144
0.0208333333333333
144
0.0
144
0.0
144
0.0
144
0.0
144
0.0208333333333333
144
0.0
144
0.0
144
0.0
144
0.0
144
1.0
144
0.0
144
0.0
144
0.0
144
0.0
144
1.0
147
0.0208333333333333
147
0.0
147
0.0
147
0.0
147
0.0
147
0.0208333333333333
147
0.0
147
0.0
147
0.0
147
0.0
147
1.0
147
0.0
147
0.0
147
0.0
147
0.0
147
1.0
  0
MATERIAL
  5
BB6
102
{ACAD_XDICTIONARY
360
BB7
102
}
102
{ACAD_REACTORS
330
300
102
}
330
300
100
AcDbMaterial
  1
ByLayer
 72
     0
 43
0.0208333333333333
 43
0.0
 43
0.0
 43
0.0
 43
0.0
 43
0.0208333333333333
 43
0.0
 43
0.0
 43
0.0
 43
0.0
 43
1.0
 43
0.0
 43
0.0
 43
0.0
 43
0.0
 43
1.0
 77
     0
 47
0.0208333333333333
 47
0.0
 47
0.0
 47
0.0
 47
0.0
 47
0.0208333333333333
 47
0.0
 47
0.0
 47
0.0
 47
0.0
 47
1.0
 47
0.0
 47
0.0
 47
0.0
 47
0.0
 47
1.0
171
     0
 49
0.0208333333333333
 49
0.0
 49
0.0
 49
0.0
 49
0.0
 49
0.0208333333333333
 49
0.0
 49
0.0
 49
0.0
 49
0.0
 49
1.0
 49
0.0
 49
0.0
 49
0.0
 49
0.0
 49
1.0
175
     0
142
0.0208333333333333
142
0.0
142
0.0
142
0.0
142
0.0
142
0.0208333333333333
142
0.0
142
0.0
142
0.0
142
0.0
142
1.0
142
0.0
142
0.0
142
0.0
142
0.0
142
1.0
179
     0
144
0.0208333333333333
144
0.0
144
0.0
144
0.0
144
0.0
144
0.0208333333333333
144
0.0
144
0.0
144
0.0
144
0.0
144
1.0
144
0.0
144
0.0
144
0.0
144
0.0
144
1.0
147
0.0208333333333333
147
0.0
147
0.0
147
0.0
147
0.0
147
0.0208333333333333
147
0.0
147
0.0
147
0.0
147
0.0
147
1.0
147
0.0
147
0.0
147
0.0
147
0.0
147
1.0
  0
MATERIAL
  5
BC6
102
{ACAD_XDICTIONARY
360
BC7
102
}
102
{ACAD_REACTORS
330
300
102
}
330
300
100
AcDbMaterial
  1
Global
 72
     0
 43
0.0208333333333333
 43
0.0
 43
0.0
 43
0.0
 43
0.0
 43
0.0208333333333333
 43
0.0
 43
0.0
 43
0.0
 43
0.0
 43
1.0
 43
0.0
 43
0.0
 43
0.0
 43
0.0
 43
1.0
 77
     0
 47
0.0208333333333333
 47
0.0
 47
0.0
 47
0.0
 47
0.0
 47
0.0208333333333333
 47
0.0
 47
0.0
 47
0.0
 47
0.0
 47
1.0
 47
0.0
 47
0.0
 47
0.0
 47
0.0
 47
1.0
171
     0
 49
0.0208333333333333
 49
0.0
 49
0.0
 49
0.0
 49
0.0
 49
0.0208333333333333
 49
0.0
 49
0.0
 49
0.0
 49
0.0
 49
1.0
 49
0.0
 49
0.0
 49
0.0
 49
0.0
 49
1.0
175
     0
142
0.0208333333333333
142
0.0
142
0.0
142
0.0
142
0.0
142
0.0208333333333333
142
0.0
142
0.0
142
0.0
142
0.0
142
1.0
142
0.0
142
0.0
142
0.0
142
0.0
142
1.0
179
     0
144
0.0208333333333333
144
0.0
144
0.0
144
0.0
144
0.0
144
0.0208333333333333
144
0.0
144
0.0
144
0.0
144
0.0
144
1.0
144
0.0
144
0.0
144
0.0
144
0.0
144
1.0
147
0.0208333333333333
147
0.0
147
0.0
147
0.0
147
0.0
147
0.0208333333333333
147
0.0
147
0.0
147
0.0
147
0.0
147
1.0
147
0.0
147
0.0
147
0.0
147
0.0
147
1.0
  0
MLEADERSTYLE
  5
BFC
102
{ACAD_XDICTIONARY
360
D2A
102
}
102
{ACAD_REACTORS
330
BFB
102
}
330
BFB
100
AcDbMLeaderStyle
170
     2
171
     1
172
     0
 90
        2
 40
0.0
 41
0.0
173
     1
 91
-1056964608
340
2F9
 92
       -2
290
     1
 42
0.09
291
     1
 43
0.36
  3
Standard
 44
0.18
300

342
2F7
174
     1
178
     6
175
     1
176
     0
 93
-1056964608
 45
0.18
292
     0
297
     0
 46
0.18
 94
-1056964608
 47
1.0
 49
1.0
140
1.0
293
     1
141
0.0
294
     1
177
     0
142
1.0
295
     0
296
     0
143
0.125
1001
ACAD_MLEADERVER
1070
     2
  0
MLINESTYLE
  5
2FD
102
{ACAD_REACTORS
330
2FC
102
}
330
2FC
100
AcDbMlineStyle
  2
STANDARD
 70
     0
  3

 62
   256
 51
90.0
 52
90.0
 71
     2
 49
0.5
 62
   256
  6
BYLAYER
 49
-0.5
 62
   256
  6
BYLAYER
  0
ACDBPLACEHOLDER
  5
2F5
102
{ACAD_REACTORS
330
2F4
102
}
330
2F4
  0
SCALE
  5
BEA
102
{ACAD_REACTORS
330
BE9
102
}
330
BE9
100
AcDbScale
 70
     0
300
1:1
140
1.0
141
1.0
290
     1
  0
SCALE
  5
BEB
102
{ACAD_REACTORS
330
BE9
102
}
330
BE9
100
AcDbScale
 70
     0
300
1/128" = 1'-0"
140
0.0078125
141
12.0
290
     0
  0
SCALE
  5
BEC
102
{ACAD_REACTORS
330
BE9
102
}
330
BE9
100
AcDbScale
 70
     0
300
1/64" = 1'-0"
140
0.015625
141
12.0
290
     0
  0
SCALE
  5
BED
102
{ACAD_REACTORS
330
BE9
102
}
330
BE9
100
AcDbScale
 70
     0
300
1/32" = 1'-0"
140
0.03125
141
12.0
290
     0
  0
SCALE
  5
BEE
102
{ACAD_REACTORS
330
BE9
102
}
330
BE9
100
AcDbScale
 70
     0
300
1/16" = 1'-0"
140
0.0625
141
12.0
290
     0
  0
SCALE
  5
BEF
102
{ACAD_REACTORS
330
BE9
102
}
330
BE9
100
AcDbScale
 70
     0
300
3/32" = 1'-0"
140
0.09375
141
12.0
290
     0
  0
SCALE
  5
BF0
102
{ACAD_REACTORS
330
BE9
102
}
330
BE9
100
AcDbScale
 70
     0
300
1/8" = 1'-0"
140
0.125
141
12.0
290
     0
  0
SCALE
  5
BF1
102
{ACAD_REACTORS
330
BE9
102
}
330
BE9
100
AcDbScale
 70
     0
300
3/16" = 1'-0"
140
0.1875
141
12.0
290
     0
  0
SCALE
  5
BF2
102
{ACAD_REACTORS
330
BE9
102
}
330
BE9
100
AcDbScale
 70
     0
300
1/4" = 1'-0"
140
0.25
141
12.0
290
     0
  0
SCALE
  5
BF3
102
{ACAD_REACTORS
330
BE9
102
}
330
BE9
100
AcDbScale
 70
     0
300
3/8" = 1'-0"
140
0.375
141
12.0
290
     0
  0
SCALE
  5
BF4
102
{ACAD_REACTORS
330
BE9
102
}
330
BE9
100
AcDbScale
 70
     0
300
1/2" = 1'-0"
140
0.5
141
12.0
290
     0
  0
SCALE
  5
BF5
102
{ACAD_REACTORS
330
BE9
102
}
330
BE9
100
AcDbScale
 70
     0
300
3/4" = 1'-0"
140
0.75
141
12.0
290
     0
  0
SCALE
  5
BF6
102
{ACAD_REACTORS
330
BE9
102
}
330
BE9
100
AcDbScale
 70
     0
300
1" = 1'-0"
140
1.0
141
12.0
290
     0
  0
SCALE
  5
BF7
102
{ACAD_REACTORS
330
BE9
102
}
330
BE9
100
AcDbScale
 70
     0
300
1-1/2" = 1'-0"
140
1.5
141
12.0
290
     0
  0
SCALE
  5
BF8
102
{ACAD_REACTORS
330
BE9
102
}
330
BE9
100
AcDbScale
 70
     0
300
3" = 1'-0"
140
3.0
141
12.0
290
     0
  0
SCALE
  5
BF9
102
{ACAD_REACTORS
330
BE9
102
}
330
BE9
100
AcDbScale
 70
     0
300
6" = 1'-0"
140
6.0
141
12.0
290
     0
  0
SCALE
  5
BFA
102
{ACAD_REACTORS
330
BE9
102
}
330
BE9
100
AcDbScale
 70
     0
300
1'-0" = 1'-0"
140
12.0
141
12.0
290
     0
  0
ACDBSECTIONVIEWSTYLE
  5
BFE
102
{ACAD_XDICTIONARY
360
CCD
102
}
102
{ACAD_REACTORS
330
BFD
102
}
330
BFD
100
AcDbModelDocViewStyle
 70
     0
  3
Imperial24
290
     0
100
AcDbSectionViewStyle
 70
     0
 71
     0
 90
       78
 71
     1
340
2F7
 40
0.24
340
0
340
0
 40
0.24
300
I, O, Q, S, X, Z
 40
0.48
 90
        3
 40
0.18
 90
        1
 71
     2
340
2FB
 90
       25
340
2FB
 90
       50
 40
0.24
 40
0.0
 40
0.24
 71
     3
340
2F7
 40
0.24
 90
        1
 40
0.75
 90
        1
300
%<\AcVar ViewType \f "%tc1">% %<\AcVar ViewSectionStartId>%-%<\AcVar ViewSectionEndId>%\PSCALE %<\AcVar ViewScale \f "%sn">%
 71
     4
300
ANSI31
 40
1.0
 90
        0
290
     0
290
     0
 90
        6
 40
0.0
 40
1.570796326794896
 40
0.2617993877991494
 40
1.308996938995747
 40
-0.2617993877991494
 40
1.832595714594046
  0
TABLESTYLE
  5
BE8
102
{ACAD_XDICTIONARY
360
CE5
102
}
102
{ACAD_REACTORS
330
BE7
102
}
330
BE7
100
AcDbTableStyle
  3
Standard
 70
     0
 71
     0
 40
0.06
 41
0.06
280
     0
281
     0
  7
STANDARD
140
0.18
170
     2
 62
     0
 63
     7
283
     0
274
    -2
284
     1
 64
     0
275
    -2
285
     1
 65
     0
276
    -2
286
     1
 66
     0
277
    -2
287
     1
 67
     0
278
    -2
288
     1
 68
     0
279
    -2
289
     1
 69
     0
  7
STANDARD
140
0.25
170
     5
 62
     0
 63
     7
283
     0
274
    -2
284
     1
 64
     0
275
    -2
285
     1
 65
     0
276
    -2
286
     1
 66
     0
277
    -2
287
     1
 67
     0
278
    -2
288
     1
 68
     0
279
    -2
289
     1
 69
     0
  7
STANDARD
140
0.18
170
     5
 62
     0
 63
     7
283
     0
274
    -2
284
     1
 64
     0
275
    -2
285
     1
 65
     0
276
    -2
286
     1
 66
     0
277
    -2
287
     1
 67
     0
278
    -2
288
     1
 68
     0
279
    -2
289
     1
 69
     0
  0
VISUALSTYLE
  5
BD4
102
{ACAD_XDICTIONARY
360
D02
102
}
102
{ACAD_REACTORS
330
BCE
102
}
330
BCE
100
AcDbVisualStyle
  2
2dWireframe
 70
     4
 71
     0
 72
     2
 73
     0
 90
        0
 40
-0.6
 41
-30.0
 62
     5
 63
     7
 74
     1
 91
        4
 64
     7
 65
   257
 75
     1
175
     1
 42
1.0
 92
        0
 66
   257
 43
1.0
 76
     1
 77
     6
 78
     2
 67
     7
 79
     5
170
     0
171
     0
290
     0
174
     0
 93
        1
 44
0.0
173
     0
291
     0
 45
0.0
1001
ACAD
1000
AcDbSavedByObjectVersion
1070
     0
  0
VISUALSTYLE
  5
BD3
102
{ACAD_XDICTIONARY
360
D00
102
}
102
{ACAD_REACTORS
330
BCE
102
}
330
BCE
100
AcDbVisualStyle
  2
Basic
 70
     7
 71
     1
 72
     0
 73
     1
 90
        0
 40
-0.6
 41
-30.0
 62
     5
 63
     7
 74
     0
 91
        4
 64
     7
 65
   257
 75
     1
175
     1
 42
1.0
 92
        8
 66
     7
 43
1.0
 76
     1
 77
     6
 78
     2
 67
     7
 79
     5
170
     0
171
     0
290
     0
174
     0
 93
        1
 44
0.0
173
     0
291
     1
 45
0.0
1001
ACAD
1000
AcDbSavedByObjectVersion
1070
     0
  0
VISUALSTYLE
  5
BDA
102
{ACAD_XDICTIONARY
360
D0E
102
}
102
{ACAD_REACTORS
330
BCE
102
}
330
BCE
100
AcDbVisualStyle
  2
Brighten
 70
    12
 71
     2
 72
     2
 73
     0
 90
        0
 40
-0.6
 41
-30.0
 62
     5
 63
     7
 74
     1
 91
        4
 64
     7
 65
   257
 75
     1
175
     1
 42
1.0
 92
        8
 66
     7
 43
1.0
 76
     1
 77
     6
 78
     2
 67
     7
 79
     5
170
     0
171
     0
290
     0
174
     0
 93
        1
 44
50.0
173
     0
291
     1
 45
0.0
1001
ACAD
1000
AcDbSavedByObjectVersion
1070
     0
  0
VISUALSTYLE
  5
BDE
102
{ACAD_XDICTIONARY
360
D16
102
}
102
{ACAD_REACTORS
330
BCE
102
}
330
BCE
100
AcDbVisualStyle
  2
ColorChange
 70
    16
 71
     2
 72
     2
 73
     3
 90
        0
 40
-0.6
 41
-30.0
 62
     5
 63
     8
 74
     1
 91
        4
 64
     7
 65
   257
 75
     1
175
     1
 42
1.0
 92
        8
 66
     8
 43
1.0
 76
     1
 77
     6
 78
     2
 67
     7
 79
     5
170
     0
171
     0
290
     0
174
     0
 93
        1
 44
0.0
173
     0
291
     1
 45
0.0
1001
ACAD
1000
AcDbSavedByObjectVersion
1070
     0
  0
VISUALSTYLE
  5
BD7
102
{ACAD_XDICTIONARY
360
D08
102
}
102
{ACAD_REACTORS
330
BCE
102
}
330
BCE
100
AcDbVisualStyle
  2
Conceptual
 70
     9
 71
     3
 72
     2
 73
     0
 90
        0
 40
-0.6
 41
-30.0
 62
     5
 63
     7
 74
     2
 91
        2
 64
     7
 65
   257
 75
     1
175
     1
 42
179.0
 92
        8
 66
     7
 43
1.0
 76
     1
 77
     6
 78
     2
 67
     7
 79
     3
170
     0
171
     0
290
     0
174
     0
 93
        1
 44
0.0
173
     0
291
     0
 45
0.0
1001
ACAD
1000
AcDbSavedByObjectVersion
1070
     0
  0
VISUALSTYLE
  5
BD9
102
{ACAD_XDICTIONARY
360
D0C
102
}
102
{ACAD_REACTORS
330
BCE
102
}
330
BCE
100
AcDbVisualStyle
  2
Dim
 70
    11
 71
     2
 72
     2
 73
     0
 90
        0
 40
-0.6
 41
-30.0
 62
     5
 63
     7
 74
     1
 91
        4
 64
     7
 65
   257
 75
     1
175
     1
 42
1.0
 92
        8
 66
     7
 43
1.0
 76
     1
 77
     6
 78
     2
 67
     7
 79
     5
170
     0
171
     0
290
     0
174
     0
 93
        1
 44
-50.0
173
     0
291
     1
 45
0.0
1001
ACAD
1000
AcDbSavedByObjectVersion
1070
     0
  0
VISUALSTYLE
  5
BE6
102
{ACAD_XDICTIONARY
360
D26
102
}
102
{ACAD_REACTORS
330
BCE
102
}
330
BCE
100
AcDbVisualStyle
  2
EdgeColorOff
 70
    22
 71
     2
 72
     2
 73
     0
 90
        0
 40
-0.6
 41
-30.0
 62
     5
 63
     7
 74
     1
 91
        4
 64
     7
 65
   257
 75
     1
175
     1
 42
1.0
 92
        8
 66
     7
 43
1.0
 76
     1
 77
     6
 78
     2
 67
     7
 79
     5
170
     0
171
     0
290
     0
174
     0
 93
        1
 44
0.0
173
     0
291
     1
 45
0.0
1001
ACAD
1000
AcDbSavedByObjectVersion
1070
     0
  0
VISUALSTYLE
  5
BDD
102
{ACAD_XDICTIONARY
360
D14
102
}
102
{ACAD_REACTORS
330
BCE
102
}
330
BCE
100
AcDbVisualStyle
  2
Facepattern
 70
    15
 71
     2
 72
     2
 73
     0
 90
        0
 40
-0.6
 41
-30.0
 62
     5
 63
     7
 74
     1
 91
        4
 64
     7
 65
   257
 75
     1
175
     1
 42
1.0
 92
        8
 66
     7
 43
1.0
 76
     1
 77
     6
 78
     2
 67
     7
 79
     5
170
     0
171
     0
290
     0
174
     0
 93
        1
 44
0.0
173
     0
291
     1
 45
0.0
1001
ACAD
1000
AcDbSavedByObjectVersion
1070
     0
  0
VISUALSTYLE
  5
BCF
102
{ACAD_XDICTIONARY
360
CF8
102
}
102
{ACAD_REACTORS
330
BCE
102
}
330
BCE
100
AcDbVisualStyle
  2
Flat
 70
     0
 71
     2
 72
     1
 73
     1
 90
        2
 40
-0.6
 41
30.0
 62
     5
 63
     7
 74
     0
 91
        0
 64
     7
 65
   257
 75
     1
175
     1
 42
1.0
 92
        8
 66
     7
 43
1.0
 76
     1
 77
     6
 78
     2
 67
     7
 79
     5
170
     0
171
     0
290
     0
174
     0
 93
       13
 44
0.0
173
     0
291
     1
 45
0.0
1001
ACAD
1000
AcDbSavedByObjectVersion
1070
     0
  0
VISUALSTYLE
  5
BD0
102
{ACAD_XDICTIONARY
360
CFA
102
}
102
{ACAD_REACTORS
330
BCE
102
}
330
BCE
100
AcDbVisualStyle
  2
FlatWithEdges
 70
     1
 71
     2
 72
     1
 73
     1
 90
        2
 40
-0.6
 41
30.0
 62
     5
 63
     7
 74
     1
 91
        0
 64
     7
 65
   257
 75
     1
175
     1
 42
1.0
 92
        0
 66
   257
 43
1.0
 76
     1
 77
     6
 78
     2
 67
     7
 79
     5
170
     0
171
     0
290
     0
174
     0
 93
       13
 44
0.0
173
     0
291
     1
 45
0.0
1001
ACAD
1000
AcDbSavedByObjectVersion
1070
     0
  0
VISUALSTYLE
  5
BD1
102
{ACAD_XDICTIONARY
360
CFC
102
}
102
{ACAD_REACTORS
330
BCE
102
}
330
BCE
100
AcDbVisualStyle
  2
Gouraud
 70
     2
 71
     2
 72
     2
 73
     1
 90
        2
 40
-0.6
 41
30.0
 62
     5
 63
     7
 74
     0
 91
        0
 64
     7
 65
   257
 75
     1
175
     1
 42
1.0
 92
        0
 66
     7
 43
1.0
 76
     1
 77
     6
 78
     2
 67
     7
 79
     5
170
     0
171
     0
290
     0
174
     0
 93
       13
 44
0.0
173
     0
291
     1
 45
0.0
1001
ACAD
1000
AcDbSavedByObjectVersion
1070
     0
  0
VISUALSTYLE
  5
BD2
102
{ACAD_XDICTIONARY
360
CFE
102
}
102
{ACAD_REACTORS
330
BCE
102
}
330
BCE
100
AcDbVisualStyle
  2
GouraudWithEdges
 70
     3
 71
     2
 72
     2
 73
     1
 90
        2
 40
-0.6
 41
30.0
 62
     5
 63
     7
 74
     1
 91
        0
 64
     7
 65
   257
 75
     1
175
     1
 42
1.0
 92
        0
 66
   257
 43
1.0
 76
     1
 77
     6
 78
     2
 67
     7
 79
     5
170
     0
171
     0
290
     0
174
     0
 93
       13
 44
0.0
173
     0
291
     1
 45
0.0
1001
ACAD
1000
AcDbSavedByObjectVersion
1070
     0
  0
VISUALSTYLE
  5
BD6
102
{ACAD_XDICTIONARY
360
D06
102
}
102
{ACAD_REACTORS
330
BCE
102
}
330
BCE
100
AcDbVisualStyle
  2
Hidden
 70
     6
 71
     1
 72
     2
 73
     2
 90
        0
 40
-0.6
 41
-30.0
 62
     5
 63
     7
 74
     2
 91
        2
 64
     7
 65
   257
 75
     2
175
     1
 42
40.0
 92
        0
 66
   257
 43
1.0
 76
     1
 77
     6
 78
     2
 67
     7
 79
     3
170
     0
171
     0
290
     0
174
     0
 93
        1
 44
0.0
173
     0
291
     0
 45
0.0
1001
ACAD
1000
AcDbSavedByObjectVersion
1070
     0
  0
VISUALSTYLE
  5
BE4
102
{ACAD_XDICTIONARY
360
D22
102
}
102
{ACAD_REACTORS
330
BCE
102
}
330
BCE
100
AcDbVisualStyle
  2
JitterOff
 70
    20
 71
     2
 72
     2
 73
     0
 90
        0
 40
-0.6
 41
-30.0
 62
     5
 63
     7
 74
     1
 91
        4
 64
     7
 65
   257
 75
     1
175
     1
 42
1.0
 92
       10
 66
     7
 43
1.0
 76
     1
 77
     6
 78
     2
 67
     7
 79
     5
170
     0
171
     0
290
     0
174
     0
 93
        1
 44
0.0
173
     0
291
     1
 45
0.0
1001
ACAD
1000
AcDbSavedByObjectVersion
1070
     0
  0
VISUALSTYLE
  5
BDC
102
{ACAD_XDICTIONARY
360
D12
102
}
102
{ACAD_REACTORS
330
BCE
102
}
330
BCE
100
AcDbVisualStyle
  2
Linepattern
 70
    14
 71
     2
 72
     2
 73
     0
 90
        0
 40
-0.6
 41
-30.0
 62
     5
 63
     7
 74
     1
 91
        4
 64
     7
 65
   257
 75
     7
175
     7
 42
1.0
 92
        8
 66
     7
 43
1.0
 76
     1
 77
     6
 78
     2
 67
     7
 79
     5
170
     0
171
     0
290
     0
174
     0
 93
        1
 44
0.0
173
     0
291
     1
 45
0.0
1001
ACAD
1000
AcDbSavedByObjectVersion
1070
     0
  0
VISUALSTYLE
  5
BE5
102
{ACAD_XDICTIONARY
360
D24
102
}
102
{ACAD_REACTORS
330
BCE
102
}
330
BCE
100
AcDbVisualStyle
  2
OverhangOff
 70
    21
 71
     2
 72
     2
 73
     0
 90
        0
 40
-0.6
 41
-30.0
 62
     5
 63
     7
 74
     1
 91
        4
 64
     7
 65
   257
 75
     1
175
     1
 42
1.0
 92
        9
 66
     7
 43
1.0
 76
     1
 77
     6
 78
     2
 67
     7
 79
     5
170
     0
171
     0
290
     0
174
     0
 93
        1
 44
0.0
173
     0
291
     1
 45
0.0
1001
ACAD
1000
AcDbSavedByObjectVersion
1070
     0
  0
VISUALSTYLE
  5
BD8
102
{ACAD_XDICTIONARY
360
D0A
102
}
102
{ACAD_REACTORS
330
BCE
102
}
330
BCE
100
AcDbVisualStyle
  2
Realistic
 70
     8
 71
     2
 72
     3
 73
     0
 90
        2
 40
-0.6
 41
30.0
 62
     5
 63
     7
 74
     0
 91
        0
 64
     7
 65
   257
 75
     1
175
     1
 42
1.0
 92
        8
 66
   257
 43
1.0
 76
     1
 77
     6
 78
     2
 67
     7
 79
     3
170
     0
171
     0
290
     0
174
     0
 93
       13
 44
0.0
173
     0
291
     0
 45
0.0
1001
ACAD
1000
AcDbSavedByObjectVersion
1070
     0
  0
VISUALSTYLE
  5
BE3
102
{ACAD_XDICTIONARY
360
D20
102
}
102
{ACAD_REACTORS
330
BCE
102
}
330
BCE
100
AcDbVisualStyle
  2
Shaded
 70
    27
 71
     2
 72
     2
 73
     1
 90
        2
 40
-0.6
 41
30.0
 62
     5
 63
     7
 74
     0
 91
        4
 64
     7
 65
   257
 75
     1
175
     1
 42
1.0
 92
        8
 66
   257
 43
1.0
 76
     1
 77
     6
 78
     2
 67
     8
 79
     3
170
     0
171
     0
290
     0
174
     0
 93
        5
 44
0.0
173
     0
291
     0
 45
0.0
1001
ACAD
1000
AcDbSavedByObjectVersion
1070
     0
  0
VISUALSTYLE
  5
BE2
102
{ACAD_XDICTIONARY
360
D1E
102
}
102
{ACAD_REACTORS
330
BCE
102
}
330
BCE
100
AcDbVisualStyle
  2
Shaded with edges
 70
    26
 71
     2
 72
     2
 73
     1
 90
        2
 40
-0.6
 41
30.0
 62
     5
 63
     7
 74
     1
 91
       10
 64
     7
 65
   257
 75
     2
175
     1
 42
1.0
 92
        8
 66
   257
 43
1.0
 76
     1
 77
     6
 78
     2
 67
     7
 79
     3
170
     0
171
     0
290
     0
174
     0
 93
        5
 44
0.0
173
     0
291
     0
 45
0.0
1001
ACAD
1000
AcDbSavedByObjectVersion
1070
     0
  0
VISUALSTYLE
  5
BDF
102
{ACAD_XDICTIONARY
360
D18
102
}
102
{ACAD_REACTORS
330
BCE
102
}
330
BCE
100
AcDbVisualStyle
  2
Shades of Gray
 70
    23
 71
     2
 72
     2
 73
     3
 90
        0
 40
-0.6
 41
-30.0
 62
     5
 63
     7
 74
     2
 91
        2
 64
     7
 65
     7
 75
     1
175
     1
 42
40.0
 92
        8
 66
     7
 43
1.0
 76
     1
 77
     6
 78
     2
 67
     7
 79
     3
170
     0
171
     0
290
     0
174
     0
 93
        1
 44
0.0
173
     0
291
     0
 45
0.0
1001
ACAD
1000
AcDbSavedByObjectVersion
1070
     0
  0
VISUALSTYLE
  5
BE0
102
{ACAD_XDICTIONARY
360
D1A
102
}
102
{ACAD_REACTORS
330
BCE
102
}
330
BCE
100
AcDbVisualStyle
  2
Sketchy
 70
    24
 71
     1
 72
     2
 73
     2
 90
        0
 40
-0.6
 41
-30.0
 62
     5
 63
     7
 74
     2
 91
        2
 64
     7
 65
     7
 75
     1
175
     1
 42
40.0
 92
       11
 66
     7
 43
1.0
 76
     1
 77
     6
 78
     2
 67
     7
 79
     6
170
     0
171
     0
290
     0
174
     0
 93
        1
 44
0.0
173
     0
291
     0
 45
0.0
1001
ACAD
1000
AcDbSavedByObjectVersion
1070
     0
  0
VISUALSTYLE
  5
BDB
102
{ACAD_XDICTIONARY
360
D10
102
}
102
{ACAD_REACTORS
330
BCE
102
}
330
BCE
100
AcDbVisualStyle
  2
Thicken
 70
    13
 71
     2
 72
     2
 73
     0
 90
        0
 40
-0.6
 41
-30.0
 62
     5
 63
     7
 74
     1
 91
        4
 64
     7
 65
   257
 75
     1
175
     1
 42
1.0
 92
       12
 66
     7
 43
1.0
 76
     1
 77
     6
 78
     2
 67
     7
 79
     5
170
     0
171
     0
290
     0
174
     0
 93
        1
 44
0.0
173
     0
291
     1
 45
0.0
1001
ACAD
1000
AcDbSavedByObjectVersion
1070
     0
  0
VISUALSTYLE
  5
BD5
102
{ACAD_XDICTIONARY
360
D04
102
}
102
{ACAD_REACTORS
330
BCE
102
}
330
BCE
100
AcDbVisualStyle
  2
Wireframe
 70
     5
 71
     0
 72
     2
 73
     0
 90
        0
 40
-0.6
 41
-30.0
 62
     5
 63
     7
 74
     1
 91
        4
 64
     7
 65
   257
 75
     1
175
     1
 42
1.0
 92
        0
 66
   257
 43
1.0
 76
     1
 77
     6
 78
     2
 67
     7
 79
     3
170
     0
171
     0
290
     0
174
     0
 93
        1
 44
0.0
173
     0
291
     0
 45
0.0
1001
ACAD
1000
AcDbSavedByObjectVersion
1070
     0
  0
VISUALSTYLE
  5
BE1
102
{ACAD_XDICTIONARY
360
D1C
102
}
102
{ACAD_REACTORS
330
BCE
102
}
330
BCE
100
AcDbVisualStyle
  2
X-Ray
 70
    25
 71
     2
 72
     2
 73
     1
 90
        1
 40
0.5
 41
-30.0
 62
     5
 63
     7
 74
     1
 91
        0
 64
     7
 65
   257
 75
     1
175
     1
 42
1.0
 92
        8
 66
     7
 43
1.0
 76
     1
 77
     6
 78
     2
 67
     7
 79
     3
170
     0
171
     0
290
     0
174
     0
 93
       13
 44
0.0
173
     0
291
     0
 45
0.0
1001
ACAD
1000
AcDbSavedByObjectVersion
1070
     0
  0
DICTIONARYVAR
  5
CD8
102
{ACAD_REACTORS
330
CD2
102
}
330
CD2
100
DictionaryVariables
280
     0
  1
1:1
  0
DICTIONARYVAR
  5
CD4
102
{ACAD_REACTORS
330
CD2
102
}
330
CD2
100
DictionaryVariables
280
     0
  1
STANDARD
  0
DICTIONARYVAR
  5
CD3
102
{ACAD_REACTORS
330
CD2
102
}
330
CD2
100
DictionaryVariables
280
     0
  1
STANDARD
  0
DICTIONARYVAR
  5
CD5
102
{ACAD_REACTORS
330
CD2
102
}
330
CD2
100
DictionaryVariables
280
     0
  1
Imperial24
  0
DICTIONARYVAR
  5
CD6
102
{ACAD_REACTORS
330
CD2
102
}
330
CD2
100
DictionaryVariables
280
     0
  1
Imperial24
  0
DICTIONARYVAR
  5
CE4
102
{ACAD_REACTORS
330
CD2
102
}
330
CD2
100
DictionaryVariables
280
     0
  1
1
  0
DICTIONARYVAR
  5
CE2
102
{ACAD_REACTORS
330
CD2
102
}
330
CD2
100
DictionaryVariables
280
     0
  1
0
  0
DICTIONARYVAR
  5
CDA
102
{ACAD_REACTORS
330
CD2
102
}
330
CD2
100
DictionaryVariables
280
     0
  1
1
  0
DICTIONARYVAR
  5
CDB
102
{ACAD_REACTORS
330
CD2
102
}
330
CD2
100
DictionaryVariables
280
     0
  1
15
  0
DICTIONARYVAR
  5
CD9
102
{ACAD_REACTORS
330
CD2
102
}
330
CD2
100
DictionaryVariables
280
     0
  1
0
  0
DICTIONARYVAR
  5
CD7
102
{ACAD_REACTORS
330
CD2
102
}
330
CD2
100
DictionaryVariables
280
     0
  1
0
  0
DICTIONARYVAR
  5
CE1
102
{ACAD_REACTORS
330
CD2
102
}
330
CD2
100
DictionaryVariables
280
     0
  1
127
  0
DICTIONARYVAR
  5
CE3
102
{ACAD_REACTORS
330
CD2
102
}
330
CD2
100
DictionaryVariables
280
     0
  1
0
  0
DICTIONARY
  5
CF0
102
{ACAD_REACTORS
330
CEE
102
}
330
CEE
100
AcDbDictionary
281
     1
  0
DICTIONARY
  5
CEF
102
{ACAD_REACTORS
330
CEE
102
}
330
CEE
100
AcDbDictionary
281
     1
  3
2129701448
350
CE9
  3
2129701456
350
CEA
  3
2129701464
350
CEB
  3
2129701472
350
CEC
  3
2129701480
350
CED
  0
DICTIONARY
  5
CCF
330
C00
100
AcDbDictionary
280
     1
281
     1
  3
ACAD_XREC_ROUNDTRIP
360
D2D
  0
DICTIONARY
  5
CF3
330
309
100
AcDbDictionary
280
     1
281
     1
  3
ACAD_XREC_ROUNDTRIP
360
CF4
  0
DICTIONARY
  5
CF1
330
305
100
AcDbDictionary
280
     1
281
     1
  3
ACAD_XREC_ROUNDTRIP
360
CF2
  0
DICTIONARY
  5
BBF
330
BBE
100
AcDbDictionary
280
     1
281
     1
  3
ACAD_XREC_ROUNDTRIP
360
CF6
  3
BUMPTILE
360
BC1
  3
DIFFUSETILE
360
BC0
  3
OPACITYTILE
360
BC4
  3
REFLECTIONTILE
360
BC3
  3
REFRACTIONTILE
360
BC5
  3
SPECULARTILE
360
BC2
  0
DICTIONARY
  5
BB7
330
BB6
100
AcDbDictionary
280
     1
281
     1
  3
ACAD_XREC_ROUNDTRIP
360
CF5
  3
BUMPTILE
360
BB9
  3
DIFFUSETILE
360
BB8
  3
OPACITYTILE
360
BBC
  3
REFLECTIONTILE
360
BBB
  3
REFRACTIONTILE
360
BBD
  3
SPECULARTILE
360
BBA
  0
DICTIONARY
  5
BC7
330
BC6
100
AcDbDictionary
280
     1
281
     1
  3
ACAD_XREC_ROUNDTRIP
360
CF7
  3
BUMPTILE
360
BC9
  3
DIFFUSETILE
360
BC8
  3
OPACITYTILE
360
BCC
  3
REFLECTIONTILE
360
BCB
  3
REFRACTIONTILE
360
BCD
  3
SPECULARTILE
360
BCA
  0
DICTIONARY
  5
D2A
330
BFC
100
AcDbDictionary
280
     1
281
     1
  3
ACAD_XREC_ROUNDTRIP
360
D2B
  0
DICTIONARY
  5
CCD
330
BFE
100
AcDbDictionary
280
     1
281
     1
  3
ACAD_XREC_ROUNDTRIP
360
D2C
  0
DICTIONARY
  5
CE5
330
BE8
100
AcDbDictionary
280
     1
281
     1
  3
ACAD_ROUNDTRIP_2008_TABLESTYLE_CELLSTYLEMAP
360
CE6
  3
ACAD_XREC_ROUNDTRIP
360
D28
  0
DICTIONARY
  5
D02
330
BD4
100
AcDbDictionary
280
     1
281
     1
  3
ACAD_XREC_ROUNDTRIP
360
D03
  0
DICTIONARY
  5
D00
330
BD3
100
AcDbDictionary
280
     1
281
     1
  3
ACAD_XREC_ROUNDTRIP
360
D01
  0
DICTIONARY
  5
D0E
330
BDA
100
AcDbDictionary
280
     1
281
     1
  3
ACAD_XREC_ROUNDTRIP
360
D0F
  0
DICTIONARY
  5
D16
330
BDE
100
AcDbDictionary
280
     1
281
     1
  3
ACAD_XREC_ROUNDTRIP
360
D17
  0
DICTIONARY
  5
D08
330
BD7
100
AcDbDictionary
280
     1
281
     1
  3
ACAD_XREC_ROUNDTRIP
360
D09
  0
DICTIONARY
  5
D0C
330
BD9
100
AcDbDictionary
280
     1
281
     1
  3
ACAD_XREC_ROUNDTRIP
360
D0D
  0
DICTIONARY
  5
D26
330
BE6
100
AcDbDictionary
280
     1
281
     1
  3
ACAD_XREC_ROUNDTRIP
360
D27
  0
DICTIONARY
  5
D14
330
BDD
100
AcDbDictionary
280
     1
281
     1
  3
ACAD_XREC_ROUNDTRIP
360
D15
  0
DICTIONARY
  5
CF8
330
BCF
100
AcDbDictionary
280
     1
281
     1
  3
ACAD_XREC_ROUNDTRIP
360
CF9
  0
DICTIONARY
  5
CFA
330
BD0
100
AcDbDictionary
280
     1
281
     1
  3
ACAD_XREC_ROUNDTRIP
360
CFB
  0
DICTIONARY
  5
CFC
330
BD1
100
AcDbDictionary
280
     1
281
     1
  3
ACAD_XREC_ROUNDTRIP
360
CFD
  0
DICTIONARY
  5
CFE
330
BD2
100
AcDbDictionary
280
     1
281
     1
  3
ACAD_XREC_ROUNDTRIP
360
CFF
  0
DICTIONARY
  5
D06
330
BD6
100
AcDbDictionary
280
     1
281
     1
  3
ACAD_XREC_ROUNDTRIP
360
D07
  0
DICTIONARY
  5
D22
330
BE4
100
AcDbDictionary
280
     1
281
     1
  3
ACAD_XREC_ROUNDTRIP
360
D23
  0
DICTIONARY
  5
D12
330
BDC
100
AcDbDictionary
280
     1
281
     1
  3
ACAD_XREC_ROUNDTRIP
360
D13
  0
DICTIONARY
  5
D24
330
BE5
100
AcDbDictionary
280
     1
281
     1
  3
ACAD_XREC_ROUNDTRIP
360
D25
  0
DICTIONARY
  5
D0A
330
BD8
100
AcDbDictionary
280
     1
281
     1
  3
ACAD_XREC_ROUNDTRIP
360
D0B
  0
DICTIONARY
  5
D20
330
BE3
100
AcDbDictionary
280
     1
281
     1
  3
ACAD_XREC_ROUNDTRIP
360
D21
  0
DICTIONARY
  5
D1E
330
BE2
100
AcDbDictionary
280
     1
281
     1
  3
ACAD_XREC_ROUNDTRIP
360
D1F
  0
DICTIONARY
  5
D18
330
BDF
100
AcDbDictionary
280
     1
281
     1
  3
ACAD_XREC_ROUNDTRIP
360
D19
  0
DICTIONARY
  5
D1A
330
BE0
100
AcDbDictionary
280
     1
281
     1
  3
ACAD_XREC_ROUNDTRIP
360
D1B
  0
DICTIONARY
  5
D10
330
BDB
100
AcDbDictionary
280
     1
281
     1
  3
ACAD_XREC_ROUNDTRIP
360
D11
  0
DICTIONARY
  5
D04
330
BD5
100
AcDbDictionary
280
     1
281
     1
  3
ACAD_XREC_ROUNDTRIP
360
D05
  0
DICTIONARY
  5
D1C
330
BE1
100
AcDbDictionary
280
     1
281
     1
  3
ACAD_XREC_ROUNDTRIP
360
D1D
  0
XRECORD
  5
CE9
102
{ACAD_REACTORS
330
CEF
102
}
330
CEF
100
AcDbXrecord
280
     1
  1
AcDb_Thumbnail_Schema
102
{ATTRRECORD
341
CEA
  2
AcDbDs::TreatedAsObjectData
280
     1
291
     1
102
ATTRRECORD}
102
{ATTRRECORD
341
CEB
  2
AcDbDs::Legacy
280
     1
291
     1
102
ATTRRECORD}
  2
AcDbDs::ID
280
    10
 91
        8
102
{ATTRRECORD
341
CEC
  2
AcDs:Indexable
280
     1
291
     1
102
ATTRRECORD}
102
{ATTRRECORD
341
CED
  2
AcDbDs::HandleAttribute
280
     7
282
     1
102
ATTRRECORD}
  2
Thumbnail_Data
280
    15
 91
        0
  0
XRECORD
  5
CEA
102
{ACAD_REACTORS
330
CEF
102
}
330
CEF
100
AcDbXrecord
280
     1
  1
AcDbDs::TreatedAsObjectDataSchema
  2
AcDbDs::TreatedAsObjectData
280
     1
 91
        0
  0
XRECORD
  5
CEB
102
{ACAD_REACTORS
330
CEF
102
}
330
CEF
100
AcDbXrecord
280
     1
  1
AcDbDs::LegacySchema
  2
AcDbDs::Legacy
280
     1
 91
        0
  0
XRECORD
  5
CEC
102
{ACAD_REACTORS
330
CEF
102
}
330
CEF
100
AcDbXrecord
280
     1
  1
AcDbDs::IndexedPropertySchema
  2
AcDs:Indexable
280
     1
 91
        0
  0
XRECORD
  5
CED
102
{ACAD_REACTORS
330
CEF
102
}
330
CEF
100
AcDbXrecord
280
     1
  1
AcDbDs::HandleAttributeSchema
  2
AcDbDs::HandleAttribute
280
     7
 91
        1
284
     1
  0
XRECORD
  5
D2D
102
{ACAD_REACTORS
330
CCF
102
}
330
CCF
100
AcDbXrecord
280
     1
102
DISPLAYNAME
  1
Imperial24
102
FLAGS
 90
        0
  0
XRECORD
  5
CF4
102
{ACAD_REACTORS
330
CF3
102
}
330
CF3
100
AcDbXrecord
280
     1
102
SHADEPLOT
 70
     0
102
SHADEPLOTRESLEVEL
 70
     2
102
SHADEPLOTCUSTOMDPI
 70
   150
  0
XRECORD
  5
CF2
102
{ACAD_REACTORS
330
CF1
102
}
330
CF1
100
AcDbXrecord
280
     1
102
SHADEPLOT
 70
     0
102
SHADEPLOTRESLEVEL
 70
     2
102
SHADEPLOTCUSTOMDPI
 70
   300
  0
XRECORD
  5
CF6
102
{ACAD_REACTORS
330
BBF
102
}
330
BBF
100
AcDbXrecord
280
     1
102
MATERIAL
148
0.0
149
0.0
149
0.0
 93
        0
 94
      127
282
     0
 72
     0
 77
     0
171
     0
175
     0
179
     0
273
     0
  0
XRECORD
  5
BC1
102
{ACAD_REACTORS
330
BBF
102
}
330
BBF
100
AcDbXrecord
280
     1
270
     1
271
     1
  0
XRECORD
  5
BC0
102
{ACAD_REACTORS
330
BBF
102
}
330
BBF
100
AcDbXrecord
280
     1
270
     1
271
     1
  0
XRECORD
  5
BC4
102
{ACAD_REACTORS
330
BBF
102
}
330
BBF
100
AcDbXrecord
280
     1
270
     1
271
     1
  0
XRECORD
  5
BC3
102
{ACAD_REACTORS
330
BBF
102
}
330
BBF
100
AcDbXrecord
280
     1
270
     1
271
     1
  0
XRECORD
  5
BC5
102
{ACAD_REACTORS
330
BBF
102
}
330
BBF
100
AcDbXrecord
280
     1
270
     1
271
     1
  0
XRECORD
  5
BC2
102
{ACAD_REACTORS
330
BBF
102
}
330
BBF
100
AcDbXrecord
280
     1
270
     1
271
     1
  0
XRECORD
  5
CF5
102
{ACAD_REACTORS
330
BB7
102
}
330
BB7
100
AcDbXrecord
280
     1
102
MATERIAL
148
0.0
149
0.0
149
0.0
 93
        0
 94
      127
282
     0
 72
     0
 77
     0
171
     0
175
     0
179
     0
273
     0
  0
XRECORD
  5
BB9
102
{ACAD_REACTORS
330
BB7
102
}
330
BB7
100
AcDbXrecord
280
     1
270
     1
271
     1
  0
XRECORD
  5
BB8
102
{ACAD_REACTORS
330
BB7
102
}
330
BB7
100
AcDbXrecord
280
     1
270
     1
271
     1
  0
XRECORD
  5
BBC
102
{ACAD_REACTORS
330
BB7
102
}
330
BB7
100
AcDbXrecord
280
     1
270
     1
271
     1
  0
XRECORD
  5
BBB
102
{ACAD_REACTORS
330
BB7
102
}
330
BB7
100
AcDbXrecord
280
     1
270
     1
271
     1
  0
XRECORD
  5
BBD
102
{ACAD_REACTORS
330
BB7
102
}
330
BB7
100
AcDbXrecord
280
     1
270
     1
271
     1
  0
XRECORD
  5
BBA
102
{ACAD_REACTORS
330
BB7
102
}
330
BB7
100
AcDbXrecord
280
     1
270
     1
271
     1
  0
XRECORD
  5
CF7
102
{ACAD_REACTORS
330
BC7
102
}
330
BC7
100
AcDbXrecord
280
     1
102
MATERIAL
148
0.0
149
0.0
149
0.0
 93
        0
 94
      127
282
     0
 72
     0
 77
     0
171
     0
175
     0
179
     0
273
     0
  0
XRECORD
  5
BC9
102
{ACAD_REACTORS
330
BC7
102
}
330
BC7
100
AcDbXrecord
280
     1
270
     1
271
     1
  0
XRECORD
  5
BC8
102
{ACAD_REACTORS
330
BC7
102
}
330
BC7
100
AcDbXrecord
280
     1
270
     1
271
     1
  0
XRECORD
  5
BCC
102
{ACAD_REACTORS
330
BC7
102
}
330
BC7
100
AcDbXrecord
280
     1
270
     1
271
     1
  0
XRECORD
  5
BCB
102
{ACAD_REACTORS
330
BC7
102
}
330
BC7
100
AcDbXrecord
280
     1
270
     1
271
     1
  0
XRECORD
  5
BCD
102
{ACAD_REACTORS
330
BC7
102
}
330
BC7
100
AcDbXrecord
280
     1
270
     1
271
     1
  0
XRECORD
  5
BCA
102
{ACAD_REACTORS
330
BC7
102
}
330
BC7
100
AcDbXrecord
280
     1
270
     1
271
     1
  0
XRECORD
  5
D2B
102
{ACAD_REACTORS
330
D2A
102
}
330
D2A
100
AcDbXrecord
280
     1
102
ACAD_ROUNDTRIP_2012_MLEADER_STYLE
298
     1
  0
XRECORD
  5
D2C
102
{ACAD_REACTORS
330
CCD
102
}
330
CCD
100
AcDbXrecord
280
     1
102
DISPLAYNAME
  1
Imperial24
102
FLAGS
 90
        0
  0
CELLSTYLEMAP
  5
CE6
102
{ACAD_REACTORS
330
CE5
102
}
330
CE5
100
AcDbCellStyleMap
 90
        3
300
CELLSTYLE
  1
TABLEFORMAT_BEGIN
 90
        5
170
     1
 91
        0
 92
    32768
 62
   257
 93
        1
300
CONTENTFORMAT
  1
CONTENTFORMAT_BEGIN
 90
        0
 91
        0
 92
      512
 93
        0
300

 40
0.0
140
1.0
 94
        5
 62
     0
340
2F7
144
0.25
309
CONTENTFORMAT_END
171
     0
 94
        0
309
TABLEFORMAT_END
  1
CELLSTYLE_BEGIN
 90
        1
 91
        1
300
_TITLE
309
CELLSTYLE_END
300
CELLSTYLE
  1
TABLEFORMAT_BEGIN
 90
        5
170
     1
 91
        0
 92
        0
 62
   257
 93
        1
300
CONTENTFORMAT
  1
CONTENTFORMAT_BEGIN
 90
        0
 91
        0
 92
      512
 93
        0
300

 40
0.0
140
1.0
 94
        5
 62
     0
340
2F7
144
0.18
309
CONTENTFORMAT_END
171
     0
 94
        0
309
TABLEFORMAT_END
  1
CELLSTYLE_BEGIN
 90
        2
 91
        1
300
_HEADER
309
CELLSTYLE_END
300
CELLSTYLE
  1
TABLEFORMAT_BEGIN
 90
        5
170
     1
 91
        0
 92
        0
 62
   257
 93
        1
300
CONTENTFORMAT
  1
CONTENTFORMAT_BEGIN
 90
        0
 91
        0
 92
      512
 93
        0
300

 40
0.0
140
1.0
 94
        2
 62
     0
340
2F7
144
0.18
309
CONTENTFORMAT_END
171
     0
 94
        0
309
TABLEFORMAT_END
  1
CELLSTYLE_BEGIN
 90
        3
 91
        2
300
_DATA
309
CELLSTYLE_END
  0
XRECORD
  5
D28
102
{ACAD_REACTORS
330
CE5
102
}
330
CE5
100
AcDbXrecord
280
     1
102
ACAD_ROUNDTRIP_PRE2007_TABLESTYLE
 90
      512
 91
        0
  1

 92
      512
 93
        0
  2

 94
      512
 95
        0
  3

  0
XRECORD
  5
D03
102
{ACAD_REACTORS
330
D02
102
}
330
D02
100
AcDbXrecord
280
     1
102
RTVSPost2010Prop28
280
     1
102
RTVSPost2010PropOp28
 70
     1
102
RTVSPost2010Prop29
280
     1
102
RTVSPost2010PropOp29
 70
     1
102
RTVSPost2010Prop30
280
     0
102
RTVSPost2010PropOp30
 70
     1
102
RTVSPost2010Prop31
280
     0
102
RTVSPost2010PropOp31
 70
     1
102
RTVSPost2010Prop32
280
     0
102
RTVSPost2010PropOp32
 70
     1
102
RTVSPost2010Prop33
280
     0
102
RTVSPost2010PropOp33
 70
     1
102
RTVSPost2010Prop34
280
     0
102
RTVSPost2010PropOp34
 70
     1
102
RTVSPost2010Prop35
280
     0
102
RTVSPost2010PropOp35
 70
     1
102
RTVSPost2010Prop36
280
     0
102
RTVSPost2010PropOp36
 70
     1
102
RTVSPost2010Prop37
 90
       50
102
RTVSPost2010PropOp37
 70
     1
102
RTVSPost2010Prop38
140
0.0
102
RTVSPost2010PropOp38
 70
     1
102
RTVSPost2010Prop39
140
1.0
102
RTVSPost2010PropOp39
 70
     1
102
RTVSPost2010Prop40
 90
        0
102
RTVSPost2010PropOp40
 70
     1
102
RTVSPost2010Prop41ColorIndex
 90
       18
102
RTVSPost2010Prop41ColorRGB
 90
        0
102
RTVSPost2010PropOp41
 70
     1
102
RTVSPost2010Prop42
 90
       50
102
RTVSPost2010PropOp42
 70
     1
102
RTVSPost2010Prop43
 90
        3
102
RTVSPost2010PropOp43
 70
     1
102
RTVSPost2010Prop44ColorIndex
 90
        5
102
RTVSPost2010Prop44ColorRGB
 90
      255
102
RTVSPost2010PropOp44
 70
     1
102
RTVSPost2010Prop45
280
     0
102
RTVSPost2010PropOp45
 70
     1
102
RTVSPost2010Prop46
 90
       50
102
RTVSPost2010PropOp46
 70
     1
102
RTVSPost2010Prop47
 90
       50
102
RTVSPost2010PropOp47
 70
     1
102
RTVSPost2010Prop48
 90
       50
102
RTVSPost2010PropOp48
 70
     1
102
RTVSPost2010Prop49
280
     0
102
RTVSPost2010PropOp49
 70
     1
102
RTVSPost2010Prop50
 90
       50
102
RTVSPost2010PropOp50
 70
     1
102
RTVSPost2010Prop51ColorIndex
 90
      256
102
RTVSPost2010Prop51ColorRGB
 90
-16777216
102
RTVSPost2010PropOp51
 70
     0
102
RTVSPost2010Prop52
140
1.0
102
RTVSPost2010PropOp52
 70
     0
102
RTVSPost2010Prop53
 90
        2
102
RTVSPost2010PropOp53
 70
     1
102
RTVSPost2010Prop54
  1
strokes_ogs.tif
102
RTVSPost2010PropOp54
 70
     1
102
RTVSPost2010Prop55
280
     0
102
RTVSPost2010PropOp55
 70
     1
102
RTVSPost2010Prop56
140
1.0
102
RTVSPost2010PropOp56
 70
     1
102
RTVSPost2010Prop57
140
1.0
102
RTVSPost2010PropOp57
 70
     1
102
RTVSPropertyOp0
 70
     1
102
RTVSPropertyOp1
 70
     1
102
RTVSPropertyOp2
 70
     1
102
RTVSPropertyOp3
 70
     1
102
RTVSPropertyOp4
 70
     1
102
RTVSPropertyOp5
 70
     1
102
RTVSPropertyOp6
 70
     1
102
RTVSPropertyOp7
 70
     1
102
RTVSPropertyOp8
 70
     1
102
RTVSPropertyOp9
 70
     1
102
RTVSPropertyOp10
 70
     1
102
RTVSPropertyOp11
 70
     1
102
RTVSPropertyOp12
 70
     1
102
RTVSPropertyOp13
 70
     1
102
RTVSPropertyOp14
 70
     1
102
RTVSPropertyOp15
 70
     1
102
RTVSPropertyOp16
 70
     1
102
RTVSPropertyOp17
 70
     1
102
RTVSPropertyOp18
 70
     1
102
RTVSPropertyOp19
 70
     1
102
RTVSPropertyOp20
 70
     1
102
RTVSPropertyOp21
 70
     1
102
RTVSPropertyOp22
 70
     1
102
RTVSPropertyOp23
 70
     1
102
RTVSPropertyOp24
 70
     1
102
RTVSPropertyOp25
 70
     1
102
RTVSPropertyOp26
 70
     1
102
RTVSPropertyOp27
 70
     1
102
RTVSPropertyOp28
 70
     1
102
RTVSPropertyOp29
 70
     1
102
RTVSPropertyOp30
 70
     1
102
RTVSPropertyOp31
 70
     1
102
RTVSPropertyOp32
 70
     1
102
RTVSPropertyOp33
 70
     1
102
RTVSPropertyOp34
 70
     1
102
RTVSPropertyOp35
 70
     1
102
RTVSPropertyOp36
 70
     1
102
RTVSPropertyOp37
 70
     1
102
RTVSPropertyOp38
 70
     1
102
RTVSPropertyOp39
 70
     1
102
RTVSPropertyOp40
 70
     1
102
RTVSPropertyOp41
 70
     1
102
RTVSPropertyOp42
 70
     1
102
RTVSPropertyOp43
 70
     1
102
RTVSPropertyOp44
 70
     1
102
RTVSPropertyOp45
 70
     1
102
RTVSPropertyOp46
 70
     1
102
RTVSPropertyOp47
 70
     1
102
RTVSPropertyOp48
 70
     1
102
RTVSPropertyOp49
 70
     1
102
RTVSPropertyOp50
 70
     1
102
RTVSPropertyOp51
 70
     0
102
RTVSPropertyOp52
 70
     0
102
RTVSPropertyOp53
 70
     1
102
RTVSPropertyOp54
 70
     1
102
RTVSPropertyOp55
 70
     1
102
RTVSPropertyOp56
 70
     1
102
RTVSPropertyOp57
 70
     1
102
RTVSPropertyOp58
 70
     1
102
RTVSPropertyOp59
 70
     1
102
RTVSPropertyOp60
 70
     1
102
RTVSPropertyOp61
 70
     1
102
RTVSPropertyOp62
 70
     1
  0
XRECORD
  5
D01
102
{ACAD_REACTORS
330
D00
102
}
330
D00
100
AcDbXrecord
280
     1
102
RTVSPost2010Prop28
280
     0
102
RTVSPost2010PropOp28
 70
     1
102
RTVSPost2010Prop29
280
     1
102
RTVSPost2010PropOp29
 70
     1
102
RTVSPost2010Prop30
280
     1
102
RTVSPost2010PropOp30
 70
     1
102
RTVSPost2010Prop31
280
     0
102
RTVSPost2010PropOp31
 70
     1
102
RTVSPost2010Prop32
280
     0
102
RTVSPost2010PropOp32
 70
     1
102
RTVSPost2010Prop33
280
     0
102
RTVSPost2010PropOp33
 70
     1
102
RTVSPost2010Prop34
280
     0
102
RTVSPost2010PropOp34
 70
     1
102
RTVSPost2010Prop35
280
     0
102
RTVSPost2010PropOp35
 70
     1
102
RTVSPost2010Prop36
280
     0
102
RTVSPost2010PropOp36
 70
     1
102
RTVSPost2010Prop37
 90
       50
102
RTVSPost2010PropOp37
 70
     1
102
RTVSPost2010Prop38
140
0.0
102
RTVSPost2010PropOp38
 70
     1
102
RTVSPost2010Prop39
140
1.0
102
RTVSPost2010PropOp39
 70
     1
102
RTVSPost2010Prop40
 90
        0
102
RTVSPost2010PropOp40
 70
     1
102
RTVSPost2010Prop41ColorIndex
 90
       18
102
RTVSPost2010Prop41ColorRGB
 90
        0
102
RTVSPost2010PropOp41
 70
     1
102
RTVSPost2010Prop42
 90
       50
102
RTVSPost2010PropOp42
 70
     1
102
RTVSPost2010Prop43
 90
        3
102
RTVSPost2010PropOp43
 70
     1
102
RTVSPost2010Prop44ColorIndex
 90
        5
102
RTVSPost2010Prop44ColorRGB
 90
      255
102
RTVSPost2010PropOp44
 70
     1
102
RTVSPost2010Prop45
280
     0
102
RTVSPost2010PropOp45
 70
     1
102
RTVSPost2010Prop46
 90
       50
102
RTVSPost2010PropOp46
 70
     1
102
RTVSPost2010Prop47
 90
       50
102
RTVSPost2010PropOp47
 70
     1
102
RTVSPost2010Prop48
 90
       50
102
RTVSPost2010PropOp48
 70
     1
102
RTVSPost2010Prop49
280
     0
102
RTVSPost2010PropOp49
 70
     1
102
RTVSPost2010Prop50
 90
       50
102
RTVSPost2010PropOp50
 70
     1
102
RTVSPost2010Prop51ColorIndex
 90
      256
102
RTVSPost2010Prop51ColorRGB
 90
-16777216
102
RTVSPost2010PropOp51
 70
     0
102
RTVSPost2010Prop52
140
1.0
102
RTVSPost2010PropOp52
 70
     0
102
RTVSPost2010Prop53
 90
        2
102
RTVSPost2010PropOp53
 70
     1
102
RTVSPost2010Prop54
  1
strokes_ogs.tif
102
RTVSPost2010PropOp54
 70
     1
102
RTVSPost2010Prop55
280
     0
102
RTVSPost2010PropOp55
 70
     1
102
RTVSPost2010Prop56
140
1.0
102
RTVSPost2010PropOp56
 70
     1
102
RTVSPost2010Prop57
140
1.0
102
RTVSPost2010PropOp57
 70
     1
102
RTVSPropertyOp0
 70
     1
102
RTVSPropertyOp1
 70
     1
102
RTVSPropertyOp2
 70
     1
102
RTVSPropertyOp3
 70
     1
102
RTVSPropertyOp4
 70
     1
102
RTVSPropertyOp5
 70
     1
102
RTVSPropertyOp6
 70
     1
102
RTVSPropertyOp7
 70
     1
102
RTVSPropertyOp8
 70
     1
102
RTVSPropertyOp9
 70
     1
102
RTVSPropertyOp10
 70
     1
102
RTVSPropertyOp11
 70
     1
102
RTVSPropertyOp12
 70
     1
102
RTVSPropertyOp13
 70
     1
102
RTVSPropertyOp14
 70
     1
102
RTVSPropertyOp15
 70
     1
102
RTVSPropertyOp16
 70
     1
102
RTVSPropertyOp17
 70
     1
102
RTVSPropertyOp18
 70
     1
102
RTVSPropertyOp19
 70
     1
102
RTVSPropertyOp20
 70
     1
102
RTVSPropertyOp21
 70
     1
102
RTVSPropertyOp22
 70
     1
102
RTVSPropertyOp23
 70
     1
102
RTVSPropertyOp24
 70
     1
102
RTVSPropertyOp25
 70
     1
102
RTVSPropertyOp26
 70
     1
102
RTVSPropertyOp27
 70
     1
102
RTVSPropertyOp28
 70
     1
102
RTVSPropertyOp29
 70
     1
102
RTVSPropertyOp30
 70
     1
102
RTVSPropertyOp31
 70
     1
102
RTVSPropertyOp32
 70
     1
102
RTVSPropertyOp33
 70
     1
102
RTVSPropertyOp34
 70
     1
102
RTVSPropertyOp35
 70
     1
102
RTVSPropertyOp36
 70
     1
102
RTVSPropertyOp37
 70
     1
102
RTVSPropertyOp38
 70
     1
102
RTVSPropertyOp39
 70
     1
102
RTVSPropertyOp40
 70
     1
102
RTVSPropertyOp41
 70
     1
102
RTVSPropertyOp42
 70
     1
102
RTVSPropertyOp43
 70
     1
102
RTVSPropertyOp44
 70
     1
102
RTVSPropertyOp45
 70
     1
102
RTVSPropertyOp46
 70
     1
102
RTVSPropertyOp47
 70
     1
102
RTVSPropertyOp48
 70
     1
102
RTVSPropertyOp49
 70
     1
102
RTVSPropertyOp50
 70
     1
102
RTVSPropertyOp51
 70
     0
102
RTVSPropertyOp52
 70
     0
102
RTVSPropertyOp53
 70
     1
102
RTVSPropertyOp54
 70
     1
102
RTVSPropertyOp55
 70
     1
102
RTVSPropertyOp56
 70
     1
102
RTVSPropertyOp57
 70
     1
102
RTVSPropertyOp58
 70
     1
102
RTVSPropertyOp59
 70
     1
102
RTVSPropertyOp60
 70
     1
102
RTVSPropertyOp61
 70
     1
102
RTVSPropertyOp62
 70
     1
  0
XRECORD
  5
D0F
102
{ACAD_REACTORS
330
D0E
102
}
330
D0E
100
AcDbXrecord
280
     1
102
RTVSPost2010Prop28
280
     0
102
RTVSPost2010PropOp28
 70
     1
102
RTVSPost2010Prop29
280
     1
102
RTVSPost2010PropOp29
 70
     1
102
RTVSPost2010Prop30
280
     1
102
RTVSPost2010PropOp30
 70
     1
102
RTVSPost2010Prop31
280
     0
102
RTVSPost2010PropOp31
 70
     1
102
RTVSPost2010Prop32
280
     0
102
RTVSPost2010PropOp32
 70
     1
102
RTVSPost2010Prop33
280
     0
102
RTVSPost2010PropOp33
 70
     1
102
RTVSPost2010Prop34
280
     0
102
RTVSPost2010PropOp34
 70
     1
102
RTVSPost2010Prop35
280
     0
102
RTVSPost2010PropOp35
 70
     1
102
RTVSPost2010Prop36
280
     0
102
RTVSPost2010PropOp36
 70
     1
102
RTVSPost2010Prop37
 90
       50
102
RTVSPost2010PropOp37
 70
     1
102
RTVSPost2010Prop38
140
0.0
102
RTVSPost2010PropOp38
 70
     1
102
RTVSPost2010Prop39
140
1.0
102
RTVSPost2010PropOp39
 70
     1
102
RTVSPost2010Prop40
 90
        0
102
RTVSPost2010PropOp40
 70
     1
102
RTVSPost2010Prop41ColorIndex
 90
       18
102
RTVSPost2010Prop41ColorRGB
 90
        0
102
RTVSPost2010PropOp41
 70
     1
102
RTVSPost2010Prop42
 90
       50
102
RTVSPost2010PropOp42
 70
     1
102
RTVSPost2010Prop43
 90
        3
102
RTVSPost2010PropOp43
 70
     1
102
RTVSPost2010Prop44ColorIndex
 90
        5
102
RTVSPost2010Prop44ColorRGB
 90
      255
102
RTVSPost2010PropOp44
 70
     1
102
RTVSPost2010Prop45
280
     0
102
RTVSPost2010PropOp45
 70
     1
102
RTVSPost2010Prop46
 90
       50
102
RTVSPost2010PropOp46
 70
     1
102
RTVSPost2010Prop47
 90
       50
102
RTVSPost2010PropOp47
 70
     1
102
RTVSPost2010Prop48
 90
       50
102
RTVSPost2010PropOp48
 70
     1
102
RTVSPost2010Prop49
280
     0
102
RTVSPost2010PropOp49
 70
     1
102
RTVSPost2010Prop50
 90
       50
102
RTVSPost2010PropOp50
 70
     1
102
RTVSPost2010Prop51ColorIndex
 90
      256
102
RTVSPost2010Prop51ColorRGB
 90
-16777216
102
RTVSPost2010PropOp51
 70
     0
102
RTVSPost2010Prop52
140
1.0
102
RTVSPost2010PropOp52
 70
     0
102
RTVSPost2010Prop53
 90
        2
102
RTVSPost2010PropOp53
 70
     1
102
RTVSPost2010Prop54
  1
strokes_ogs.tif
102
RTVSPost2010PropOp54
 70
     1
102
RTVSPost2010Prop55
280
     0
102
RTVSPost2010PropOp55
 70
     1
102
RTVSPost2010Prop56
140
1.0
102
RTVSPost2010PropOp56
 70
     1
102
RTVSPost2010Prop57
140
1.0
102
RTVSPost2010PropOp57
 70
     1
102
RTVSPropertyOp0
 70
     1
102
RTVSPropertyOp1
 70
     1
102
RTVSPropertyOp2
 70
     1
102
RTVSPropertyOp3
 70
     1
102
RTVSPropertyOp4
 70
     1
102
RTVSPropertyOp5
 70
     1
102
RTVSPropertyOp6
 70
     1
102
RTVSPropertyOp7
 70
     1
102
RTVSPropertyOp8
 70
     1
102
RTVSPropertyOp9
 70
     1
102
RTVSPropertyOp10
 70
     1
102
RTVSPropertyOp11
 70
     1
102
RTVSPropertyOp12
 70
     1
102
RTVSPropertyOp13
 70
     1
102
RTVSPropertyOp14
 70
     1
102
RTVSPropertyOp15
 70
     1
102
RTVSPropertyOp16
 70
     1
102
RTVSPropertyOp17
 70
     1
102
RTVSPropertyOp18
 70
     1
102
RTVSPropertyOp19
 70
     1
102
RTVSPropertyOp20
 70
     1
102
RTVSPropertyOp21
 70
     1
102
RTVSPropertyOp22
 70
     1
102
RTVSPropertyOp23
 70
     1
102
RTVSPropertyOp24
 70
     1
102
RTVSPropertyOp25
 70
     1
102
RTVSPropertyOp26
 70
     1
102
RTVSPropertyOp27
 70
     1
102
RTVSPropertyOp28
 70
     1
102
RTVSPropertyOp29
 70
     1
102
RTVSPropertyOp30
 70
     1
102
RTVSPropertyOp31
 70
     1
102
RTVSPropertyOp32
 70
     1
102
RTVSPropertyOp33
 70
     1
102
RTVSPropertyOp34
 70
     1
102
RTVSPropertyOp35
 70
     1
102
RTVSPropertyOp36
 70
     1
102
RTVSPropertyOp37
 70
     1
102
RTVSPropertyOp38
 70
     1
102
RTVSPropertyOp39
 70
     1
102
RTVSPropertyOp40
 70
     1
102
RTVSPropertyOp41
 70
     1
102
RTVSPropertyOp42
 70
     1
102
RTVSPropertyOp43
 70
     1
102
RTVSPropertyOp44
 70
     1
102
RTVSPropertyOp45
 70
     1
102
RTVSPropertyOp46
 70
     1
102
RTVSPropertyOp47
 70
     1
102
RTVSPropertyOp48
 70
     1
102
RTVSPropertyOp49
 70
     1
102
RTVSPropertyOp50
 70
     1
102
RTVSPropertyOp51
 70
     0
102
RTVSPropertyOp52
 70
     0
102
RTVSPropertyOp53
 70
     1
102
RTVSPropertyOp54
 70
     1
102
RTVSPropertyOp55
 70
     1
102
RTVSPropertyOp56
 70
     1
102
RTVSPropertyOp57
 70
     1
102
RTVSPropertyOp58
 70
     1
102
RTVSPropertyOp59
 70
     1
102
RTVSPropertyOp60
 70
     1
102
RTVSPropertyOp61
 70
     1
102
RTVSPropertyOp62
 70
     1
  0
XRECORD
  5
D17
102
{ACAD_REACTORS
330
D16
102
}
330
D16
100
AcDbXrecord
280
     1
102
RTVSPost2010Prop28
280
     0
102
RTVSPost2010PropOp28
 70
     1
102
RTVSPost2010Prop29
280
     1
102
RTVSPost2010PropOp29
 70
     1
102
RTVSPost2010Prop30
280
     1
102
RTVSPost2010PropOp30
 70
     1
102
RTVSPost2010Prop31
280
     0
102
RTVSPost2010PropOp31
 70
     1
102
RTVSPost2010Prop32
280
     0
102
RTVSPost2010PropOp32
 70
     1
102
RTVSPost2010Prop33
280
     0
102
RTVSPost2010PropOp33
 70
     1
102
RTVSPost2010Prop34
280
     0
102
RTVSPost2010PropOp34
 70
     1
102
RTVSPost2010Prop35
280
     0
102
RTVSPost2010PropOp35
 70
     1
102
RTVSPost2010Prop36
280
     0
102
RTVSPost2010PropOp36
 70
     1
102
RTVSPost2010Prop37
 90
       50
102
RTVSPost2010PropOp37
 70
     1
102
RTVSPost2010Prop38
140
0.0
102
RTVSPost2010PropOp38
 70
     1
102
RTVSPost2010Prop39
140
1.0
102
RTVSPost2010PropOp39
 70
     1
102
RTVSPost2010Prop40
 90
        0
102
RTVSPost2010PropOp40
 70
     1
102
RTVSPost2010Prop41ColorIndex
 90
       18
102
RTVSPost2010Prop41ColorRGB
 90
        0
102
RTVSPost2010PropOp41
 70
     1
102
RTVSPost2010Prop42
 90
       50
102
RTVSPost2010PropOp42
 70
     1
102
RTVSPost2010Prop43
 90
        3
102
RTVSPost2010PropOp43
 70
     1
102
RTVSPost2010Prop44ColorIndex
 90
        5
102
RTVSPost2010Prop44ColorRGB
 90
      255
102
RTVSPost2010PropOp44
 70
     1
102
RTVSPost2010Prop45
280
     0
102
RTVSPost2010PropOp45
 70
     1
102
RTVSPost2010Prop46
 90
       50
102
RTVSPost2010PropOp46
 70
     1
102
RTVSPost2010Prop47
 90
       50
102
RTVSPost2010PropOp47
 70
     1
102
RTVSPost2010Prop48
 90
       50
102
RTVSPost2010PropOp48
 70
     1
102
RTVSPost2010Prop49
280
     0
102
RTVSPost2010PropOp49
 70
     1
102
RTVSPost2010Prop50
 90
       50
102
RTVSPost2010PropOp50
 70
     1
102
RTVSPost2010Prop51ColorIndex
 90
      256
102
RTVSPost2010Prop51ColorRGB
 90
-16777216
102
RTVSPost2010PropOp51
 70
     0
102
RTVSPost2010Prop52
140
1.0
102
RTVSPost2010PropOp52
 70
     0
102
RTVSPost2010Prop53
 90
        2
102
RTVSPost2010PropOp53
 70
     1
102
RTVSPost2010Prop54
  1
strokes_ogs.tif
102
RTVSPost2010PropOp54
 70
     1
102
RTVSPost2010Prop55
280
     0
102
RTVSPost2010PropOp55
 70
     1
102
RTVSPost2010Prop56
140
1.0
102
RTVSPost2010PropOp56
 70
     1
102
RTVSPost2010Prop57
140
1.0
102
RTVSPost2010PropOp57
 70
     1
102
RTVSPropertyOp0
 70
     1
102
RTVSPropertyOp1
 70
     1
102
RTVSPropertyOp2
 70
     1
102
RTVSPropertyOp3
 70
     1
102
RTVSPropertyOp4
 70
     1
102
RTVSPropertyOp5
 70
     1
102
RTVSPropertyOp6
 70
     1
102
RTVSPropertyOp7
 70
     1
102
RTVSPropertyOp8
 70
     1
102
RTVSPropertyOp9
 70
     1
102
RTVSPropertyOp10
 70
     1
102
RTVSPropertyOp11
 70
     1
102
RTVSPropertyOp12
 70
     1
102
RTVSPropertyOp13
 70
     1
102
RTVSPropertyOp14
 70
     1
102
RTVSPropertyOp15
 70
     1
102
RTVSPropertyOp16
 70
     1
102
RTVSPropertyOp17
 70
     1
102
RTVSPropertyOp18
 70
     1
102
RTVSPropertyOp19
 70
     1
102
RTVSPropertyOp20
 70
     1
102
RTVSPropertyOp21
 70
     1
102
RTVSPropertyOp22
 70
     1
102
RTVSPropertyOp23
 70
     1
102
RTVSPropertyOp24
 70
     1
102
RTVSPropertyOp25
 70
     1
102
RTVSPropertyOp26
 70
     1
102
RTVSPropertyOp27
 70
     1
102
RTVSPropertyOp28
 70
     1
102
RTVSPropertyOp29
 70
     1
102
RTVSPropertyOp30
 70
     1
102
RTVSPropertyOp31
 70
     1
102
RTVSPropertyOp32
 70
     1
102
RTVSPropertyOp33
 70
     1
102
RTVSPropertyOp34
 70
     1
102
RTVSPropertyOp35
 70
     1
102
RTVSPropertyOp36
 70
     1
102
RTVSPropertyOp37
 70
     1
102
RTVSPropertyOp38
 70
     1
102
RTVSPropertyOp39
 70
     1
102
RTVSPropertyOp40
 70
     1
102
RTVSPropertyOp41
 70
     1
102
RTVSPropertyOp42
 70
     1
102
RTVSPropertyOp43
 70
     1
102
RTVSPropertyOp44
 70
     1
102
RTVSPropertyOp45
 70
     1
102
RTVSPropertyOp46
 70
     1
102
RTVSPropertyOp47
 70
     1
102
RTVSPropertyOp48
 70
     1
102
RTVSPropertyOp49
 70
     1
102
RTVSPropertyOp50
 70
     1
102
RTVSPropertyOp51
 70
     0
102
RTVSPropertyOp52
 70
     0
102
RTVSPropertyOp53
 70
     1
102
RTVSPropertyOp54
 70
     1
102
RTVSPropertyOp55
 70
     1
102
RTVSPropertyOp56
 70
     1
102
RTVSPropertyOp57
 70
     1
102
RTVSPropertyOp58
 70
     1
102
RTVSPropertyOp59
 70
     1
102
RTVSPropertyOp60
 70
     1
102
RTVSPropertyOp61
 70
     1
102
RTVSPropertyOp62
 70
     1
  0
XRECORD
  5
D09
102
{ACAD_REACTORS
330
D08
102
}
330
D08
100
AcDbXrecord
280
     1
102
RTVSPost2010Prop28
280
     0
102
RTVSPost2010PropOp28
 70
     1
102
RTVSPost2010Prop29
280
     1
102
RTVSPost2010PropOp29
 70
     1
102
RTVSPost2010Prop30
280
     1
102
RTVSPost2010PropOp30
 70
     1
102
RTVSPost2010Prop31
280
     0
102
RTVSPost2010PropOp31
 70
     1
102
RTVSPost2010Prop32
280
     0
102
RTVSPost2010PropOp32
 70
     1
102
RTVSPost2010Prop33
280
     0
102
RTVSPost2010PropOp33
 70
     1
102
RTVSPost2010Prop34
280
     0
102
RTVSPost2010PropOp34
 70
     1
102
RTVSPost2010Prop35
280
     0
102
RTVSPost2010PropOp35
 70
     1
102
RTVSPost2010Prop36
280
     0
102
RTVSPost2010PropOp36
 70
     1
102
RTVSPost2010Prop37
 90
       50
102
RTVSPost2010PropOp37
 70
     1
102
RTVSPost2010Prop38
140
0.0
102
RTVSPost2010PropOp38
 70
     1
102
RTVSPost2010Prop39
140
1.0
102
RTVSPost2010PropOp39
 70
     1
102
RTVSPost2010Prop40
 90
        0
102
RTVSPost2010PropOp40
 70
     1
102
RTVSPost2010Prop41ColorIndex
 90
       18
102
RTVSPost2010Prop41ColorRGB
 90
        0
102
RTVSPost2010PropOp41
 70
     1
102
RTVSPost2010Prop42
 90
       50
102
RTVSPost2010PropOp42
 70
     1
102
RTVSPost2010Prop43
 90
        3
102
RTVSPost2010PropOp43
 70
     1
102
RTVSPost2010Prop44ColorIndex
 90
        5
102
RTVSPost2010Prop44ColorRGB
 90
      255
102
RTVSPost2010PropOp44
 70
     1
102
RTVSPost2010Prop45
280
     0
102
RTVSPost2010PropOp45
 70
     1
102
RTVSPost2010Prop46
 90
       50
102
RTVSPost2010PropOp46
 70
     1
102
RTVSPost2010Prop47
 90
       50
102
RTVSPost2010PropOp47
 70
     1
102
RTVSPost2010Prop48
 90
       50
102
RTVSPost2010PropOp48
 70
     1
102
RTVSPost2010Prop49
280
     0
102
RTVSPost2010PropOp49
 70
     1
102
RTVSPost2010Prop50
 90
       50
102
RTVSPost2010PropOp50
 70
     1
102
RTVSPost2010Prop51ColorIndex
 90
      256
102
RTVSPost2010Prop51ColorRGB
 90
-16777216
102
RTVSPost2010PropOp51
 70
     0
102
RTVSPost2010Prop52
140
1.0
102
RTVSPost2010PropOp52
 70
     0
102
RTVSPost2010Prop53
 90
        2
102
RTVSPost2010PropOp53
 70
     1
102
RTVSPost2010Prop54
  1
strokes_ogs.tif
102
RTVSPost2010PropOp54
 70
     1
102
RTVSPost2010Prop55
280
     0
102
RTVSPost2010PropOp55
 70
     1
102
RTVSPost2010Prop56
140
1.0
102
RTVSPost2010PropOp56
 70
     1
102
RTVSPost2010Prop57
140
1.0
102
RTVSPost2010PropOp57
 70
     1
102
RTVSPropertyOp0
 70
     1
102
RTVSPropertyOp1
 70
     1
102
RTVSPropertyOp2
 70
     1
102
RTVSPropertyOp3
 70
     1
102
RTVSPropertyOp4
 70
     1
102
RTVSPropertyOp5
 70
     1
102
RTVSPropertyOp6
 70
     1
102
RTVSPropertyOp7
 70
     1
102
RTVSPropertyOp8
 70
     1
102
RTVSPropertyOp9
 70
     1
102
RTVSPropertyOp10
 70
     1
102
RTVSPropertyOp11
 70
     1
102
RTVSPropertyOp12
 70
     1
102
RTVSPropertyOp13
 70
     1
102
RTVSPropertyOp14
 70
     1
102
RTVSPropertyOp15
 70
     1
102
RTVSPropertyOp16
 70
     1
102
RTVSPropertyOp17
 70
     1
102
RTVSPropertyOp18
 70
     1
102
RTVSPropertyOp19
 70
     1
102
RTVSPropertyOp20
 70
     1
102
RTVSPropertyOp21
 70
     1
102
RTVSPropertyOp22
 70
     1
102
RTVSPropertyOp23
 70
     1
102
RTVSPropertyOp24
 70
     1
102
RTVSPropertyOp25
 70
     1
102
RTVSPropertyOp26
 70
     1
102
RTVSPropertyOp27
 70
     1
102
RTVSPropertyOp28
 70
     1
102
RTVSPropertyOp29
 70
     1
102
RTVSPropertyOp30
 70
     1
102
RTVSPropertyOp31
 70
     1
102
RTVSPropertyOp32
 70
     1
102
RTVSPropertyOp33
 70
     1
102
RTVSPropertyOp34
 70
     1
102
RTVSPropertyOp35
 70
     1
102
RTVSPropertyOp36
 70
     1
102
RTVSPropertyOp37
 70
     1
102
RTVSPropertyOp38
 70
     1
102
RTVSPropertyOp39
 70
     1
102
RTVSPropertyOp40
 70
     1
102
RTVSPropertyOp41
 70
     1
102
RTVSPropertyOp42
 70
     1
102
RTVSPropertyOp43
 70
     1
102
RTVSPropertyOp44
 70
     1
102
RTVSPropertyOp45
 70
     1
102
RTVSPropertyOp46
 70
     1
102
RTVSPropertyOp47
 70
     1
102
RTVSPropertyOp48
 70
     1
102
RTVSPropertyOp49
 70
     1
102
RTVSPropertyOp50
 70
     1
102
RTVSPropertyOp51
 70
     0
102
RTVSPropertyOp52
 70
     0
102
RTVSPropertyOp53
 70
     1
102
RTVSPropertyOp54
 70
     1
102
RTVSPropertyOp55
 70
     1
102
RTVSPropertyOp56
 70
     1
102
RTVSPropertyOp57
 70
     1
102
RTVSPropertyOp58
 70
     1
102
RTVSPropertyOp59
 70
     1
102
RTVSPropertyOp60
 70
     1
102
RTVSPropertyOp61
 70
     1
102
RTVSPropertyOp62
 70
     1
  0
XRECORD
  5
D0D
102
{ACAD_REACTORS
330
D0C
102
}
330
D0C
100
AcDbXrecord
280
     1
102
RTVSPost2010Prop28
280
     0
102
RTVSPost2010PropOp28
 70
     1
102
RTVSPost2010Prop29
280
     1
102
RTVSPost2010PropOp29
 70
     1
102
RTVSPost2010Prop30
280
     1
102
RTVSPost2010PropOp30
 70
     1
102
RTVSPost2010Prop31
280
     0
102
RTVSPost2010PropOp31
 70
     1
102
RTVSPost2010Prop32
280
     0
102
RTVSPost2010PropOp32
 70
     1
102
RTVSPost2010Prop33
280
     0
102
RTVSPost2010PropOp33
 70
     1
102
RTVSPost2010Prop34
280
     0
102
RTVSPost2010PropOp34
 70
     1
102
RTVSPost2010Prop35
280
     0
102
RTVSPost2010PropOp35
 70
     1
102
RTVSPost2010Prop36
280
     0
102
RTVSPost2010PropOp36
 70
     1
102
RTVSPost2010Prop37
 90
       50
102
RTVSPost2010PropOp37
 70
     1
102
RTVSPost2010Prop38
140
0.0
102
RTVSPost2010PropOp38
 70
     1
102
RTVSPost2010Prop39
140
1.0
102
RTVSPost2010PropOp39
 70
     1
102
RTVSPost2010Prop40
 90
        0
102
RTVSPost2010PropOp40
 70
     1
102
RTVSPost2010Prop41ColorIndex
 90
       18
102
RTVSPost2010Prop41ColorRGB
 90
        0
102
RTVSPost2010PropOp41
 70
     1
102
RTVSPost2010Prop42
 90
       50
102
RTVSPost2010PropOp42
 70
     1
102
RTVSPost2010Prop43
 90
        3
102
RTVSPost2010PropOp43
 70
     1
102
RTVSPost2010Prop44ColorIndex
 90
        5
102
RTVSPost2010Prop44ColorRGB
 90
      255
102
RTVSPost2010PropOp44
 70
     1
102
RTVSPost2010Prop45
280
     0
102
RTVSPost2010PropOp45
 70
     1
102
RTVSPost2010Prop46
 90
       50
102
RTVSPost2010PropOp46
 70
     1
102
RTVSPost2010Prop47
 90
       50
102
RTVSPost2010PropOp47
 70
     1
102
RTVSPost2010Prop48
 90
       50
102
RTVSPost2010PropOp48
 70
     1
102
RTVSPost2010Prop49
280
     0
102
RTVSPost2010PropOp49
 70
     1
102
RTVSPost2010Prop50
 90
       50
102
RTVSPost2010PropOp50
 70
     1
102
RTVSPost2010Prop51ColorIndex
 90
      256
102
RTVSPost2010Prop51ColorRGB
 90
-16777216
102
RTVSPost2010PropOp51
 70
     0
102
RTVSPost2010Prop52
140
1.0
102
RTVSPost2010PropOp52
 70
     0
102
RTVSPost2010Prop53
 90
        2
102
RTVSPost2010PropOp53
 70
     1
102
RTVSPost2010Prop54
  1
strokes_ogs.tif
102
RTVSPost2010PropOp54
 70
     1
102
RTVSPost2010Prop55
280
     0
102
RTVSPost2010PropOp55
 70
     1
102
RTVSPost2010Prop56
140
1.0
102
RTVSPost2010PropOp56
 70
     1
102
RTVSPost2010Prop57
140
1.0
102
RTVSPost2010PropOp57
 70
     1
102
RTVSPropertyOp0
 70
     1
102
RTVSPropertyOp1
 70
     1
102
RTVSPropertyOp2
 70
     1
102
RTVSPropertyOp3
 70
     1
102
RTVSPropertyOp4
 70
     1
102
RTVSPropertyOp5
 70
     1
102
RTVSPropertyOp6
 70
     1
102
RTVSPropertyOp7
 70
     1
102
RTVSPropertyOp8
 70
     1
102
RTVSPropertyOp9
 70
     1
102
RTVSPropertyOp10
 70
     1
102
RTVSPropertyOp11
 70
     1
102
RTVSPropertyOp12
 70
     1
102
RTVSPropertyOp13
 70
     1
102
RTVSPropertyOp14
 70
     1
102
RTVSPropertyOp15
 70
     1
102
RTVSPropertyOp16
 70
     1
102
RTVSPropertyOp17
 70
     1
102
RTVSPropertyOp18
 70
     1
102
RTVSPropertyOp19
 70
     1
102
RTVSPropertyOp20
 70
     1
102
RTVSPropertyOp21
 70
     1
102
RTVSPropertyOp22
 70
     1
102
RTVSPropertyOp23
 70
     1
102
RTVSPropertyOp24
 70
     1
102
RTVSPropertyOp25
 70
     1
102
RTVSPropertyOp26
 70
     1
102
RTVSPropertyOp27
 70
     1
102
RTVSPropertyOp28
 70
     1
102
RTVSPropertyOp29
 70
     1
102
RTVSPropertyOp30
 70
     1
102
RTVSPropertyOp31
 70
     1
102
RTVSPropertyOp32
 70
     1
102
RTVSPropertyOp33
 70
     1
102
RTVSPropertyOp34
 70
     1
102
RTVSPropertyOp35
 70
     1
102
RTVSPropertyOp36
 70
     1
102
RTVSPropertyOp37
 70
     1
102
RTVSPropertyOp38
 70
     1
102
RTVSPropertyOp39
 70
     1
102
RTVSPropertyOp40
 70
     1
102
RTVSPropertyOp41
 70
     1
102
RTVSPropertyOp42
 70
     1
102
RTVSPropertyOp43
 70
     1
102
RTVSPropertyOp44
 70
     1
102
RTVSPropertyOp45
 70
     1
102
RTVSPropertyOp46
 70
     1
102
RTVSPropertyOp47
 70
     1
102
RTVSPropertyOp48
 70
     1
102
RTVSPropertyOp49
 70
     1
102
RTVSPropertyOp50
 70
     1
102
RTVSPropertyOp51
 70
     0
102
RTVSPropertyOp52
 70
     0
102
RTVSPropertyOp53
 70
     1
102
RTVSPropertyOp54
 70
     1
102
RTVSPropertyOp55
 70
     1
102
RTVSPropertyOp56
 70
     1
102
RTVSPropertyOp57
 70
     1
102
RTVSPropertyOp58
 70
     1
102
RTVSPropertyOp59
 70
     1
102
RTVSPropertyOp60
 70
     1
102
RTVSPropertyOp61
 70
     1
102
RTVSPropertyOp62
 70
     1
  0
XRECORD
  5
D27
102
{ACAD_REACTORS
330
D26
102
}
330
D26
100
AcDbXrecord
280
     1
102
RTVSPost2010Prop28
280
     0
102
RTVSPost2010PropOp28
 70
     0
102
RTVSPost2010Prop29
280
     1
102
RTVSPost2010PropOp29
 70
     0
102
RTVSPost2010Prop30
280
     1
102
RTVSPost2010PropOp30
 70
     0
102
RTVSPost2010Prop31
280
     0
102
RTVSPost2010PropOp31
 70
     0
102
RTVSPost2010Prop32
280
     0
102
RTVSPost2010PropOp32
 70
     0
102
RTVSPost2010Prop33
280
     0
102
RTVSPost2010PropOp33
 70
     0
102
RTVSPost2010Prop34
280
     0
102
RTVSPost2010PropOp34
 70
     0
102
RTVSPost2010Prop35
280
     0
102
RTVSPost2010PropOp35
 70
     0
102
RTVSPost2010Prop36
280
     0
102
RTVSPost2010PropOp36
 70
     0
102
RTVSPost2010Prop37
 90
       50
102
RTVSPost2010PropOp37
 70
     0
102
RTVSPost2010Prop38
140
0.0
102
RTVSPost2010PropOp38
 70
     0
102
RTVSPost2010Prop39
140
1.0
102
RTVSPost2010PropOp39
 70
     0
102
RTVSPost2010Prop40
 90
        0
102
RTVSPost2010PropOp40
 70
     0
102
RTVSPost2010Prop41ColorIndex
 90
       18
102
RTVSPost2010Prop41ColorRGB
 90
        0
102
RTVSPost2010PropOp41
 70
     0
102
RTVSPost2010Prop42
 90
       50
102
RTVSPost2010PropOp42
 70
     0
102
RTVSPost2010Prop43
 90
        3
102
RTVSPost2010PropOp43
 70
     0
102
RTVSPost2010Prop44ColorIndex
 90
        5
102
RTVSPost2010Prop44ColorRGB
 90
      255
102
RTVSPost2010PropOp44
 70
     0
102
RTVSPost2010Prop45
280
     0
102
RTVSPost2010PropOp45
 70
     0
102
RTVSPost2010Prop46
 90
       50
102
RTVSPost2010PropOp46
 70
     0
102
RTVSPost2010Prop47
 90
       50
102
RTVSPost2010PropOp47
 70
     0
102
RTVSPost2010Prop48
 90
       50
102
RTVSPost2010PropOp48
 70
     0
102
RTVSPost2010Prop49
280
     0
102
RTVSPost2010PropOp49
 70
     0
102
RTVSPost2010Prop50
 90
       50
102
RTVSPost2010PropOp50
 70
     0
102
RTVSPost2010Prop51ColorIndex
 90
      256
102
RTVSPost2010Prop51ColorRGB
 90
-16777216
102
RTVSPost2010PropOp51
 70
     0
102
RTVSPost2010Prop52
140
1.0
102
RTVSPost2010PropOp52
 70
     0
102
RTVSPost2010Prop53
 90
        2
102
RTVSPost2010PropOp53
 70
     0
102
RTVSPost2010Prop54
  1
strokes_ogs.tif
102
RTVSPost2010PropOp54
 70
     0
102
RTVSPost2010Prop55
280
     0
102
RTVSPost2010PropOp55
 70
     0
102
RTVSPost2010Prop56
140
1.0
102
RTVSPost2010PropOp56
 70
     0
102
RTVSPost2010Prop57
140
1.0
102
RTVSPost2010PropOp57
 70
     0
102
RTVSPropertyOp0
 70
     0
102
RTVSPropertyOp1
 70
     0
102
RTVSPropertyOp2
 70
     0
102
RTVSPropertyOp3
 70
     0
102
RTVSPropertyOp4
 70
     0
102
RTVSPropertyOp5
 70
     0
102
RTVSPropertyOp6
 70
     0
102
RTVSPropertyOp7
 70
     0
102
RTVSPropertyOp8
 70
     0
102
RTVSPropertyOp9
 70
     0
102
RTVSPropertyOp10
 70
     0
102
RTVSPropertyOp11
 70
     0
102
RTVSPropertyOp12
 70
     0
102
RTVSPropertyOp13
 70
     0
102
RTVSPropertyOp14
 70
     2
102
RTVSPropertyOp15
 70
     0
102
RTVSPropertyOp16
 70
     0
102
RTVSPropertyOp17
 70
     0
102
RTVSPropertyOp18
 70
     0
102
RTVSPropertyOp19
 70
     0
102
RTVSPropertyOp20
 70
     0
102
RTVSPropertyOp21
 70
     0
102
RTVSPropertyOp22
 70
     0
102
RTVSPropertyOp23
 70
     0
102
RTVSPropertyOp24
 70
     0
102
RTVSPropertyOp25
 70
     0
102
RTVSPropertyOp26
 70
     0
102
RTVSPropertyOp27
 70
     0
102
RTVSPropertyOp28
 70
     0
102
RTVSPropertyOp29
 70
     0
102
RTVSPropertyOp30
 70
     0
102
RTVSPropertyOp31
 70
     0
102
RTVSPropertyOp32
 70
     0
102
RTVSPropertyOp33
 70
     0
102
RTVSPropertyOp34
 70
     0
102
RTVSPropertyOp35
 70
     0
102
RTVSPropertyOp36
 70
     0
102
RTVSPropertyOp37
 70
     0
102
RTVSPropertyOp38
 70
     0
102
RTVSPropertyOp39
 70
     0
102
RTVSPropertyOp40
 70
     0
102
RTVSPropertyOp41
 70
     0
102
RTVSPropertyOp42
 70
     0
102
RTVSPropertyOp43
 70
     0
102
RTVSPropertyOp44
 70
     0
102
RTVSPropertyOp45
 70
     0
102
RTVSPropertyOp46
 70
     0
102
RTVSPropertyOp47
 70
     0
102
RTVSPropertyOp48
 70
     0
102
RTVSPropertyOp49
 70
     0
102
RTVSPropertyOp50
 70
     0
102
RTVSPropertyOp51
 70
     0
102
RTVSPropertyOp52
 70
     0
102
RTVSPropertyOp53
 70
     0
102
RTVSPropertyOp54
 70
     0
102
RTVSPropertyOp55
 70
     0
102
RTVSPropertyOp56
 70
     0
102
RTVSPropertyOp57
 70
     0
102
RTVSPropertyOp58
 70
     1
102
RTVSPropertyOp59
 70
     1
102
RTVSPropertyOp60
 70
     1
102
RTVSPropertyOp61
 70
     1
102
RTVSPropertyOp62
 70
     1
  0
XRECORD
  5
D15
102
{ACAD_REACTORS
330
D14
102
}
330
D14
100
AcDbXrecord
280
     1
102
RTVSPost2010Prop28
280
     0
102
RTVSPost2010PropOp28
 70
     1
102
RTVSPost2010Prop29
280
     1
102
RTVSPost2010PropOp29
 70
     1
102
RTVSPost2010Prop30
280
     1
102
RTVSPost2010PropOp30
 70
     1
102
RTVSPost2010Prop31
280
     0
102
RTVSPost2010PropOp31
 70
     1
102
RTVSPost2010Prop32
280
     0
102
RTVSPost2010PropOp32
 70
     1
102
RTVSPost2010Prop33
280
     0
102
RTVSPost2010PropOp33
 70
     1
102
RTVSPost2010Prop34
280
     0
102
RTVSPost2010PropOp34
 70
     1
102
RTVSPost2010Prop35
280
     0
102
RTVSPost2010PropOp35
 70
     1
102
RTVSPost2010Prop36
280
     0
102
RTVSPost2010PropOp36
 70
     1
102
RTVSPost2010Prop37
 90
       50
102
RTVSPost2010PropOp37
 70
     1
102
RTVSPost2010Prop38
140
0.0
102
RTVSPost2010PropOp38
 70
     1
102
RTVSPost2010Prop39
140
1.0
102
RTVSPost2010PropOp39
 70
     1
102
RTVSPost2010Prop40
 90
        0
102
RTVSPost2010PropOp40
 70
     1
102
RTVSPost2010Prop41ColorIndex
 90
       18
102
RTVSPost2010Prop41ColorRGB
 90
        0
102
RTVSPost2010PropOp41
 70
     1
102
RTVSPost2010Prop42
 90
       50
102
RTVSPost2010PropOp42
 70
     1
102
RTVSPost2010Prop43
 90
        3
102
RTVSPost2010PropOp43
 70
     1
102
RTVSPost2010Prop44ColorIndex
 90
        5
102
RTVSPost2010Prop44ColorRGB
 90
      255
102
RTVSPost2010PropOp44
 70
     1
102
RTVSPost2010Prop45
280
     0
102
RTVSPost2010PropOp45
 70
     1
102
RTVSPost2010Prop46
 90
       50
102
RTVSPost2010PropOp46
 70
     1
102
RTVSPost2010Prop47
 90
       50
102
RTVSPost2010PropOp47
 70
     1
102
RTVSPost2010Prop48
 90
       50
102
RTVSPost2010PropOp48
 70
     1
102
RTVSPost2010Prop49
280
     0
102
RTVSPost2010PropOp49
 70
     1
102
RTVSPost2010Prop50
 90
       50
102
RTVSPost2010PropOp50
 70
     1
102
RTVSPost2010Prop51ColorIndex
 90
      256
102
RTVSPost2010Prop51ColorRGB
 90
-16777216
102
RTVSPost2010PropOp51
 70
     0
102
RTVSPost2010Prop52
140
1.0
102
RTVSPost2010PropOp52
 70
     0
102
RTVSPost2010Prop53
 90
        2
102
RTVSPost2010PropOp53
 70
     1
102
RTVSPost2010Prop54
  1
strokes_ogs.tif
102
RTVSPost2010PropOp54
 70
     1
102
RTVSPost2010Prop55
280
     0
102
RTVSPost2010PropOp55
 70
     1
102
RTVSPost2010Prop56
140
1.0
102
RTVSPost2010PropOp56
 70
     1
102
RTVSPost2010Prop57
140
1.0
102
RTVSPost2010PropOp57
 70
     1
102
RTVSPropertyOp0
 70
     1
102
RTVSPropertyOp1
 70
     1
102
RTVSPropertyOp2
 70
     1
102
RTVSPropertyOp3
 70
     1
102
RTVSPropertyOp4
 70
     1
102
RTVSPropertyOp5
 70
     1
102
RTVSPropertyOp6
 70
     1
102
RTVSPropertyOp7
 70
     1
102
RTVSPropertyOp8
 70
     1
102
RTVSPropertyOp9
 70
     1
102
RTVSPropertyOp10
 70
     1
102
RTVSPropertyOp11
 70
     1
102
RTVSPropertyOp12
 70
     1
102
RTVSPropertyOp13
 70
     1
102
RTVSPropertyOp14
 70
     1
102
RTVSPropertyOp15
 70
     1
102
RTVSPropertyOp16
 70
     1
102
RTVSPropertyOp17
 70
     1
102
RTVSPropertyOp18
 70
     1
102
RTVSPropertyOp19
 70
     1
102
RTVSPropertyOp20
 70
     1
102
RTVSPropertyOp21
 70
     1
102
RTVSPropertyOp22
 70
     1
102
RTVSPropertyOp23
 70
     1
102
RTVSPropertyOp24
 70
     1
102
RTVSPropertyOp25
 70
     1
102
RTVSPropertyOp26
 70
     1
102
RTVSPropertyOp27
 70
     1
102
RTVSPropertyOp28
 70
     1
102
RTVSPropertyOp29
 70
     1
102
RTVSPropertyOp30
 70
     1
102
RTVSPropertyOp31
 70
     1
102
RTVSPropertyOp32
 70
     1
102
RTVSPropertyOp33
 70
     1
102
RTVSPropertyOp34
 70
     1
102
RTVSPropertyOp35
 70
     1
102
RTVSPropertyOp36
 70
     1
102
RTVSPropertyOp37
 70
     1
102
RTVSPropertyOp38
 70
     1
102
RTVSPropertyOp39
 70
     1
102
RTVSPropertyOp40
 70
     1
102
RTVSPropertyOp41
 70
     1
102
RTVSPropertyOp42
 70
     1
102
RTVSPropertyOp43
 70
     1
102
RTVSPropertyOp44
 70
     1
102
RTVSPropertyOp45
 70
     1
102
RTVSPropertyOp46
 70
     1
102
RTVSPropertyOp47
 70
     1
102
RTVSPropertyOp48
 70
     1
102
RTVSPropertyOp49
 70
     1
102
RTVSPropertyOp50
 70
     1
102
RTVSPropertyOp51
 70
     0
102
RTVSPropertyOp52
 70
     0
102
RTVSPropertyOp53
 70
     1
102
RTVSPropertyOp54
 70
     1
102
RTVSPropertyOp55
 70
     1
102
RTVSPropertyOp56
 70
     1
102
RTVSPropertyOp57
 70
     1
102
RTVSPropertyOp58
 70
     1
102
RTVSPropertyOp59
 70
     1
102
RTVSPropertyOp60
 70
     1
102
RTVSPropertyOp61
 70
     1
102
RTVSPropertyOp62
 70
     1
  0
XRECORD
  5
CF9
102
{ACAD_REACTORS
330
CF8
102
}
330
CF8
100
AcDbXrecord
280
     1
102
RTVSPost2010Prop28
280
     0
102
RTVSPost2010PropOp28
 70
     1
102
RTVSPost2010Prop29
280
     1
102
RTVSPost2010PropOp29
 70
     1
102
RTVSPost2010Prop30
280
     1
102
RTVSPost2010PropOp30
 70
     1
102
RTVSPost2010Prop31
280
     0
102
RTVSPost2010PropOp31
 70
     1
102
RTVSPost2010Prop32
280
     0
102
RTVSPost2010PropOp32
 70
     1
102
RTVSPost2010Prop33
280
     0
102
RTVSPost2010PropOp33
 70
     1
102
RTVSPost2010Prop34
280
     0
102
RTVSPost2010PropOp34
 70
     1
102
RTVSPost2010Prop35
280
     0
102
RTVSPost2010PropOp35
 70
     1
102
RTVSPost2010Prop36
280
     0
102
RTVSPost2010PropOp36
 70
     1
102
RTVSPost2010Prop37
 90
       50
102
RTVSPost2010PropOp37
 70
     1
102
RTVSPost2010Prop38
140
0.0
102
RTVSPost2010PropOp38
 70
     1
102
RTVSPost2010Prop39
140
1.0
102
RTVSPost2010PropOp39
 70
     1
102
RTVSPost2010Prop40
 90
        0
102
RTVSPost2010PropOp40
 70
     1
102
RTVSPost2010Prop41ColorIndex
 90
       18
102
RTVSPost2010Prop41ColorRGB
 90
        0
102
RTVSPost2010PropOp41
 70
     1
102
RTVSPost2010Prop42
 90
       50
102
RTVSPost2010PropOp42
 70
     1
102
RTVSPost2010Prop43
 90
        3
102
RTVSPost2010PropOp43
 70
     1
102
RTVSPost2010Prop44ColorIndex
 90
        5
102
RTVSPost2010Prop44ColorRGB
 90
      255
102
RTVSPost2010PropOp44
 70
     1
102
RTVSPost2010Prop45
280
     0
102
RTVSPost2010PropOp45
 70
     1
102
RTVSPost2010Prop46
 90
       50
102
RTVSPost2010PropOp46
 70
     1
102
RTVSPost2010Prop47
 90
       50
102
RTVSPost2010PropOp47
 70
     1
102
RTVSPost2010Prop48
 90
       50
102
RTVSPost2010PropOp48
 70
     1
102
RTVSPost2010Prop49
280
     0
102
RTVSPost2010PropOp49
 70
     1
102
RTVSPost2010Prop50
 90
       50
102
RTVSPost2010PropOp50
 70
     1
102
RTVSPost2010Prop51ColorIndex
 90
      256
102
RTVSPost2010Prop51ColorRGB
 90
-16777216
102
RTVSPost2010PropOp51
 70
     0
102
RTVSPost2010Prop52
140
1.0
102
RTVSPost2010PropOp52
 70
     0
102
RTVSPost2010Prop53
 90
        2
102
RTVSPost2010PropOp53
 70
     1
102
RTVSPost2010Prop54
  1
strokes_ogs.tif
102
RTVSPost2010PropOp54
 70
     1
102
RTVSPost2010Prop55
280
     0
102
RTVSPost2010PropOp55
 70
     1
102
RTVSPost2010Prop56
140
1.0
102
RTVSPost2010PropOp56
 70
     1
102
RTVSPost2010Prop57
140
1.0
102
RTVSPost2010PropOp57
 70
     1
102
RTVSPropertyOp0
 70
     1
102
RTVSPropertyOp1
 70
     1
102
RTVSPropertyOp2
 70
     1
102
RTVSPropertyOp3
 70
     1
102
RTVSPropertyOp4
 70
     1
102
RTVSPropertyOp5
 70
     1
102
RTVSPropertyOp6
 70
     1
102
RTVSPropertyOp7
 70
     1
102
RTVSPropertyOp8
 70
     1
102
RTVSPropertyOp9
 70
     1
102
RTVSPropertyOp10
 70
     1
102
RTVSPropertyOp11
 70
     1
102
RTVSPropertyOp12
 70
     1
102
RTVSPropertyOp13
 70
     1
102
RTVSPropertyOp14
 70
     1
102
RTVSPropertyOp15
 70
     1
102
RTVSPropertyOp16
 70
     1
102
RTVSPropertyOp17
 70
     1
102
RTVSPropertyOp18
 70
     1
102
RTVSPropertyOp19
 70
     1
102
RTVSPropertyOp20
 70
     1
102
RTVSPropertyOp21
 70
     1
102
RTVSPropertyOp22
 70
     1
102
RTVSPropertyOp23
 70
     1
102
RTVSPropertyOp24
 70
     1
102
RTVSPropertyOp25
 70
     1
102
RTVSPropertyOp26
 70
     1
102
RTVSPropertyOp27
 70
     1
102
RTVSPropertyOp28
 70
     1
102
RTVSPropertyOp29
 70
     1
102
RTVSPropertyOp30
 70
     1
102
RTVSPropertyOp31
 70
     1
102
RTVSPropertyOp32
 70
     1
102
RTVSPropertyOp33
 70
     1
102
RTVSPropertyOp34
 70
     1
102
RTVSPropertyOp35
 70
     1
102
RTVSPropertyOp36
 70
     1
102
RTVSPropertyOp37
 70
     1
102
RTVSPropertyOp38
 70
     1
102
RTVSPropertyOp39
 70
     1
102
RTVSPropertyOp40
 70
     1
102
RTVSPropertyOp41
 70
     1
102
RTVSPropertyOp42
 70
     1
102
RTVSPropertyOp43
 70
     1
102
RTVSPropertyOp44
 70
     1
102
RTVSPropertyOp45
 70
     1
102
RTVSPropertyOp46
 70
     1
102
RTVSPropertyOp47
 70
     1
102
RTVSPropertyOp48
 70
     1
102
RTVSPropertyOp49
 70
     1
102
RTVSPropertyOp50
 70
     1
102
RTVSPropertyOp51
 70
     0
102
RTVSPropertyOp52
 70
     0
102
RTVSPropertyOp53
 70
     1
102
RTVSPropertyOp54
 70
     1
102
RTVSPropertyOp55
 70
     1
102
RTVSPropertyOp56
 70
     1
102
RTVSPropertyOp57
 70
     1
102
RTVSPropertyOp58
 70
     1
102
RTVSPropertyOp59
 70
     1
102
RTVSPropertyOp60
 70
     1
102
RTVSPropertyOp61
 70
     1
102
RTVSPropertyOp62
 70
     1
  0
XRECORD
  5
CFB
102
{ACAD_REACTORS
330
CFA
102
}
330
CFA
100
AcDbXrecord
280
     1
102
RTVSPost2010Prop28
280
     0
102
RTVSPost2010PropOp28
 70
     1
102
RTVSPost2010Prop29
280
     1
102
RTVSPost2010PropOp29
 70
     1
102
RTVSPost2010Prop30
280
     1
102
RTVSPost2010PropOp30
 70
     1
102
RTVSPost2010Prop31
280
     0
102
RTVSPost2010PropOp31
 70
     1
102
RTVSPost2010Prop32
280
     0
102
RTVSPost2010PropOp32
 70
     1
102
RTVSPost2010Prop33
280
     0
102
RTVSPost2010PropOp33
 70
     1
102
RTVSPost2010Prop34
280
     0
102
RTVSPost2010PropOp34
 70
     1
102
RTVSPost2010Prop35
280
     0
102
RTVSPost2010PropOp35
 70
     1
102
RTVSPost2010Prop36
280
     0
102
RTVSPost2010PropOp36
 70
     1
102
RTVSPost2010Prop37
 90
       50
102
RTVSPost2010PropOp37
 70
     1
102
RTVSPost2010Prop38
140
0.0
102
RTVSPost2010PropOp38
 70
     1
102
RTVSPost2010Prop39
140
1.0
102
RTVSPost2010PropOp39
 70
     1
102
RTVSPost2010Prop40
 90
        0
102
RTVSPost2010PropOp40
 70
     1
102
RTVSPost2010Prop41ColorIndex
 90
       18
102
RTVSPost2010Prop41ColorRGB
 90
        0
102
RTVSPost2010PropOp41
 70
     1
102
RTVSPost2010Prop42
 90
       50
102
RTVSPost2010PropOp42
 70
     1
102
RTVSPost2010Prop43
 90
        3
102
RTVSPost2010PropOp43
 70
     1
102
RTVSPost2010Prop44ColorIndex
 90
        5
102
RTVSPost2010Prop44ColorRGB
 90
      255
102
RTVSPost2010PropOp44
 70
     1
102
RTVSPost2010Prop45
280
     0
102
RTVSPost2010PropOp45
 70
     1
102
RTVSPost2010Prop46
 90
       50
102
RTVSPost2010PropOp46
 70
     1
102
RTVSPost2010Prop47
 90
       50
102
RTVSPost2010PropOp47
 70
     1
102
RTVSPost2010Prop48
 90
       50
102
RTVSPost2010PropOp48
 70
     1
102
RTVSPost2010Prop49
280
     0
102
RTVSPost2010PropOp49
 70
     1
102
RTVSPost2010Prop50
 90
       50
102
RTVSPost2010PropOp50
 70
     1
102
RTVSPost2010Prop51ColorIndex
 90
      256
102
RTVSPost2010Prop51ColorRGB
 90
-16777216
102
RTVSPost2010PropOp51
 70
     0
102
RTVSPost2010Prop52
140
1.0
102
RTVSPost2010PropOp52
 70
     0
102
RTVSPost2010Prop53
 90
        2
102
RTVSPost2010PropOp53
 70
     1
102
RTVSPost2010Prop54
  1
strokes_ogs.tif
102
RTVSPost2010PropOp54
 70
     1
102
RTVSPost2010Prop55
280
     0
102
RTVSPost2010PropOp55
 70
     1
102
RTVSPost2010Prop56
140
1.0
102
RTVSPost2010PropOp56
 70
     1
102
RTVSPost2010Prop57
140
1.0
102
RTVSPost2010PropOp57
 70
     1
102
RTVSPropertyOp0
 70
     1
102
RTVSPropertyOp1
 70
     1
102
RTVSPropertyOp2
 70
     1
102
RTVSPropertyOp3
 70
     1
102
RTVSPropertyOp4
 70
     1
102
RTVSPropertyOp5
 70
     1
102
RTVSPropertyOp6
 70
     1
102
RTVSPropertyOp7
 70
     1
102
RTVSPropertyOp8
 70
     1
102
RTVSPropertyOp9
 70
     1
102
RTVSPropertyOp10
 70
     1
102
RTVSPropertyOp11
 70
     1
102
RTVSPropertyOp12
 70
     1
102
RTVSPropertyOp13
 70
     1
102
RTVSPropertyOp14
 70
     1
102
RTVSPropertyOp15
 70
     1
102
RTVSPropertyOp16
 70
     1
102
RTVSPropertyOp17
 70
     1
102
RTVSPropertyOp18
 70
     1
102
RTVSPropertyOp19
 70
     1
102
RTVSPropertyOp20
 70
     1
102
RTVSPropertyOp21
 70
     1
102
RTVSPropertyOp22
 70
     1
102
RTVSPropertyOp23
 70
     1
102
RTVSPropertyOp24
 70
     1
102
RTVSPropertyOp25
 70
     1
102
RTVSPropertyOp26
 70
     1
102
RTVSPropertyOp27
 70
     1
102
RTVSPropertyOp28
 70
     1
102
RTVSPropertyOp29
 70
     1
102
RTVSPropertyOp30
 70
     1
102
RTVSPropertyOp31
 70
     1
102
RTVSPropertyOp32
 70
     1
102
RTVSPropertyOp33
 70
     1
102
RTVSPropertyOp34
 70
     1
102
RTVSPropertyOp35
 70
     1
102
RTVSPropertyOp36
 70
     1
102
RTVSPropertyOp37
 70
     1
102
RTVSPropertyOp38
 70
     1
102
RTVSPropertyOp39
 70
     1
102
RTVSPropertyOp40
 70
     1
102
RTVSPropertyOp41
 70
     1
102
RTVSPropertyOp42
 70
     1
102
RTVSPropertyOp43
 70
     1
102
RTVSPropertyOp44
 70
     1
102
RTVSPropertyOp45
 70
     1
102
RTVSPropertyOp46
 70
     1
102
RTVSPropertyOp47
 70
     1
102
RTVSPropertyOp48
 70
     1
102
RTVSPropertyOp49
 70
     1
102
RTVSPropertyOp50
 70
     1
102
RTVSPropertyOp51
 70
     0
102
RTVSPropertyOp52
 70
     0
102
RTVSPropertyOp53
 70
     1
102
RTVSPropertyOp54
 70
     1
102
RTVSPropertyOp55
 70
     1
102
RTVSPropertyOp56
 70
     1
102
RTVSPropertyOp57
 70
     1
102
RTVSPropertyOp58
 70
     1
102
RTVSPropertyOp59
 70
     1
102
RTVSPropertyOp60
 70
     1
102
RTVSPropertyOp61
 70
     1
102
RTVSPropertyOp62
 70
     1
  0
XRECORD
  5
CFD
102
{ACAD_REACTORS
330
CFC
102
}
330
CFC
100
AcDbXrecord
280
     1
102
RTVSPost2010Prop28
280
     0
102
RTVSPost2010PropOp28
 70
     1
102
RTVSPost2010Prop29
280
     1
102
RTVSPost2010PropOp29
 70
     1
102
RTVSPost2010Prop30
280
     1
102
RTVSPost2010PropOp30
 70
     1
102
RTVSPost2010Prop31
280
     0
102
RTVSPost2010PropOp31
 70
     1
102
RTVSPost2010Prop32
280
     0
102
RTVSPost2010PropOp32
 70
     1
102
RTVSPost2010Prop33
280
     0
102
RTVSPost2010PropOp33
 70
     1
102
RTVSPost2010Prop34
280
     0
102
RTVSPost2010PropOp34
 70
     1
102
RTVSPost2010Prop35
280
     0
102
RTVSPost2010PropOp35
 70
     1
102
RTVSPost2010Prop36
280
     0
102
RTVSPost2010PropOp36
 70
     1
102
RTVSPost2010Prop37
 90
       50
102
RTVSPost2010PropOp37
 70
     1
102
RTVSPost2010Prop38
140
0.0
102
RTVSPost2010PropOp38
 70
     1
102
RTVSPost2010Prop39
140
1.0
102
RTVSPost2010PropOp39
 70
     1
102
RTVSPost2010Prop40
 90
        0
102
RTVSPost2010PropOp40
 70
     1
102
RTVSPost2010Prop41ColorIndex
 90
       18
102
RTVSPost2010Prop41ColorRGB
 90
        0
102
RTVSPost2010PropOp41
 70
     1
102
RTVSPost2010Prop42
 90
       50
102
RTVSPost2010PropOp42
 70
     1
102
RTVSPost2010Prop43
 90
        3
102
RTVSPost2010PropOp43
 70
     1
102
RTVSPost2010Prop44ColorIndex
 90
        5
102
RTVSPost2010Prop44ColorRGB
 90
      255
102
RTVSPost2010PropOp44
 70
     1
102
RTVSPost2010Prop45
280
     0
102
RTVSPost2010PropOp45
 70
     1
102
RTVSPost2010Prop46
 90
       50
102
RTVSPost2010PropOp46
 70
     1
102
RTVSPost2010Prop47
 90
       50
102
RTVSPost2010PropOp47
 70
     1
102
RTVSPost2010Prop48
 90
       50
102
RTVSPost2010PropOp48
 70
     1
102
RTVSPost2010Prop49
280
     0
102
RTVSPost2010PropOp49
 70
     1
102
RTVSPost2010Prop50
 90
       50
102
RTVSPost2010PropOp50
 70
     1
102
RTVSPost2010Prop51ColorIndex
 90
      256
102
RTVSPost2010Prop51ColorRGB
 90
-16777216
102
RTVSPost2010PropOp51
 70
     0
102
RTVSPost2010Prop52
140
1.0
102
RTVSPost2010PropOp52
 70
     0
102
RTVSPost2010Prop53
 90
        2
102
RTVSPost2010PropOp53
 70
     1
102
RTVSPost2010Prop54
  1
strokes_ogs.tif
102
RTVSPost2010PropOp54
 70
     1
102
RTVSPost2010Prop55
280
     0
102
RTVSPost2010PropOp55
 70
     1
102
RTVSPost2010Prop56
140
1.0
102
RTVSPost2010PropOp56
 70
     1
102
RTVSPost2010Prop57
140
1.0
102
RTVSPost2010PropOp57
 70
     1
102
RTVSPropertyOp0
 70
     1
102
RTVSPropertyOp1
 70
     1
102
RTVSPropertyOp2
 70
     1
102
RTVSPropertyOp3
 70
     1
102
RTVSPropertyOp4
 70
     1
102
RTVSPropertyOp5
 70
     1
102
RTVSPropertyOp6
 70
     1
102
RTVSPropertyOp7
 70
     1
102
RTVSPropertyOp8
 70
     1
102
RTVSPropertyOp9
 70
     1
102
RTVSPropertyOp10
 70
     1
102
RTVSPropertyOp11
 70
     1
102
RTVSPropertyOp12
 70
     1
102
RTVSPropertyOp13
 70
     1
102
RTVSPropertyOp14
 70
     1
102
RTVSPropertyOp15
 70
     1
102
RTVSPropertyOp16
 70
     1
102
RTVSPropertyOp17
 70
     1
102
RTVSPropertyOp18
 70
     1
102
RTVSPropertyOp19
 70
     1
102
RTVSPropertyOp20
 70
     1
102
RTVSPropertyOp21
 70
     1
102
RTVSPropertyOp22
 70
     1
102
RTVSPropertyOp23
 70
     1
102
RTVSPropertyOp24
 70
     1
102
RTVSPropertyOp25
 70
     1
102
RTVSPropertyOp26
 70
     1
102
RTVSPropertyOp27
 70
     1
102
RTVSPropertyOp28
 70
     1
102
RTVSPropertyOp29
 70
     1
102
RTVSPropertyOp30
 70
     1
102
RTVSPropertyOp31
 70
     1
102
RTVSPropertyOp32
 70
     1
102
RTVSPropertyOp33
 70
     1
102
RTVSPropertyOp34
 70
     1
102
RTVSPropertyOp35
 70
     1
102
RTVSPropertyOp36
 70
     1
102
RTVSPropertyOp37
 70
     1
102
RTVSPropertyOp38
 70
     1
102
RTVSPropertyOp39
 70
     1
102
RTVSPropertyOp40
 70
     1
102
RTVSPropertyOp41
 70
     1
102
RTVSPropertyOp42
 70
     1
102
RTVSPropertyOp43
 70
     1
102
RTVSPropertyOp44
 70
     1
102
RTVSPropertyOp45
 70
     1
102
RTVSPropertyOp46
 70
     1
102
RTVSPropertyOp47
 70
     1
102
RTVSPropertyOp48
 70
     1
102
RTVSPropertyOp49
 70
     1
102
RTVSPropertyOp50
 70
     1
102
RTVSPropertyOp51
 70
     0
102
RTVSPropertyOp52
 70
     0
102
RTVSPropertyOp53
 70
     1
102
RTVSPropertyOp54
 70
     1
102
RTVSPropertyOp55
 70
     1
102
RTVSPropertyOp56
 70
     1
102
RTVSPropertyOp57
 70
     1
102
RTVSPropertyOp58
 70
     1
102
RTVSPropertyOp59
 70
     1
102
RTVSPropertyOp60
 70
     1
102
RTVSPropertyOp61
 70
     1
102
RTVSPropertyOp62
 70
     1
  0
XRECORD
  5
CFF
102
{ACAD_REACTORS
330
CFE
102
}
330
CFE
100
AcDbXrecord
280
     1
102
RTVSPost2010Prop28
280
     0
102
RTVSPost2010PropOp28
 70
     1
102
RTVSPost2010Prop29
280
     1
102
RTVSPost2010PropOp29
 70
     1
102
RTVSPost2010Prop30
280
     1
102
RTVSPost2010PropOp30
 70
     1
102
RTVSPost2010Prop31
280
     0
102
RTVSPost2010PropOp31
 70
     1
102
RTVSPost2010Prop32
280
     0
102
RTVSPost2010PropOp32
 70
     1
102
RTVSPost2010Prop33
280
     0
102
RTVSPost2010PropOp33
 70
     1
102
RTVSPost2010Prop34
280
     0
102
RTVSPost2010PropOp34
 70
     1
102
RTVSPost2010Prop35
280
     0
102
RTVSPost2010PropOp35
 70
     1
102
RTVSPost2010Prop36
280
     0
102
RTVSPost2010PropOp36
 70
     1
102
RTVSPost2010Prop37
 90
       50
102
RTVSPost2010PropOp37
 70
     1
102
RTVSPost2010Prop38
140
0.0
102
RTVSPost2010PropOp38
 70
     1
102
RTVSPost2010Prop39
140
1.0
102
RTVSPost2010PropOp39
 70
     1
102
RTVSPost2010Prop40
 90
        0
102
RTVSPost2010PropOp40
 70
     1
102
RTVSPost2010Prop41ColorIndex
 90
       18
102
RTVSPost2010Prop41ColorRGB
 90
        0
102
RTVSPost2010PropOp41
 70
     1
102
RTVSPost2010Prop42
 90
       50
102
RTVSPost2010PropOp42
 70
     1
102
RTVSPost2010Prop43
 90
        3
102
RTVSPost2010PropOp43
 70
     1
102
RTVSPost2010Prop44ColorIndex
 90
        5
102
RTVSPost2010Prop44ColorRGB
 90
      255
102
RTVSPost2010PropOp44
 70
     1
102
RTVSPost2010Prop45
280
     0
102
RTVSPost2010PropOp45
 70
     1
102
RTVSPost2010Prop46
 90
       50
102
RTVSPost2010PropOp46
 70
     1
102
RTVSPost2010Prop47
 90
       50
102
RTVSPost2010PropOp47
 70
     1
102
RTVSPost2010Prop48
 90
       50
102
RTVSPost2010PropOp48
 70
     1
102
RTVSPost2010Prop49
280
     0
102
RTVSPost2010PropOp49
 70
     1
102
RTVSPost2010Prop50
 90
       50
102
RTVSPost2010PropOp50
 70
     1
102
RTVSPost2010Prop51ColorIndex
 90
      256
102
RTVSPost2010Prop51ColorRGB
 90
-16777216
102
RTVSPost2010PropOp51
 70
     0
102
RTVSPost2010Prop52
140
1.0
102
RTVSPost2010PropOp52
 70
     0
102
RTVSPost2010Prop53
 90
        2
102
RTVSPost2010PropOp53
 70
     1
102
RTVSPost2010Prop54
  1
strokes_ogs.tif
102
RTVSPost2010PropOp54
 70
     1
102
RTVSPost2010Prop55
280
     0
102
RTVSPost2010PropOp55
 70
     1
102
RTVSPost2010Prop56
140
1.0
102
RTVSPost2010PropOp56
 70
     1
102
RTVSPost2010Prop57
140
1.0
102
RTVSPost2010PropOp57
 70
     1
102
RTVSPropertyOp0
 70
     1
102
RTVSPropertyOp1
 70
     1
102
RTVSPropertyOp2
 70
     1
102
RTVSPropertyOp3
 70
     1
102
RTVSPropertyOp4
 70
     1
102
RTVSPropertyOp5
 70
     1
102
RTVSPropertyOp6
 70
     1
102
RTVSPropertyOp7
 70
     1
102
RTVSPropertyOp8
 70
     1
102
RTVSPropertyOp9
 70
     1
102
RTVSPropertyOp10
 70
     1
102
RTVSPropertyOp11
 70
     1
102
RTVSPropertyOp12
 70
     1
102
RTVSPropertyOp13
 70
     1
102
RTVSPropertyOp14
 70
     1
102
RTVSPropertyOp15
 70
     1
102
RTVSPropertyOp16
 70
     1
102
RTVSPropertyOp17
 70
     1
102
RTVSPropertyOp18
 70
     1
102
RTVSPropertyOp19
 70
     1
102
RTVSPropertyOp20
 70
     1
102
RTVSPropertyOp21
 70
     1
102
RTVSPropertyOp22
 70
     1
102
RTVSPropertyOp23
 70
     1
102
RTVSPropertyOp24
 70
     1
102
RTVSPropertyOp25
 70
     1
102
RTVSPropertyOp26
 70
     1
102
RTVSPropertyOp27
 70
     1
102
RTVSPropertyOp28
 70
     1
102
RTVSPropertyOp29
 70
     1
102
RTVSPropertyOp30
 70
     1
102
RTVSPropertyOp31
 70
     1
102
RTVSPropertyOp32
 70
     1
102
RTVSPropertyOp33
 70
     1
102
RTVSPropertyOp34
 70
     1
102
RTVSPropertyOp35
 70
     1
102
RTVSPropertyOp36
 70
     1
102
RTVSPropertyOp37
 70
     1
102
RTVSPropertyOp38
 70
     1
102
RTVSPropertyOp39
 70
     1
102
RTVSPropertyOp40
 70
     1
102
RTVSPropertyOp41
 70
     1
102
RTVSPropertyOp42
 70
     1
102
RTVSPropertyOp43
 70
     1
102
RTVSPropertyOp44
 70
     1
102
RTVSPropertyOp45
 70
     1
102
RTVSPropertyOp46
 70
     1
102
RTVSPropertyOp47
 70
     1
102
RTVSPropertyOp48
 70
     1
102
RTVSPropertyOp49
 70
     1
102
RTVSPropertyOp50
 70
     1
102
RTVSPropertyOp51
 70
     0
102
RTVSPropertyOp52
 70
     0
102
RTVSPropertyOp53
 70
     1
102
RTVSPropertyOp54
 70
     1
102
RTVSPropertyOp55
 70
     1
102
RTVSPropertyOp56
 70
     1
102
RTVSPropertyOp57
 70
     1
102
RTVSPropertyOp58
 70
     1
102
RTVSPropertyOp59
 70
     1
102
RTVSPropertyOp60
 70
     1
102
RTVSPropertyOp61
 70
     1
102
RTVSPropertyOp62
 70
     1
  0
XRECORD
  5
D07
102
{ACAD_REACTORS
330
D06
102
}
330
D06
100
AcDbXrecord
280
     1
102
RTVSPost2010Prop28
280
     0
102
RTVSPost2010PropOp28
 70
     1
102
RTVSPost2010Prop29
280
     1
102
RTVSPost2010PropOp29
 70
     1
102
RTVSPost2010Prop30
280
     1
102
RTVSPost2010PropOp30
 70
     1
102
RTVSPost2010Prop31
280
     0
102
RTVSPost2010PropOp31
 70
     1
102
RTVSPost2010Prop32
280
     0
102
RTVSPost2010PropOp32
 70
     1
102
RTVSPost2010Prop33
280
     0
102
RTVSPost2010PropOp33
 70
     1
102
RTVSPost2010Prop34
280
     0
102
RTVSPost2010PropOp34
 70
     1
102
RTVSPost2010Prop35
280
     0
102
RTVSPost2010PropOp35
 70
     1
102
RTVSPost2010Prop36
280
     0
102
RTVSPost2010PropOp36
 70
     1
102
RTVSPost2010Prop37
 90
       50
102
RTVSPost2010PropOp37
 70
     1
102
RTVSPost2010Prop38
140
0.0
102
RTVSPost2010PropOp38
 70
     1
102
RTVSPost2010Prop39
140
1.0
102
RTVSPost2010PropOp39
 70
     1
102
RTVSPost2010Prop40
 90
        0
102
RTVSPost2010PropOp40
 70
     1
102
RTVSPost2010Prop41ColorIndex
 90
       18
102
RTVSPost2010Prop41ColorRGB
 90
        0
102
RTVSPost2010PropOp41
 70
     1
102
RTVSPost2010Prop42
 90
       50
102
RTVSPost2010PropOp42
 70
     1
102
RTVSPost2010Prop43
 90
        3
102
RTVSPost2010PropOp43
 70
     1
102
RTVSPost2010Prop44ColorIndex
 90
        5
102
RTVSPost2010Prop44ColorRGB
 90
      255
102
RTVSPost2010PropOp44
 70
     1
102
RTVSPost2010Prop45
280
     0
102
RTVSPost2010PropOp45
 70
     1
102
RTVSPost2010Prop46
 90
       50
102
RTVSPost2010PropOp46
 70
     1
102
RTVSPost2010Prop47
 90
       50
102
RTVSPost2010PropOp47
 70
     1
102
RTVSPost2010Prop48
 90
       50
102
RTVSPost2010PropOp48
 70
     1
102
RTVSPost2010Prop49
280
     0
102
RTVSPost2010PropOp49
 70
     1
102
RTVSPost2010Prop50
 90
       50
102
RTVSPost2010PropOp50
 70
     1
102
RTVSPost2010Prop51ColorIndex
 90
      256
102
RTVSPost2010Prop51ColorRGB
 90
-16777216
102
RTVSPost2010PropOp51
 70
     0
102
RTVSPost2010Prop52
140
1.0
102
RTVSPost2010PropOp52
 70
     0
102
RTVSPost2010Prop53
 90
        2
102
RTVSPost2010PropOp53
 70
     1
102
RTVSPost2010Prop54
  1
strokes_ogs.tif
102
RTVSPost2010PropOp54
 70
     1
102
RTVSPost2010Prop55
280
     0
102
RTVSPost2010PropOp55
 70
     1
102
RTVSPost2010Prop56
140
1.0
102
RTVSPost2010PropOp56
 70
     1
102
RTVSPost2010Prop57
140
1.0
102
RTVSPost2010PropOp57
 70
     1
102
RTVSPropertyOp0
 70
     1
102
RTVSPropertyOp1
 70
     1
102
RTVSPropertyOp2
 70
     1
102
RTVSPropertyOp3
 70
     1
102
RTVSPropertyOp4
 70
     1
102
RTVSPropertyOp5
 70
     1
102
RTVSPropertyOp6
 70
     1
102
RTVSPropertyOp7
 70
     1
102
RTVSPropertyOp8
 70
     1
102
RTVSPropertyOp9
 70
     1
102
RTVSPropertyOp10
 70
     1
102
RTVSPropertyOp11
 70
     1
102
RTVSPropertyOp12
 70
     1
102
RTVSPropertyOp13
 70
     1
102
RTVSPropertyOp14
 70
     1
102
RTVSPropertyOp15
 70
     1
102
RTVSPropertyOp16
 70
     1
102
RTVSPropertyOp17
 70
     1
102
RTVSPropertyOp18
 70
     1
102
RTVSPropertyOp19
 70
     1
102
RTVSPropertyOp20
 70
     1
102
RTVSPropertyOp21
 70
     1
102
RTVSPropertyOp22
 70
     1
102
RTVSPropertyOp23
 70
     1
102
RTVSPropertyOp24
 70
     1
102
RTVSPropertyOp25
 70
     1
102
RTVSPropertyOp26
 70
     1
102
RTVSPropertyOp27
 70
     1
102
RTVSPropertyOp28
 70
     1
102
RTVSPropertyOp29
 70
     1
102
RTVSPropertyOp30
 70
     1
102
RTVSPropertyOp31
 70
     1
102
RTVSPropertyOp32
 70
     1
102
RTVSPropertyOp33
 70
     1
102
RTVSPropertyOp34
 70
     1
102
RTVSPropertyOp35
 70
     1
102
RTVSPropertyOp36
 70
     1
102
RTVSPropertyOp37
 70
     1
102
RTVSPropertyOp38
 70
     1
102
RTVSPropertyOp39
 70
     1
102
RTVSPropertyOp40
 70
     1
102
RTVSPropertyOp41
 70
     1
102
RTVSPropertyOp42
 70
     1
102
RTVSPropertyOp43
 70
     1
102
RTVSPropertyOp44
 70
     1
102
RTVSPropertyOp45
 70
     1
102
RTVSPropertyOp46
 70
     1
102
RTVSPropertyOp47
 70
     1
102
RTVSPropertyOp48
 70
     1
102
RTVSPropertyOp49
 70
     1
102
RTVSPropertyOp50
 70
     1
102
RTVSPropertyOp51
 70
     0
102
RTVSPropertyOp52
 70
     0
102
RTVSPropertyOp53
 70
     1
102
RTVSPropertyOp54
 70
     1
102
RTVSPropertyOp55
 70
     1
102
RTVSPropertyOp56
 70
     1
102
RTVSPropertyOp57
 70
     1
102
RTVSPropertyOp58
 70
     1
102
RTVSPropertyOp59
 70
     1
102
RTVSPropertyOp60
 70
     1
102
RTVSPropertyOp61
 70
     1
102
RTVSPropertyOp62
 70
     1
  0
XRECORD
  5
D23
102
{ACAD_REACTORS
330
D22
102
}
330
D22
100
AcDbXrecord
280
     1
102
RTVSPost2010Prop28
280
     0
102
RTVSPost2010PropOp28
 70
     0
102
RTVSPost2010Prop29
280
     1
102
RTVSPost2010PropOp29
 70
     0
102
RTVSPost2010Prop30
280
     1
102
RTVSPost2010PropOp30
 70
     0
102
RTVSPost2010Prop31
280
     0
102
RTVSPost2010PropOp31
 70
     0
102
RTVSPost2010Prop32
280
     0
102
RTVSPost2010PropOp32
 70
     0
102
RTVSPost2010Prop33
280
     0
102
RTVSPost2010PropOp33
 70
     0
102
RTVSPost2010Prop34
280
     0
102
RTVSPost2010PropOp34
 70
     0
102
RTVSPost2010Prop35
280
     0
102
RTVSPost2010PropOp35
 70
     0
102
RTVSPost2010Prop36
280
     0
102
RTVSPost2010PropOp36
 70
     0
102
RTVSPost2010Prop37
 90
       50
102
RTVSPost2010PropOp37
 70
     0
102
RTVSPost2010Prop38
140
0.0
102
RTVSPost2010PropOp38
 70
     0
102
RTVSPost2010Prop39
140
1.0
102
RTVSPost2010PropOp39
 70
     0
102
RTVSPost2010Prop40
 90
        0
102
RTVSPost2010PropOp40
 70
     0
102
RTVSPost2010Prop41ColorIndex
 90
       18
102
RTVSPost2010Prop41ColorRGB
 90
        0
102
RTVSPost2010PropOp41
 70
     0
102
RTVSPost2010Prop42
 90
       50
102
RTVSPost2010PropOp42
 70
     0
102
RTVSPost2010Prop43
 90
        3
102
RTVSPost2010PropOp43
 70
     0
102
RTVSPost2010Prop44ColorIndex
 90
        5
102
RTVSPost2010Prop44ColorRGB
 90
      255
102
RTVSPost2010PropOp44
 70
     0
102
RTVSPost2010Prop45
280
     0
102
RTVSPost2010PropOp45
 70
     0
102
RTVSPost2010Prop46
 90
       50
102
RTVSPost2010PropOp46
 70
     0
102
RTVSPost2010Prop47
 90
       50
102
RTVSPost2010PropOp47
 70
     0
102
RTVSPost2010Prop48
 90
       50
102
RTVSPost2010PropOp48
 70
     0
102
RTVSPost2010Prop49
280
     0
102
RTVSPost2010PropOp49
 70
     0
102
RTVSPost2010Prop50
 90
       50
102
RTVSPost2010PropOp50
 70
     0
102
RTVSPost2010Prop51ColorIndex
 90
      256
102
RTVSPost2010Prop51ColorRGB
 90
-16777216
102
RTVSPost2010PropOp51
 70
     0
102
RTVSPost2010Prop52
140
1.0
102
RTVSPost2010PropOp52
 70
     0
102
RTVSPost2010Prop53
 90
        2
102
RTVSPost2010PropOp53
 70
     0
102
RTVSPost2010Prop54
  1
strokes_ogs.tif
102
RTVSPost2010PropOp54
 70
     0
102
RTVSPost2010Prop55
280
     0
102
RTVSPost2010PropOp55
 70
     0
102
RTVSPost2010Prop56
140
1.0
102
RTVSPost2010PropOp56
 70
     0
102
RTVSPost2010Prop57
140
1.0
102
RTVSPost2010PropOp57
 70
     0
102
RTVSPropertyOp0
 70
     0
102
RTVSPropertyOp1
 70
     0
102
RTVSPropertyOp2
 70
     0
102
RTVSPropertyOp3
 70
     0
102
RTVSPropertyOp4
 70
     0
102
RTVSPropertyOp5
 70
     0
102
RTVSPropertyOp6
 70
     0
102
RTVSPropertyOp7
 70
     0
102
RTVSPropertyOp8
 70
     0
102
RTVSPropertyOp9
 70
     0
102
RTVSPropertyOp10
 70
     0
102
RTVSPropertyOp11
 70
     0
102
RTVSPropertyOp12
 70
     0
102
RTVSPropertyOp13
 70
     0
102
RTVSPropertyOp14
 70
     2
102
RTVSPropertyOp15
 70
     0
102
RTVSPropertyOp16
 70
     0
102
RTVSPropertyOp17
 70
     0
102
RTVSPropertyOp18
 70
     0
102
RTVSPropertyOp19
 70
     0
102
RTVSPropertyOp20
 70
     0
102
RTVSPropertyOp21
 70
     0
102
RTVSPropertyOp22
 70
     0
102
RTVSPropertyOp23
 70
     0
102
RTVSPropertyOp24
 70
     0
102
RTVSPropertyOp25
 70
     0
102
RTVSPropertyOp26
 70
     0
102
RTVSPropertyOp27
 70
     0
102
RTVSPropertyOp28
 70
     0
102
RTVSPropertyOp29
 70
     0
102
RTVSPropertyOp30
 70
     0
102
RTVSPropertyOp31
 70
     0
102
RTVSPropertyOp32
 70
     0
102
RTVSPropertyOp33
 70
     0
102
RTVSPropertyOp34
 70
     0
102
RTVSPropertyOp35
 70
     0
102
RTVSPropertyOp36
 70
     0
102
RTVSPropertyOp37
 70
     0
102
RTVSPropertyOp38
 70
     0
102
RTVSPropertyOp39
 70
     0
102
RTVSPropertyOp40
 70
     0
102
RTVSPropertyOp41
 70
     0
102
RTVSPropertyOp42
 70
     0
102
RTVSPropertyOp43
 70
     0
102
RTVSPropertyOp44
 70
     0
102
RTVSPropertyOp45
 70
     0
102
RTVSPropertyOp46
 70
     0
102
RTVSPropertyOp47
 70
     0
102
RTVSPropertyOp48
 70
     0
102
RTVSPropertyOp49
 70
     0
102
RTVSPropertyOp50
 70
     0
102
RTVSPropertyOp51
 70
     0
102
RTVSPropertyOp52
 70
     0
102
RTVSPropertyOp53
 70
     0
102
RTVSPropertyOp54
 70
     0
102
RTVSPropertyOp55
 70
     0
102
RTVSPropertyOp56
 70
     0
102
RTVSPropertyOp57
 70
     0
102
RTVSPropertyOp58
 70
     1
102
RTVSPropertyOp59
 70
     1
102
RTVSPropertyOp60
 70
     1
102
RTVSPropertyOp61
 70
     1
102
RTVSPropertyOp62
 70
     1
  0
XRECORD
  5
D13
102
{ACAD_REACTORS
330
D12
102
}
330
D12
100
AcDbXrecord
280
     1
102
RTVSPost2010Prop28
280
     0
102
RTVSPost2010PropOp28
 70
     1
102
RTVSPost2010Prop29
280
     1
102
RTVSPost2010PropOp29
 70
     1
102
RTVSPost2010Prop30
280
     1
102
RTVSPost2010PropOp30
 70
     1
102
RTVSPost2010Prop31
280
     0
102
RTVSPost2010PropOp31
 70
     1
102
RTVSPost2010Prop32
280
     0
102
RTVSPost2010PropOp32
 70
     1
102
RTVSPost2010Prop33
280
     0
102
RTVSPost2010PropOp33
 70
     1
102
RTVSPost2010Prop34
280
     0
102
RTVSPost2010PropOp34
 70
     1
102
RTVSPost2010Prop35
280
     0
102
RTVSPost2010PropOp35
 70
     1
102
RTVSPost2010Prop36
280
     0
102
RTVSPost2010PropOp36
 70
     1
102
RTVSPost2010Prop37
 90
       50
102
RTVSPost2010PropOp37
 70
     1
102
RTVSPost2010Prop38
140
0.0
102
RTVSPost2010PropOp38
 70
     1
102
RTVSPost2010Prop39
140
1.0
102
RTVSPost2010PropOp39
 70
     1
102
RTVSPost2010Prop40
 90
        0
102
RTVSPost2010PropOp40
 70
     1
102
RTVSPost2010Prop41ColorIndex
 90
       18
102
RTVSPost2010Prop41ColorRGB
 90
        0
102
RTVSPost2010PropOp41
 70
     1
102
RTVSPost2010Prop42
 90
       50
102
RTVSPost2010PropOp42
 70
     1
102
RTVSPost2010Prop43
 90
        3
102
RTVSPost2010PropOp43
 70
     1
102
RTVSPost2010Prop44ColorIndex
 90
        5
102
RTVSPost2010Prop44ColorRGB
 90
      255
102
RTVSPost2010PropOp44
 70
     1
102
RTVSPost2010Prop45
280
     0
102
RTVSPost2010PropOp45
 70
     1
102
RTVSPost2010Prop46
 90
       50
102
RTVSPost2010PropOp46
 70
     1
102
RTVSPost2010Prop47
 90
       50
102
RTVSPost2010PropOp47
 70
     1
102
RTVSPost2010Prop48
 90
       50
102
RTVSPost2010PropOp48
 70
     1
102
RTVSPost2010Prop49
280
     0
102
RTVSPost2010PropOp49
 70
     1
102
RTVSPost2010Prop50
 90
       50
102
RTVSPost2010PropOp50
 70
     1
102
RTVSPost2010Prop51ColorIndex
 90
      256
102
RTVSPost2010Prop51ColorRGB
 90
-16777216
102
RTVSPost2010PropOp51
 70
     0
102
RTVSPost2010Prop52
140
1.0
102
RTVSPost2010PropOp52
 70
     0
102
RTVSPost2010Prop53
 90
        2
102
RTVSPost2010PropOp53
 70
     1
102
RTVSPost2010Prop54
  1
strokes_ogs.tif
102
RTVSPost2010PropOp54
 70
     1
102
RTVSPost2010Prop55
280
     0
102
RTVSPost2010PropOp55
 70
     1
102
RTVSPost2010Prop56
140
1.0
102
RTVSPost2010PropOp56
 70
     1
102
RTVSPost2010Prop57
140
1.0
102
RTVSPost2010PropOp57
 70
     1
102
RTVSPropertyOp0
 70
     1
102
RTVSPropertyOp1
 70
     1
102
RTVSPropertyOp2
 70
     1
102
RTVSPropertyOp3
 70
     1
102
RTVSPropertyOp4
 70
     1
102
RTVSPropertyOp5
 70
     1
102
RTVSPropertyOp6
 70
     1
102
RTVSPropertyOp7
 70
     1
102
RTVSPropertyOp8
 70
     1
102
RTVSPropertyOp9
 70
     1
102
RTVSPropertyOp10
 70
     1
102
RTVSPropertyOp11
 70
     1
102
RTVSPropertyOp12
 70
     1
102
RTVSPropertyOp13
 70
     1
102
RTVSPropertyOp14
 70
     1
102
RTVSPropertyOp15
 70
     1
102
RTVSPropertyOp16
 70
     1
102
RTVSPropertyOp17
 70
     1
102
RTVSPropertyOp18
 70
     1
102
RTVSPropertyOp19
 70
     1
102
RTVSPropertyOp20
 70
     1
102
RTVSPropertyOp21
 70
     1
102
RTVSPropertyOp22
 70
     1
102
RTVSPropertyOp23
 70
     1
102
RTVSPropertyOp24
 70
     1
102
RTVSPropertyOp25
 70
     1
102
RTVSPropertyOp26
 70
     1
102
RTVSPropertyOp27
 70
     1
102
RTVSPropertyOp28
 70
     1
102
RTVSPropertyOp29
 70
     1
102
RTVSPropertyOp30
 70
     1
102
RTVSPropertyOp31
 70
     1
102
RTVSPropertyOp32
 70
     1
102
RTVSPropertyOp33
 70
     1
102
RTVSPropertyOp34
 70
     1
102
RTVSPropertyOp35
 70
     1
102
RTVSPropertyOp36
 70
     1
102
RTVSPropertyOp37
 70
     1
102
RTVSPropertyOp38
 70
     1
102
RTVSPropertyOp39
 70
     1
102
RTVSPropertyOp40
 70
     1
102
RTVSPropertyOp41
 70
     1
102
RTVSPropertyOp42
 70
     1
102
RTVSPropertyOp43
 70
     1
102
RTVSPropertyOp44
 70
     1
102
RTVSPropertyOp45
 70
     1
102
RTVSPropertyOp46
 70
     1
102
RTVSPropertyOp47
 70
     1
102
RTVSPropertyOp48
 70
     1
102
RTVSPropertyOp49
 70
     1
102
RTVSPropertyOp50
 70
     1
102
RTVSPropertyOp51
 70
     0
102
RTVSPropertyOp52
 70
     0
102
RTVSPropertyOp53
 70
     1
102
RTVSPropertyOp54
 70
     1
102
RTVSPropertyOp55
 70
     1
102
RTVSPropertyOp56
 70
     1
102
RTVSPropertyOp57
 70
     1
102
RTVSPropertyOp58
 70
     1
102
RTVSPropertyOp59
 70
     1
102
RTVSPropertyOp60
 70
     1
102
RTVSPropertyOp61
 70
     1
102
RTVSPropertyOp62
 70
     1
  0
XRECORD
  5
D25
102
{ACAD_REACTORS
330
D24
102
}
330
D24
100
AcDbXrecord
280
     1
102
RTVSPost2010Prop28
280
     0
102
RTVSPost2010PropOp28
 70
     0
102
RTVSPost2010Prop29
280
     1
102
RTVSPost2010PropOp29
 70
     0
102
RTVSPost2010Prop30
280
     1
102
RTVSPost2010PropOp30
 70
     0
102
RTVSPost2010Prop31
280
     0
102
RTVSPost2010PropOp31
 70
     0
102
RTVSPost2010Prop32
280
     0
102
RTVSPost2010PropOp32
 70
     0
102
RTVSPost2010Prop33
280
     0
102
RTVSPost2010PropOp33
 70
     0
102
RTVSPost2010Prop34
280
     0
102
RTVSPost2010PropOp34
 70
     0
102
RTVSPost2010Prop35
280
     0
102
RTVSPost2010PropOp35
 70
     0
102
RTVSPost2010Prop36
280
     0
102
RTVSPost2010PropOp36
 70
     0
102
RTVSPost2010Prop37
 90
       50
102
RTVSPost2010PropOp37
 70
     0
102
RTVSPost2010Prop38
140
0.0
102
RTVSPost2010PropOp38
 70
     0
102
RTVSPost2010Prop39
140
1.0
102
RTVSPost2010PropOp39
 70
     0
102
RTVSPost2010Prop40
 90
        0
102
RTVSPost2010PropOp40
 70
     0
102
RTVSPost2010Prop41ColorIndex
 90
       18
102
RTVSPost2010Prop41ColorRGB
 90
        0
102
RTVSPost2010PropOp41
 70
     0
102
RTVSPost2010Prop42
 90
       50
102
RTVSPost2010PropOp42
 70
     0
102
RTVSPost2010Prop43
 90
        3
102
RTVSPost2010PropOp43
 70
     0
102
RTVSPost2010Prop44ColorIndex
 90
        5
102
RTVSPost2010Prop44ColorRGB
 90
      255
102
RTVSPost2010PropOp44
 70
     0
102
RTVSPost2010Prop45
280
     0
102
RTVSPost2010PropOp45
 70
     0
102
RTVSPost2010Prop46
 90
       50
102
RTVSPost2010PropOp46
 70
     0
102
RTVSPost2010Prop47
 90
       50
102
RTVSPost2010PropOp47
 70
     0
102
RTVSPost2010Prop48
 90
       50
102
RTVSPost2010PropOp48
 70
     0
102
RTVSPost2010Prop49
280
     0
102
RTVSPost2010PropOp49
 70
     0
102
RTVSPost2010Prop50
 90
       50
102
RTVSPost2010PropOp50
 70
     0
102
RTVSPost2010Prop51ColorIndex
 90
      256
102
RTVSPost2010Prop51ColorRGB
 90
-16777216
102
RTVSPost2010PropOp51
 70
     0
102
RTVSPost2010Prop52
140
1.0
102
RTVSPost2010PropOp52
 70
     0
102
RTVSPost2010Prop53
 90
        2
102
RTVSPost2010PropOp53
 70
     0
102
RTVSPost2010Prop54
  1
strokes_ogs.tif
102
RTVSPost2010PropOp54
 70
     0
102
RTVSPost2010Prop55
280
     0
102
RTVSPost2010PropOp55
 70
     0
102
RTVSPost2010Prop56
140
1.0
102
RTVSPost2010PropOp56
 70
     0
102
RTVSPost2010Prop57
140
1.0
102
RTVSPost2010PropOp57
 70
     0
102
RTVSPropertyOp0
 70
     0
102
RTVSPropertyOp1
 70
     0
102
RTVSPropertyOp2
 70
     0
102
RTVSPropertyOp3
 70
     0
102
RTVSPropertyOp4
 70
     0
102
RTVSPropertyOp5
 70
     0
102
RTVSPropertyOp6
 70
     0
102
RTVSPropertyOp7
 70
     0
102
RTVSPropertyOp8
 70
     0
102
RTVSPropertyOp9
 70
     0
102
RTVSPropertyOp10
 70
     0
102
RTVSPropertyOp11
 70
     0
102
RTVSPropertyOp12
 70
     0
102
RTVSPropertyOp13
 70
     0
102
RTVSPropertyOp14
 70
     2
102
RTVSPropertyOp15
 70
     0
102
RTVSPropertyOp16
 70
     0
102
RTVSPropertyOp17
 70
     0
102
RTVSPropertyOp18
 70
     0
102
RTVSPropertyOp19
 70
     0
102
RTVSPropertyOp20
 70
     0
102
RTVSPropertyOp21
 70
     0
102
RTVSPropertyOp22
 70
     0
102
RTVSPropertyOp23
 70
     0
102
RTVSPropertyOp24
 70
     0
102
RTVSPropertyOp25
 70
     0
102
RTVSPropertyOp26
 70
     0
102
RTVSPropertyOp27
 70
     0
102
RTVSPropertyOp28
 70
     0
102
RTVSPropertyOp29
 70
     0
102
RTVSPropertyOp30
 70
     0
102
RTVSPropertyOp31
 70
     0
102
RTVSPropertyOp32
 70
     0
102
RTVSPropertyOp33
 70
     0
102
RTVSPropertyOp34
 70
     0
102
RTVSPropertyOp35
 70
     0
102
RTVSPropertyOp36
 70
     0
102
RTVSPropertyOp37
 70
     0
102
RTVSPropertyOp38
 70
     0
102
RTVSPropertyOp39
 70
     0
102
RTVSPropertyOp40
 70
     0
102
RTVSPropertyOp41
 70
     0
102
RTVSPropertyOp42
 70
     0
102
RTVSPropertyOp43
 70
     0
102
RTVSPropertyOp44
 70
     0
102
RTVSPropertyOp45
 70
     0
102
RTVSPropertyOp46
 70
     0
102
RTVSPropertyOp47
 70
     0
102
RTVSPropertyOp48
 70
     0
102
RTVSPropertyOp49
 70
     0
102
RTVSPropertyOp50
 70
     0
102
RTVSPropertyOp51
 70
     0
102
RTVSPropertyOp52
 70
     0
102
RTVSPropertyOp53
 70
     0
102
RTVSPropertyOp54
 70
     0
102
RTVSPropertyOp55
 70
     0
102
RTVSPropertyOp56
 70
     0
102
RTVSPropertyOp57
 70
     0
102
RTVSPropertyOp58
 70
     1
102
RTVSPropertyOp59
 70
     1
102
RTVSPropertyOp60
 70
     1
102
RTVSPropertyOp61
 70
     1
102
RTVSPropertyOp62
 70
     1
  0
XRECORD
  5
D0B
102
{ACAD_REACTORS
330
D0A
102
}
330
D0A
100
AcDbXrecord
280
     1
102
RTVSPost2010Prop28
280
     0
102
RTVSPost2010PropOp28
 70
     1
102
RTVSPost2010Prop29
280
     1
102
RTVSPost2010PropOp29
 70
     1
102
RTVSPost2010Prop30
280
     1
102
RTVSPost2010PropOp30
 70
     1
102
RTVSPost2010Prop31
280
     0
102
RTVSPost2010PropOp31
 70
     1
102
RTVSPost2010Prop32
280
     0
102
RTVSPost2010PropOp32
 70
     1
102
RTVSPost2010Prop33
280
     0
102
RTVSPost2010PropOp33
 70
     1
102
RTVSPost2010Prop34
280
     0
102
RTVSPost2010PropOp34
 70
     1
102
RTVSPost2010Prop35
280
     0
102
RTVSPost2010PropOp35
 70
     1
102
RTVSPost2010Prop36
280
     0
102
RTVSPost2010PropOp36
 70
     1
102
RTVSPost2010Prop37
 90
       50
102
RTVSPost2010PropOp37
 70
     1
102
RTVSPost2010Prop38
140
0.0
102
RTVSPost2010PropOp38
 70
     1
102
RTVSPost2010Prop39
140
1.0
102
RTVSPost2010PropOp39
 70
     1
102
RTVSPost2010Prop40
 90
        0
102
RTVSPost2010PropOp40
 70
     1
102
RTVSPost2010Prop41ColorIndex
 90
       18
102
RTVSPost2010Prop41ColorRGB
 90
        0
102
RTVSPost2010PropOp41
 70
     1
102
RTVSPost2010Prop42
 90
       50
102
RTVSPost2010PropOp42
 70
     1
102
RTVSPost2010Prop43
 90
        3
102
RTVSPost2010PropOp43
 70
     1
102
RTVSPost2010Prop44ColorIndex
 90
        5
102
RTVSPost2010Prop44ColorRGB
 90
      255
102
RTVSPost2010PropOp44
 70
     1
102
RTVSPost2010Prop45
280
     0
102
RTVSPost2010PropOp45
 70
     1
102
RTVSPost2010Prop46
 90
       50
102
RTVSPost2010PropOp46
 70
     1
102
RTVSPost2010Prop47
 90
       50
102
RTVSPost2010PropOp47
 70
     1
102
RTVSPost2010Prop48
 90
       50
102
RTVSPost2010PropOp48
 70
     1
102
RTVSPost2010Prop49
280
     0
102
RTVSPost2010PropOp49
 70
     1
102
RTVSPost2010Prop50
 90
       50
102
RTVSPost2010PropOp50
 70
     1
102
RTVSPost2010Prop51ColorIndex
 90
      256
102
RTVSPost2010Prop51ColorRGB
 90
-16777216
102
RTVSPost2010PropOp51
 70
     0
102
RTVSPost2010Prop52
140
1.0
102
RTVSPost2010PropOp52
 70
     0
102
RTVSPost2010Prop53
 90
        2
102
RTVSPost2010PropOp53
 70
     1
102
RTVSPost2010Prop54
  1
strokes_ogs.tif
102
RTVSPost2010PropOp54
 70
     1
102
RTVSPost2010Prop55
280
     0
102
RTVSPost2010PropOp55
 70
     1
102
RTVSPost2010Prop56
140
1.0
102
RTVSPost2010PropOp56
 70
     1
102
RTVSPost2010Prop57
140
1.0
102
RTVSPost2010PropOp57
 70
     1
102
RTVSPropertyOp0
 70
     1
102
RTVSPropertyOp1
 70
     1
102
RTVSPropertyOp2
 70
     1
102
RTVSPropertyOp3
 70
     1
102
RTVSPropertyOp4
 70
     1
102
RTVSPropertyOp5
 70
     1
102
RTVSPropertyOp6
 70
     1
102
RTVSPropertyOp7
 70
     1
102
RTVSPropertyOp8
 70
     1
102
RTVSPropertyOp9
 70
     1
102
RTVSPropertyOp10
 70
     1
102
RTVSPropertyOp11
 70
     1
102
RTVSPropertyOp12
 70
     1
102
RTVSPropertyOp13
 70
     1
102
RTVSPropertyOp14
 70
     1
102
RTVSPropertyOp15
 70
     1
102
RTVSPropertyOp16
 70
     1
102
RTVSPropertyOp17
 70
     1
102
RTVSPropertyOp18
 70
     1
102
RTVSPropertyOp19
 70
     1
102
RTVSPropertyOp20
 70
     1
102
RTVSPropertyOp21
 70
     1
102
RTVSPropertyOp22
 70
     1
102
RTVSPropertyOp23
 70
     1
102
RTVSPropertyOp24
 70
     1
102
RTVSPropertyOp25
 70
     1
102
RTVSPropertyOp26
 70
     1
102
RTVSPropertyOp27
 70
     1
102
RTVSPropertyOp28
 70
     1
102
RTVSPropertyOp29
 70
     1
102
RTVSPropertyOp30
 70
     1
102
RTVSPropertyOp31
 70
     1
102
RTVSPropertyOp32
 70
     1
102
RTVSPropertyOp33
 70
     1
102
RTVSPropertyOp34
 70
     1
102
RTVSPropertyOp35
 70
     1
102
RTVSPropertyOp36
 70
     1
102
RTVSPropertyOp37
 70
     1
102
RTVSPropertyOp38
 70
     1
102
RTVSPropertyOp39
 70
     1
102
RTVSPropertyOp40
 70
     1
102
RTVSPropertyOp41
 70
     1
102
RTVSPropertyOp42
 70
     1
102
RTVSPropertyOp43
 70
     1
102
RTVSPropertyOp44
 70
     1
102
RTVSPropertyOp45
 70
     1
102
RTVSPropertyOp46
 70
     1
102
RTVSPropertyOp47
 70
     1
102
RTVSPropertyOp48
 70
     1
102
RTVSPropertyOp49
 70
     1
102
RTVSPropertyOp50
 70
     1
102
RTVSPropertyOp51
 70
     0
102
RTVSPropertyOp52
 70
     0
102
RTVSPropertyOp53
 70
     1
102
RTVSPropertyOp54
 70
     1
102
RTVSPropertyOp55
 70
     1
102
RTVSPropertyOp56
 70
     1
102
RTVSPropertyOp57
 70
     1
102
RTVSPropertyOp58
 70
     1
102
RTVSPropertyOp59
 70
     1
102
RTVSPropertyOp60
 70
     1
102
RTVSPropertyOp61
 70
     1
102
RTVSPropertyOp62
 70
     1
  0
XRECORD
  5
D21
102
{ACAD_REACTORS
330
D20
102
}
330
D20
100
AcDbXrecord
280
     1
102
RTVSPost2010Prop28
280
     0
102
RTVSPost2010PropOp28
 70
     1
102
RTVSPost2010Prop29
280
     1
102
RTVSPost2010PropOp29
 70
     1
102
RTVSPost2010Prop30
280
     1
102
RTVSPost2010PropOp30
 70
     1
102
RTVSPost2010Prop31
280
     0
102
RTVSPost2010PropOp31
 70
     1
102
RTVSPost2010Prop32
280
     0
102
RTVSPost2010PropOp32
 70
     1
102
RTVSPost2010Prop33
280
     0
102
RTVSPost2010PropOp33
 70
     1
102
RTVSPost2010Prop34
280
     0
102
RTVSPost2010PropOp34
 70
     1
102
RTVSPost2010Prop35
280
     0
102
RTVSPost2010PropOp35
 70
     1
102
RTVSPost2010Prop36
280
     0
102
RTVSPost2010PropOp36
 70
     1
102
RTVSPost2010Prop37
 90
       50
102
RTVSPost2010PropOp37
 70
     1
102
RTVSPost2010Prop38
140
0.0
102
RTVSPost2010PropOp38
 70
     1
102
RTVSPost2010Prop39
140
1.0
102
RTVSPost2010PropOp39
 70
     1
102
RTVSPost2010Prop40
 90
        0
102
RTVSPost2010PropOp40
 70
     1
102
RTVSPost2010Prop41ColorIndex
 90
       18
102
RTVSPost2010Prop41ColorRGB
 90
        0
102
RTVSPost2010PropOp41
 70
     1
102
RTVSPost2010Prop42
 90
       50
102
RTVSPost2010PropOp42
 70
     1
102
RTVSPost2010Prop43
 90
        3
102
RTVSPost2010PropOp43
 70
     1
102
RTVSPost2010Prop44ColorIndex
 90
        5
102
RTVSPost2010Prop44ColorRGB
 90
      255
102
RTVSPost2010PropOp44
 70
     1
102
RTVSPost2010Prop45
280
     0
102
RTVSPost2010PropOp45
 70
     1
102
RTVSPost2010Prop46
 90
       50
102
RTVSPost2010PropOp46
 70
     1
102
RTVSPost2010Prop47
 90
       50
102
RTVSPost2010PropOp47
 70
     1
102
RTVSPost2010Prop48
 90
       50
102
RTVSPost2010PropOp48
 70
     1
102
RTVSPost2010Prop49
280
     0
102
RTVSPost2010PropOp49
 70
     1
102
RTVSPost2010Prop50
 90
       50
102
RTVSPost2010PropOp50
 70
     1
102
RTVSPost2010Prop51ColorIndex
 90
      256
102
RTVSPost2010Prop51ColorRGB
 90
-16777216
102
RTVSPost2010PropOp51
 70
     0
102
RTVSPost2010Prop52
140
1.0
102
RTVSPost2010PropOp52
 70
     0
102
RTVSPost2010Prop53
 90
        2
102
RTVSPost2010PropOp53
 70
     1
102
RTVSPost2010Prop54
  1
strokes_ogs.tif
102
RTVSPost2010PropOp54
 70
     1
102
RTVSPost2010Prop55
280
     0
102
RTVSPost2010PropOp55
 70
     1
102
RTVSPost2010Prop56
140
1.0
102
RTVSPost2010PropOp56
 70
     1
102
RTVSPost2010Prop57
140
1.0
102
RTVSPost2010PropOp57
 70
     1
102
RTVSPropertyOp0
 70
     1
102
RTVSPropertyOp1
 70
     1
102
RTVSPropertyOp2
 70
     1
102
RTVSPropertyOp3
 70
     1
102
RTVSPropertyOp4
 70
     1
102
RTVSPropertyOp5
 70
     1
102
RTVSPropertyOp6
 70
     1
102
RTVSPropertyOp7
 70
     1
102
RTVSPropertyOp8
 70
     1
102
RTVSPropertyOp9
 70
     1
102
RTVSPropertyOp10
 70
     1
102
RTVSPropertyOp11
 70
     1
102
RTVSPropertyOp12
 70
     1
102
RTVSPropertyOp13
 70
     1
102
RTVSPropertyOp14
 70
     1
102
RTVSPropertyOp15
 70
     1
102
RTVSPropertyOp16
 70
     1
102
RTVSPropertyOp17
 70
     1
102
RTVSPropertyOp18
 70
     1
102
RTVSPropertyOp19
 70
     1
102
RTVSPropertyOp20
 70
     1
102
RTVSPropertyOp21
 70
     1
102
RTVSPropertyOp22
 70
     1
102
RTVSPropertyOp23
 70
     1
102
RTVSPropertyOp24
 70
     1
102
RTVSPropertyOp25
 70
     1
102
RTVSPropertyOp26
 70
     1
102
RTVSPropertyOp27
 70
     1
102
RTVSPropertyOp28
 70
     1
102
RTVSPropertyOp29
 70
     1
102
RTVSPropertyOp30
 70
     1
102
RTVSPropertyOp31
 70
     1
102
RTVSPropertyOp32
 70
     1
102
RTVSPropertyOp33
 70
     1
102
RTVSPropertyOp34
 70
     1
102
RTVSPropertyOp35
 70
     1
102
RTVSPropertyOp36
 70
     1
102
RTVSPropertyOp37
 70
     1
102
RTVSPropertyOp38
 70
     1
102
RTVSPropertyOp39
 70
     1
102
RTVSPropertyOp40
 70
     1
102
RTVSPropertyOp41
 70
     1
102
RTVSPropertyOp42
 70
     1
102
RTVSPropertyOp43
 70
     1
102
RTVSPropertyOp44
 70
     1
102
RTVSPropertyOp45
 70
     1
102
RTVSPropertyOp46
 70
     1
102
RTVSPropertyOp47
 70
     1
102
RTVSPropertyOp48
 70
     1
102
RTVSPropertyOp49
 70
     1
102
RTVSPropertyOp50
 70
     1
102
RTVSPropertyOp51
 70
     0
102
RTVSPropertyOp52
 70
     0
102
RTVSPropertyOp53
 70
     1
102
RTVSPropertyOp54
 70
     1
102
RTVSPropertyOp55
 70
     1
102
RTVSPropertyOp56
 70
     1
102
RTVSPropertyOp57
 70
     1
102
RTVSPropertyOp58
 70
     1
102
RTVSPropertyOp59
 70
     1
102
RTVSPropertyOp60
 70
     1
102
RTVSPropertyOp61
 70
     1
102
RTVSPropertyOp62
 70
     1
  0
XRECORD
  5
D1F
102
{ACAD_REACTORS
330
D1E
102
}
330
D1E
100
AcDbXrecord
280
     1
102
RTVSPost2010Prop28
280
     0
102
RTVSPost2010PropOp28
 70
     1
102
RTVSPost2010Prop29
280
     1
102
RTVSPost2010PropOp29
 70
     1
102
RTVSPost2010Prop30
280
     1
102
RTVSPost2010PropOp30
 70
     1
102
RTVSPost2010Prop31
280
     0
102
RTVSPost2010PropOp31
 70
     1
102
RTVSPost2010Prop32
280
     0
102
RTVSPost2010PropOp32
 70
     1
102
RTVSPost2010Prop33
280
     0
102
RTVSPost2010PropOp33
 70
     1
102
RTVSPost2010Prop34
280
     0
102
RTVSPost2010PropOp34
 70
     1
102
RTVSPost2010Prop35
280
     0
102
RTVSPost2010PropOp35
 70
     1
102
RTVSPost2010Prop36
280
     0
102
RTVSPost2010PropOp36
 70
     1
102
RTVSPost2010Prop37
 90
       50
102
RTVSPost2010PropOp37
 70
     1
102
RTVSPost2010Prop38
140
0.0
102
RTVSPost2010PropOp38
 70
     1
102
RTVSPost2010Prop39
140
1.0
102
RTVSPost2010PropOp39
 70
     1
102
RTVSPost2010Prop40
 90
        0
102
RTVSPost2010PropOp40
 70
     1
102
RTVSPost2010Prop41ColorIndex
 90
       18
102
RTVSPost2010Prop41ColorRGB
 90
        0
102
RTVSPost2010PropOp41
 70
     1
102
RTVSPost2010Prop42
 90
       50
102
RTVSPost2010PropOp42
 70
     1
102
RTVSPost2010Prop43
 90
        3
102
RTVSPost2010PropOp43
 70
     1
102
RTVSPost2010Prop44ColorIndex
 90
        5
102
RTVSPost2010Prop44ColorRGB
 90
      255
102
RTVSPost2010PropOp44
 70
     1
102
RTVSPost2010Prop45
280
     0
102
RTVSPost2010PropOp45
 70
     1
102
RTVSPost2010Prop46
 90
       50
102
RTVSPost2010PropOp46
 70
     1
102
RTVSPost2010Prop47
 90
       50
102
RTVSPost2010PropOp47
 70
     1
102
RTVSPost2010Prop48
 90
       50
102
RTVSPost2010PropOp48
 70
     1
102
RTVSPost2010Prop49
280
     0
102
RTVSPost2010PropOp49
 70
     1
102
RTVSPost2010Prop50
 90
       50
102
RTVSPost2010PropOp50
 70
     1
102
RTVSPost2010Prop51ColorIndex
 90
      256
102
RTVSPost2010Prop51ColorRGB
 90
-16777216
102
RTVSPost2010PropOp51
 70
     0
102
RTVSPost2010Prop52
140
1.0
102
RTVSPost2010PropOp52
 70
     0
102
RTVSPost2010Prop53
 90
        2
102
RTVSPost2010PropOp53
 70
     1
102
RTVSPost2010Prop54
  1
strokes_ogs.tif
102
RTVSPost2010PropOp54
 70
     1
102
RTVSPost2010Prop55
280
     0
102
RTVSPost2010PropOp55
 70
     1
102
RTVSPost2010Prop56
140
1.0
102
RTVSPost2010PropOp56
 70
     1
102
RTVSPost2010Prop57
140
1.0
102
RTVSPost2010PropOp57
 70
     1
102
RTVSPropertyOp0
 70
     1
102
RTVSPropertyOp1
 70
     1
102
RTVSPropertyOp2
 70
     1
102
RTVSPropertyOp3
 70
     1
102
RTVSPropertyOp4
 70
     1
102
RTVSPropertyOp5
 70
     1
102
RTVSPropertyOp6
 70
     1
102
RTVSPropertyOp7
 70
     1
102
RTVSPropertyOp8
 70
     1
102
RTVSPropertyOp9
 70
     1
102
RTVSPropertyOp10
 70
     1
102
RTVSPropertyOp11
 70
     1
102
RTVSPropertyOp12
 70
     1
102
RTVSPropertyOp13
 70
     1
102
RTVSPropertyOp14
 70
     1
102
RTVSPropertyOp15
 70
     1
102
RTVSPropertyOp16
 70
     1
102
RTVSPropertyOp17
 70
     1
102
RTVSPropertyOp18
 70
     1
102
RTVSPropertyOp19
 70
     1
102
RTVSPropertyOp20
 70
     1
102
RTVSPropertyOp21
 70
     1
102
RTVSPropertyOp22
 70
     1
102
RTVSPropertyOp23
 70
     1
102
RTVSPropertyOp24
 70
     1
102
RTVSPropertyOp25
 70
     1
102
RTVSPropertyOp26
 70
     1
102
RTVSPropertyOp27
 70
     1
102
RTVSPropertyOp28
 70
     1
102
RTVSPropertyOp29
 70
     1
102
RTVSPropertyOp30
 70
     1
102
RTVSPropertyOp31
 70
     1
102
RTVSPropertyOp32
 70
     1
102
RTVSPropertyOp33
 70
     1
102
RTVSPropertyOp34
 70
     1
102
RTVSPropertyOp35
 70
     1
102
RTVSPropertyOp36
 70
     1
102
RTVSPropertyOp37
 70
     1
102
RTVSPropertyOp38
 70
     1
102
RTVSPropertyOp39
 70
     1
102
RTVSPropertyOp40
 70
     1
102
RTVSPropertyOp41
 70
     1
102
RTVSPropertyOp42
 70
     1
102
RTVSPropertyOp43
 70
     1
102
RTVSPropertyOp44
 70
     1
102
RTVSPropertyOp45
 70
     1
102
RTVSPropertyOp46
 70
     1
102
RTVSPropertyOp47
 70
     1
102
RTVSPropertyOp48
 70
     1
102
RTVSPropertyOp49
 70
     1
102
RTVSPropertyOp50
 70
     1
102
RTVSPropertyOp51
 70
     0
102
RTVSPropertyOp52
 70
     0
102
RTVSPropertyOp53
 70
     1
102
RTVSPropertyOp54
 70
     1
102
RTVSPropertyOp55
 70
     1
102
RTVSPropertyOp56
 70
     1
102
RTVSPropertyOp57
 70
     1
102
RTVSPropertyOp58
 70
     1
102
RTVSPropertyOp59
 70
     1
102
RTVSPropertyOp60
 70
     1
102
RTVSPropertyOp61
 70
     1
102
RTVSPropertyOp62
 70
     1
  0
XRECORD
  5
D19
102
{ACAD_REACTORS
330
D18
102
}
330
D18
100
AcDbXrecord
280
     1
102
RTVSPost2010Prop28
280
     0
102
RTVSPost2010PropOp28
 70
     1
102
RTVSPost2010Prop29
280
     1
102
RTVSPost2010PropOp29
 70
     1
102
RTVSPost2010Prop30
280
     1
102
RTVSPost2010PropOp30
 70
     1
102
RTVSPost2010Prop31
280
     0
102
RTVSPost2010PropOp31
 70
     1
102
RTVSPost2010Prop32
280
     0
102
RTVSPost2010PropOp32
 70
     1
102
RTVSPost2010Prop33
280
     0
102
RTVSPost2010PropOp33
 70
     1
102
RTVSPost2010Prop34
280
     0
102
RTVSPost2010PropOp34
 70
     1
102
RTVSPost2010Prop35
280
     0
102
RTVSPost2010PropOp35
 70
     1
102
RTVSPost2010Prop36
280
     0
102
RTVSPost2010PropOp36
 70
     1
102
RTVSPost2010Prop37
 90
       50
102
RTVSPost2010PropOp37
 70
     1
102
RTVSPost2010Prop38
140
0.0
102
RTVSPost2010PropOp38
 70
     1
102
RTVSPost2010Prop39
140
1.0
102
RTVSPost2010PropOp39
 70
     1
102
RTVSPost2010Prop40
 90
        0
102
RTVSPost2010PropOp40
 70
     1
102
RTVSPost2010Prop41ColorIndex
 90
       18
102
RTVSPost2010Prop41ColorRGB
 90
        0
102
RTVSPost2010PropOp41
 70
     1
102
RTVSPost2010Prop42
 90
       50
102
RTVSPost2010PropOp42
 70
     1
102
RTVSPost2010Prop43
 90
        3
102
RTVSPost2010PropOp43
 70
     1
102
RTVSPost2010Prop44ColorIndex
 90
        5
102
RTVSPost2010Prop44ColorRGB
 90
      255
102
RTVSPost2010PropOp44
 70
     1
102
RTVSPost2010Prop45
280
     0
102
RTVSPost2010PropOp45
 70
     1
102
RTVSPost2010Prop46
 90
       50
102
RTVSPost2010PropOp46
 70
     1
102
RTVSPost2010Prop47
 90
       50
102
RTVSPost2010PropOp47
 70
     1
102
RTVSPost2010Prop48
 90
       50
102
RTVSPost2010PropOp48
 70
     1
102
RTVSPost2010Prop49
280
     0
102
RTVSPost2010PropOp49
 70
     1
102
RTVSPost2010Prop50
 90
       50
102
RTVSPost2010PropOp50
 70
     1
102
RTVSPost2010Prop51ColorIndex
 90
      256
102
RTVSPost2010Prop51ColorRGB
 90
-16777216
102
RTVSPost2010PropOp51
 70
     0
102
RTVSPost2010Prop52
140
1.0
102
RTVSPost2010PropOp52
 70
     0
102
RTVSPost2010Prop53
 90
        2
102
RTVSPost2010PropOp53
 70
     1
102
RTVSPost2010Prop54
  1
strokes_ogs.tif
102
RTVSPost2010PropOp54
 70
     1
102
RTVSPost2010Prop55
280
     0
102
RTVSPost2010PropOp55
 70
     1
102
RTVSPost2010Prop56
140
1.0
102
RTVSPost2010PropOp56
 70
     1
102
RTVSPost2010Prop57
140
1.0
102
RTVSPost2010PropOp57
 70
     1
102
RTVSPropertyOp0
 70
     1
102
RTVSPropertyOp1
 70
     1
102
RTVSPropertyOp2
 70
     1
102
RTVSPropertyOp3
 70
     1
102
RTVSPropertyOp4
 70
     1
102
RTVSPropertyOp5
 70
     1
102
RTVSPropertyOp6
 70
     1
102
RTVSPropertyOp7
 70
     1
102
RTVSPropertyOp8
 70
     1
102
RTVSPropertyOp9
 70
     1
102
RTVSPropertyOp10
 70
     1
102
RTVSPropertyOp11
 70
     1
102
RTVSPropertyOp12
 70
     1
102
RTVSPropertyOp13
 70
     1
102
RTVSPropertyOp14
 70
     1
102
RTVSPropertyOp15
 70
     1
102
RTVSPropertyOp16
 70
     1
102
RTVSPropertyOp17
 70
     1
102
RTVSPropertyOp18
 70
     1
102
RTVSPropertyOp19
 70
     1
102
RTVSPropertyOp20
 70
     1
102
RTVSPropertyOp21
 70
     1
102
RTVSPropertyOp22
 70
     1
102
RTVSPropertyOp23
 70
     1
102
RTVSPropertyOp24
 70
     1
102
RTVSPropertyOp25
 70
     1
102
RTVSPropertyOp26
 70
     1
102
RTVSPropertyOp27
 70
     1
102
RTVSPropertyOp28
 70
     1
102
RTVSPropertyOp29
 70
     1
102
RTVSPropertyOp30
 70
     1
102
RTVSPropertyOp31
 70
     1
102
RTVSPropertyOp32
 70
     1
102
RTVSPropertyOp33
 70
     1
102
RTVSPropertyOp34
 70
     1
102
RTVSPropertyOp35
 70
     1
102
RTVSPropertyOp36
 70
     1
102
RTVSPropertyOp37
 70
     1
102
RTVSPropertyOp38
 70
     1
102
RTVSPropertyOp39
 70
     1
102
RTVSPropertyOp40
 70
     1
102
RTVSPropertyOp41
 70
     1
102
RTVSPropertyOp42
 70
     1
102
RTVSPropertyOp43
 70
     1
102
RTVSPropertyOp44
 70
     1
102
RTVSPropertyOp45
 70
     1
102
RTVSPropertyOp46
 70
     1
102
RTVSPropertyOp47
 70
     1
102
RTVSPropertyOp48
 70
     1
102
RTVSPropertyOp49
 70
     1
102
RTVSPropertyOp50
 70
     1
102
RTVSPropertyOp51
 70
     0
102
RTVSPropertyOp52
 70
     0
102
RTVSPropertyOp53
 70
     1
102
RTVSPropertyOp54
 70
     1
102
RTVSPropertyOp55
 70
     1
102
RTVSPropertyOp56
 70
     1
102
RTVSPropertyOp57
 70
     1
102
RTVSPropertyOp58
 70
     1
102
RTVSPropertyOp59
 70
     1
102
RTVSPropertyOp60
 70
     1
102
RTVSPropertyOp61
 70
     1
102
RTVSPropertyOp62
 70
     1
  0
XRECORD
  5
D1B
102
{ACAD_REACTORS
330
D1A
102
}
330
D1A
100
AcDbXrecord
280
     1
102
RTVSPost2010Prop28
280
     0
102
RTVSPost2010PropOp28
 70
     1
102
RTVSPost2010Prop29
280
     1
102
RTVSPost2010PropOp29
 70
     1
102
RTVSPost2010Prop30
280
     1
102
RTVSPost2010PropOp30
 70
     1
102
RTVSPost2010Prop31
280
     0
102
RTVSPost2010PropOp31
 70
     1
102
RTVSPost2010Prop32
280
     0
102
RTVSPost2010PropOp32
 70
     1
102
RTVSPost2010Prop33
280
     0
102
RTVSPost2010PropOp33
 70
     1
102
RTVSPost2010Prop34
280
     0
102
RTVSPost2010PropOp34
 70
     1
102
RTVSPost2010Prop35
280
     0
102
RTVSPost2010PropOp35
 70
     1
102
RTVSPost2010Prop36
280
     0
102
RTVSPost2010PropOp36
 70
     1
102
RTVSPost2010Prop37
 90
       50
102
RTVSPost2010PropOp37
 70
     1
102
RTVSPost2010Prop38
140
0.0
102
RTVSPost2010PropOp38
 70
     1
102
RTVSPost2010Prop39
140
1.0
102
RTVSPost2010PropOp39
 70
     1
102
RTVSPost2010Prop40
 90
        0
102
RTVSPost2010PropOp40
 70
     1
102
RTVSPost2010Prop41ColorIndex
 90
       18
102
RTVSPost2010Prop41ColorRGB
 90
        0
102
RTVSPost2010PropOp41
 70
     1
102
RTVSPost2010Prop42
 90
       50
102
RTVSPost2010PropOp42
 70
     1
102
RTVSPost2010Prop43
 90
        3
102
RTVSPost2010PropOp43
 70
     1
102
RTVSPost2010Prop44ColorIndex
 90
        5
102
RTVSPost2010Prop44ColorRGB
 90
      255
102
RTVSPost2010PropOp44
 70
     1
102
RTVSPost2010Prop45
280
     0
102
RTVSPost2010PropOp45
 70
     1
102
RTVSPost2010Prop46
 90
       50
102
RTVSPost2010PropOp46
 70
     1
102
RTVSPost2010Prop47
 90
       50
102
RTVSPost2010PropOp47
 70
     1
102
RTVSPost2010Prop48
 90
       50
102
RTVSPost2010PropOp48
 70
     1
102
RTVSPost2010Prop49
280
     0
102
RTVSPost2010PropOp49
 70
     1
102
RTVSPost2010Prop50
 90
       50
102
RTVSPost2010PropOp50
 70
     1
102
RTVSPost2010Prop51ColorIndex
 90
      256
102
RTVSPost2010Prop51ColorRGB
 90
-16777216
102
RTVSPost2010PropOp51
 70
     0
102
RTVSPost2010Prop52
140
1.0
102
RTVSPost2010PropOp52
 70
     0
102
RTVSPost2010Prop53
 90
        2
102
RTVSPost2010PropOp53
 70
     1
102
RTVSPost2010Prop54
  1
strokes_ogs.tif
102
RTVSPost2010PropOp54
 70
     1
102
RTVSPost2010Prop55
280
     0
102
RTVSPost2010PropOp55
 70
     1
102
RTVSPost2010Prop56
140
1.0
102
RTVSPost2010PropOp56
 70
     1
102
RTVSPost2010Prop57
140
1.0
102
RTVSPost2010PropOp57
 70
     1
102
RTVSPropertyOp0
 70
     1
102
RTVSPropertyOp1
 70
     1
102
RTVSPropertyOp2
 70
     1
102
RTVSPropertyOp3
 70
     1
102
RTVSPropertyOp4
 70
     1
102
RTVSPropertyOp5
 70
     1
102
RTVSPropertyOp6
 70
     1
102
RTVSPropertyOp7
 70
     1
102
RTVSPropertyOp8
 70
     1
102
RTVSPropertyOp9
 70
     1
102
RTVSPropertyOp10
 70
     1
102
RTVSPropertyOp11
 70
     1
102
RTVSPropertyOp12
 70
     1
102
RTVSPropertyOp13
 70
     1
102
RTVSPropertyOp14
 70
     1
102
RTVSPropertyOp15
 70
     1
102
RTVSPropertyOp16
 70
     1
102
RTVSPropertyOp17
 70
     1
102
RTVSPropertyOp18
 70
     1
102
RTVSPropertyOp19
 70
     1
102
RTVSPropertyOp20
 70
     1
102
RTVSPropertyOp21
 70
     1
102
RTVSPropertyOp22
 70
     1
102
RTVSPropertyOp23
 70
     1
102
RTVSPropertyOp24
 70
     1
102
RTVSPropertyOp25
 70
     1
102
RTVSPropertyOp26
 70
     1
102
RTVSPropertyOp27
 70
     1
102
RTVSPropertyOp28
 70
     1
102
RTVSPropertyOp29
 70
     1
102
RTVSPropertyOp30
 70
     1
102
RTVSPropertyOp31
 70
     1
102
RTVSPropertyOp32
 70
     1
102
RTVSPropertyOp33
 70
     1
102
RTVSPropertyOp34
 70
     1
102
RTVSPropertyOp35
 70
     1
102
RTVSPropertyOp36
 70
     1
102
RTVSPropertyOp37
 70
     1
102
RTVSPropertyOp38
 70
     1
102
RTVSPropertyOp39
 70
     1
102
RTVSPropertyOp40
 70
     1
102
RTVSPropertyOp41
 70
     1
102
RTVSPropertyOp42
 70
     1
102
RTVSPropertyOp43
 70
     1
102
RTVSPropertyOp44
 70
     1
102
RTVSPropertyOp45
 70
     1
102
RTVSPropertyOp46
 70
     1
102
RTVSPropertyOp47
 70
     1
102
RTVSPropertyOp48
 70
     1
102
RTVSPropertyOp49
 70
     1
102
RTVSPropertyOp50
 70
     1
102
RTVSPropertyOp51
 70
     0
102
RTVSPropertyOp52
 70
     0
102
RTVSPropertyOp53
 70
     1
102
RTVSPropertyOp54
 70
     1
102
RTVSPropertyOp55
 70
     1
102
RTVSPropertyOp56
 70
     1
102
RTVSPropertyOp57
 70
     1
102
RTVSPropertyOp58
 70
     1
102
RTVSPropertyOp59
 70
     1
102
RTVSPropertyOp60
 70
     1
102
RTVSPropertyOp61
 70
     1
102
RTVSPropertyOp62
 70
     1
  0
XRECORD
  5
D11
102
{ACAD_REACTORS
330
D10
102
}
330
D10
100
AcDbXrecord
280
     1
102
RTVSPost2010Prop28
280
     0
102
RTVSPost2010PropOp28
 70
     1
102
RTVSPost2010Prop29
280
     1
102
RTVSPost2010PropOp29
 70
     1
102
RTVSPost2010Prop30
280
     1
102
RTVSPost2010PropOp30
 70
     1
102
RTVSPost2010Prop31
280
     0
102
RTVSPost2010PropOp31
 70
     1
102
RTVSPost2010Prop32
280
     0
102
RTVSPost2010PropOp32
 70
     1
102
RTVSPost2010Prop33
280
     0
102
RTVSPost2010PropOp33
 70
     1
102
RTVSPost2010Prop34
280
     0
102
RTVSPost2010PropOp34
 70
     1
102
RTVSPost2010Prop35
280
     0
102
RTVSPost2010PropOp35
 70
     1
102
RTVSPost2010Prop36
280
     0
102
RTVSPost2010PropOp36
 70
     1
102
RTVSPost2010Prop37
 90
       50
102
RTVSPost2010PropOp37
 70
     1
102
RTVSPost2010Prop38
140
0.0
102
RTVSPost2010PropOp38
 70
     1
102
RTVSPost2010Prop39
140
1.0
102
RTVSPost2010PropOp39
 70
     1
102
RTVSPost2010Prop40
 90
        0
102
RTVSPost2010PropOp40
 70
     1
102
RTVSPost2010Prop41ColorIndex
 90
       18
102
RTVSPost2010Prop41ColorRGB
 90
        0
102
RTVSPost2010PropOp41
 70
     1
102
RTVSPost2010Prop42
 90
       50
102
RTVSPost2010PropOp42
 70
     1
102
RTVSPost2010Prop43
 90
        3
102
RTVSPost2010PropOp43
 70
     1
102
RTVSPost2010Prop44ColorIndex
 90
        5
102
RTVSPost2010Prop44ColorRGB
 90
      255
102
RTVSPost2010PropOp44
 70
     1
102
RTVSPost2010Prop45
280
     0
102
RTVSPost2010PropOp45
 70
     1
102
RTVSPost2010Prop46
 90
       50
102
RTVSPost2010PropOp46
 70
     1
102
RTVSPost2010Prop47
 90
       50
102
RTVSPost2010PropOp47
 70
     1
102
RTVSPost2010Prop48
 90
       50
102
RTVSPost2010PropOp48
 70
     1
102
RTVSPost2010Prop49
280
     0
102
RTVSPost2010PropOp49
 70
     1
102
RTVSPost2010Prop50
 90
       50
102
RTVSPost2010PropOp50
 70
     1
102
RTVSPost2010Prop51ColorIndex
 90
      256
102
RTVSPost2010Prop51ColorRGB
 90
-16777216
102
RTVSPost2010PropOp51
 70
     0
102
RTVSPost2010Prop52
140
1.0
102
RTVSPost2010PropOp52
 70
     0
102
RTVSPost2010Prop53
 90
        2
102
RTVSPost2010PropOp53
 70
     1
102
RTVSPost2010Prop54
  1
strokes_ogs.tif
102
RTVSPost2010PropOp54
 70
     1
102
RTVSPost2010Prop55
280
     0
102
RTVSPost2010PropOp55
 70
     1
102
RTVSPost2010Prop56
140
1.0
102
RTVSPost2010PropOp56
 70
     1
102
RTVSPost2010Prop57
140
1.0
102
RTVSPost2010PropOp57
 70
     1
102
RTVSPropertyOp0
 70
     1
102
RTVSPropertyOp1
 70
     1
102
RTVSPropertyOp2
 70
     1
102
RTVSPropertyOp3
 70
     1
102
RTVSPropertyOp4
 70
     1
102
RTVSPropertyOp5
 70
     1
102
RTVSPropertyOp6
 70
     1
102
RTVSPropertyOp7
 70
     1
102
RTVSPropertyOp8
 70
     1
102
RTVSPropertyOp9
 70
     1
102
RTVSPropertyOp10
 70
     1
102
RTVSPropertyOp11
 70
     1
102
RTVSPropertyOp12
 70
     1
102
RTVSPropertyOp13
 70
     1
102
RTVSPropertyOp14
 70
     1
102
RTVSPropertyOp15
 70
     1
102
RTVSPropertyOp16
 70
     1
102
RTVSPropertyOp17
 70
     1
102
RTVSPropertyOp18
 70
     1
102
RTVSPropertyOp19
 70
     1
102
RTVSPropertyOp20
 70
     1
102
RTVSPropertyOp21
 70
     1
102
RTVSPropertyOp22
 70
     1
102
RTVSPropertyOp23
 70
     1
102
RTVSPropertyOp24
 70
     1
102
RTVSPropertyOp25
 70
     1
102
RTVSPropertyOp26
 70
     1
102
RTVSPropertyOp27
 70
     1
102
RTVSPropertyOp28
 70
     1
102
RTVSPropertyOp29
 70
     1
102
RTVSPropertyOp30
 70
     1
102
RTVSPropertyOp31
 70
     1
102
RTVSPropertyOp32
 70
     1
102
RTVSPropertyOp33
 70
     1
102
RTVSPropertyOp34
 70
     1
102
RTVSPropertyOp35
 70
     1
102
RTVSPropertyOp36
 70
     1
102
RTVSPropertyOp37
 70
     1
102
RTVSPropertyOp38
 70
     1
102
RTVSPropertyOp39
 70
     1
102
RTVSPropertyOp40
 70
     1
102
RTVSPropertyOp41
 70
     1
102
RTVSPropertyOp42
 70
     1
102
RTVSPropertyOp43
 70
     1
102
RTVSPropertyOp44
 70
     1
102
RTVSPropertyOp45
 70
     1
102
RTVSPropertyOp46
 70
     1
102
RTVSPropertyOp47
 70
     1
102
RTVSPropertyOp48
 70
     1
102
RTVSPropertyOp49
 70
     1
102
RTVSPropertyOp50
 70
     1
102
RTVSPropertyOp51
 70
     0
102
RTVSPropertyOp52
 70
     0
102
RTVSPropertyOp53
 70
     1
102
RTVSPropertyOp54
 70
     1
102
RTVSPropertyOp55
 70
     1
102
RTVSPropertyOp56
 70
     1
102
RTVSPropertyOp57
 70
     1
102
RTVSPropertyOp58
 70
     1
102
RTVSPropertyOp59
 70
     1
102
RTVSPropertyOp60
 70
     1
102
RTVSPropertyOp61
 70
     1
102
RTVSPropertyOp62
 70
     1
  0
XRECORD
  5
D05
102
{ACAD_REACTORS
330
D04
102
}
330
D04
100
AcDbXrecord
280
     1
102
RTVSPost2010Prop28
280
     0
102
RTVSPost2010PropOp28
 70
     1
102
RTVSPost2010Prop29
280
     1
102
RTVSPost2010PropOp29
 70
     1
102
RTVSPost2010Prop30
280
     1
102
RTVSPost2010PropOp30
 70
     1
102
RTVSPost2010Prop31
280
     0
102
RTVSPost2010PropOp31
 70
     1
102
RTVSPost2010Prop32
280
     0
102
RTVSPost2010PropOp32
 70
     1
102
RTVSPost2010Prop33
280
     0
102
RTVSPost2010PropOp33
 70
     1
102
RTVSPost2010Prop34
280
     0
102
RTVSPost2010PropOp34
 70
     1
102
RTVSPost2010Prop35
280
     0
102
RTVSPost2010PropOp35
 70
     1
102
RTVSPost2010Prop36
280
     0
102
RTVSPost2010PropOp36
 70
     1
102
RTVSPost2010Prop37
 90
       50
102
RTVSPost2010PropOp37
 70
     1
102
RTVSPost2010Prop38
140
0.0
102
RTVSPost2010PropOp38
 70
     1
102
RTVSPost2010Prop39
140
1.0
102
RTVSPost2010PropOp39
 70
     1
102
RTVSPost2010Prop40
 90
        0
102
RTVSPost2010PropOp40
 70
     1
102
RTVSPost2010Prop41ColorIndex
 90
       18
102
RTVSPost2010Prop41ColorRGB
 90
        0
102
RTVSPost2010PropOp41
 70
     1
102
RTVSPost2010Prop42
 90
       50
102
RTVSPost2010PropOp42
 70
     1
102
RTVSPost2010Prop43
 90
        3
102
RTVSPost2010PropOp43
 70
     1
102
RTVSPost2010Prop44ColorIndex
 90
        5
102
RTVSPost2010Prop44ColorRGB
 90
      255
102
RTVSPost2010PropOp44
 70
     1
102
RTVSPost2010Prop45
280
     0
102
RTVSPost2010PropOp45
 70
     1
102
RTVSPost2010Prop46
 90
       50
102
RTVSPost2010PropOp46
 70
     1
102
RTVSPost2010Prop47
 90
       50
102
RTVSPost2010PropOp47
 70
     1
102
RTVSPost2010Prop48
 90
       50
102
RTVSPost2010PropOp48
 70
     1
102
RTVSPost2010Prop49
280
     0
102
RTVSPost2010PropOp49
 70
     1
102
RTVSPost2010Prop50
 90
       50
102
RTVSPost2010PropOp50
 70
     1
102
RTVSPost2010Prop51ColorIndex
 90
      256
102
RTVSPost2010Prop51ColorRGB
 90
-16777216
102
RTVSPost2010PropOp51
 70
     0
102
RTVSPost2010Prop52
140
1.0
102
RTVSPost2010PropOp52
 70
     0
102
RTVSPost2010Prop53
 90
        2
102
RTVSPost2010PropOp53
 70
     1
102
RTVSPost2010Prop54
  1
strokes_ogs.tif
102
RTVSPost2010PropOp54
 70
     1
102
RTVSPost2010Prop55
280
     0
102
RTVSPost2010PropOp55
 70
     1
102
RTVSPost2010Prop56
140
1.0
102
RTVSPost2010PropOp56
 70
     1
102
RTVSPost2010Prop57
140
1.0
102
RTVSPost2010PropOp57
 70
     1
102
RTVSPropertyOp0
 70
     1
102
RTVSPropertyOp1
 70
     1
102
RTVSPropertyOp2
 70
     1
102
RTVSPropertyOp3
 70
     1
102
RTVSPropertyOp4
 70
     1
102
RTVSPropertyOp5
 70
     1
102
RTVSPropertyOp6
 70
     1
102
RTVSPropertyOp7
 70
     1
102
RTVSPropertyOp8
 70
     1
102
RTVSPropertyOp9
 70
     1
102
RTVSPropertyOp10
 70
     1
102
RTVSPropertyOp11
 70
     1
102
RTVSPropertyOp12
 70
     1
102
RTVSPropertyOp13
 70
     1
102
RTVSPropertyOp14
 70
     1
102
RTVSPropertyOp15
 70
     1
102
RTVSPropertyOp16
 70
     1
102
RTVSPropertyOp17
 70
     1
102
RTVSPropertyOp18
 70
     1
102
RTVSPropertyOp19
 70
     1
102
RTVSPropertyOp20
 70
     1
102
RTVSPropertyOp21
 70
     1
102
RTVSPropertyOp22
 70
     1
102
RTVSPropertyOp23
 70
     1
102
RTVSPropertyOp24
 70
     1
102
RTVSPropertyOp25
 70
     1
102
RTVSPropertyOp26
 70
     1
102
RTVSPropertyOp27
 70
     1
102
RTVSPropertyOp28
 70
     1
102
RTVSPropertyOp29
 70
     1
102
RTVSPropertyOp30
 70
     1
102
RTVSPropertyOp31
 70
     1
102
RTVSPropertyOp32
 70
     1
102
RTVSPropertyOp33
 70
     1
102
RTVSPropertyOp34
 70
     1
102
RTVSPropertyOp35
 70
     1
102
RTVSPropertyOp36
 70
     1
102
RTVSPropertyOp37
 70
     1
102
RTVSPropertyOp38
 70
     1
102
RTVSPropertyOp39
 70
     1
102
RTVSPropertyOp40
 70
     1
102
RTVSPropertyOp41
 70
     1
102
RTVSPropertyOp42
 70
     1
102
RTVSPropertyOp43
 70
     1
102
RTVSPropertyOp44
 70
     1
102
RTVSPropertyOp45
 70
     1
102
RTVSPropertyOp46
 70
     1
102
RTVSPropertyOp47
 70
     1
102
RTVSPropertyOp48
 70
     1
102
RTVSPropertyOp49
 70
     1
102
RTVSPropertyOp50
 70
     1
102
RTVSPropertyOp51
 70
     0
102
RTVSPropertyOp52
 70
     0
102
RTVSPropertyOp53
 70
     1
102
RTVSPropertyOp54
 70
     1
102
RTVSPropertyOp55
 70
     1
102
RTVSPropertyOp56
 70
     1
102
RTVSPropertyOp57
 70
     1
102
RTVSPropertyOp58
 70
     1
102
RTVSPropertyOp59
 70
     1
102
RTVSPropertyOp60
 70
     1
102
RTVSPropertyOp61
 70
     1
102
RTVSPropertyOp62
 70
     1
  0
XRECORD
  5
D1D
102
{ACAD_REACTORS
330
D1C
102
}
330
D1C
100
AcDbXrecord
280
     1
102
RTVSPost2010Prop28
280
     0
102
RTVSPost2010PropOp28
 70
     1
102
RTVSPost2010Prop29
280
     1
102
RTVSPost2010PropOp29
 70
     1
102
RTVSPost2010Prop30
280
     1
102
RTVSPost2010PropOp30
 70
     1
102
RTVSPost2010Prop31
280
     0
102
RTVSPost2010PropOp31
 70
     1
102
RTVSPost2010Prop32
280
     0
102
RTVSPost2010PropOp32
 70
     1
102
RTVSPost2010Prop33
280
     0
102
RTVSPost2010PropOp33
 70
     1
102
RTVSPost2010Prop34
280
     0
102
RTVSPost2010PropOp34
 70
     1
102
RTVSPost2010Prop35
280
     0
102
RTVSPost2010PropOp35
 70
     1
102
RTVSPost2010Prop36
280
     0
102
RTVSPost2010PropOp36
 70
     1
102
RTVSPost2010Prop37
 90
       50
102
RTVSPost2010PropOp37
 70
     1
102
RTVSPost2010Prop38
140
0.0
102
RTVSPost2010PropOp38
 70
     1
102
RTVSPost2010Prop39
140
1.0
102
RTVSPost2010PropOp39
 70
     1
102
RTVSPost2010Prop40
 90
        0
102
RTVSPost2010PropOp40
 70
     1
102
RTVSPost2010Prop41ColorIndex
 90
       18
102
RTVSPost2010Prop41ColorRGB
 90
        0
102
RTVSPost2010PropOp41
 70
     1
102
RTVSPost2010Prop42
 90
       50
102
RTVSPost2010PropOp42
 70
     1
102
RTVSPost2010Prop43
 90
        3
102
RTVSPost2010PropOp43
 70
     1
102
RTVSPost2010Prop44ColorIndex
 90
        5
102
RTVSPost2010Prop44ColorRGB
 90
      255
102
RTVSPost2010PropOp44
 70
     1
102
RTVSPost2010Prop45
280
     0
102
RTVSPost2010PropOp45
 70
     1
102
RTVSPost2010Prop46
 90
       50
102
RTVSPost2010PropOp46
 70
     1
102
RTVSPost2010Prop47
 90
       50
102
RTVSPost2010PropOp47
 70
     1
102
RTVSPost2010Prop48
 90
       50
102
RTVSPost2010PropOp48
 70
     1
102
RTVSPost2010Prop49
280
     0
102
RTVSPost2010PropOp49
 70
     1
102
RTVSPost2010Prop50
 90
       50
102
RTVSPost2010PropOp50
 70
     1
102
RTVSPost2010Prop51ColorIndex
 90
      256
102
RTVSPost2010Prop51ColorRGB
 90
-16777216
102
RTVSPost2010PropOp51
 70
     0
102
RTVSPost2010Prop52
140
1.0
102
RTVSPost2010PropOp52
 70
     0
102
RTVSPost2010Prop53
 90
        2
102
RTVSPost2010PropOp53
 70
     1
102
RTVSPost2010Prop54
  1
strokes_ogs.tif
102
RTVSPost2010PropOp54
 70
     1
102
RTVSPost2010Prop55
280
     0
102
RTVSPost2010PropOp55
 70
     1
102
RTVSPost2010Prop56
140
1.0
102
RTVSPost2010PropOp56
 70
     1
102
RTVSPost2010Prop57
140
1.0
102
RTVSPost2010PropOp57
 70
     1
102
RTVSPropertyOp0
 70
     1
102
RTVSPropertyOp1
 70
     1
102
RTVSPropertyOp2
 70
     1
102
RTVSPropertyOp3
 70
     1
102
RTVSPropertyOp4
 70
     1
102
RTVSPropertyOp5
 70
     1
102
RTVSPropertyOp6
 70
     1
102
RTVSPropertyOp7
 70
     1
102
RTVSPropertyOp8
 70
     1
102
RTVSPropertyOp9
 70
     1
102
RTVSPropertyOp10
 70
     1
102
RTVSPropertyOp11
 70
     1
102
RTVSPropertyOp12
 70
     1
102
RTVSPropertyOp13
 70
     1
102
RTVSPropertyOp14
 70
     1
102
RTVSPropertyOp15
 70
     1
102
RTVSPropertyOp16
 70
     1
102
RTVSPropertyOp17
 70
     1
102
RTVSPropertyOp18
 70
     1
102
RTVSPropertyOp19
 70
     1
102
RTVSPropertyOp20
 70
     1
102
RTVSPropertyOp21
 70
     1
102
RTVSPropertyOp22
 70
     1
102
RTVSPropertyOp23
 70
     1
102
RTVSPropertyOp24
 70
     1
102
RTVSPropertyOp25
 70
     1
102
RTVSPropertyOp26
 70
     1
102
RTVSPropertyOp27
 70
     1
102
RTVSPropertyOp28
 70
     1
102
RTVSPropertyOp29
 70
     1
102
RTVSPropertyOp30
 70
     1
102
RTVSPropertyOp31
 70
     1
102
RTVSPropertyOp32
 70
     1
102
RTVSPropertyOp33
 70
     1
102
RTVSPropertyOp34
 70
     1
102
RTVSPropertyOp35
 70
     1
102
RTVSPropertyOp36
 70
     1
102
RTVSPropertyOp37
 70
     1
102
RTVSPropertyOp38
 70
     1
102
RTVSPropertyOp39
 70
     1
102
RTVSPropertyOp40
 70
     1
102
RTVSPropertyOp41
 70
     1
102
RTVSPropertyOp42
 70
     1
102
RTVSPropertyOp43
 70
     1
102
RTVSPropertyOp44
 70
     1
102
RTVSPropertyOp45
 70
     1
102
RTVSPropertyOp46
 70
     1
102
RTVSPropertyOp47
 70
     1
102
RTVSPropertyOp48
 70
     1
102
RTVSPropertyOp49
 70
     1
102
RTVSPropertyOp50
 70
     1
102
RTVSPropertyOp51
 70
     0
102
RTVSPropertyOp52
 70
     0
102
RTVSPropertyOp53
 70
     1
102
RTVSPropertyOp54
 70
     1
102
RTVSPropertyOp55
 70
     1
102
RTVSPropertyOp56
 70
     1
102
RTVSPropertyOp57
 70
     1
102
RTVSPropertyOp58
 70
     1
102
RTVSPropertyOp59
 70
     1
102
RTVSPropertyOp60
 70
     1
102
RTVSPropertyOp61
 70
     1
102
RTVSPropertyOp62
 70
     1
  0
ENDSEC
  0
EOF
