  0
SECTION
  2
HEADER
  9
$ACADVER
  1
AC1015
  9
$ACADMAINTVER
 70
    20
  9
$DWGCODEPAGE
  3
ANSI_932
  9
$INSBASE
 10
0.0
 20
0.0
 30
0.0
  9
$EXTMIN
 10
435.0756397707435
 20
162.2023737985198
 30
0.0
  9
$EXTMAX
 10
1277.070639770741
 20
757.5523737985199
 30
0.0
  9
$LIMMIN
 10
0.0
 20
0.0
  9
$LIMMAX
 10
0.0
 20
0.0
  9
$ORTHOMODE
 70
     1
  9
$REGENMODE
 70
     1
  9
$FILLMODE
 70
     1
  9
$QTEXTMODE
 70
     0
  9
$MIRRTEXT
 70
     1
  9
$LTSCALE
 40
1.0
  9
$ATTMODE
 70
     1
  9
$TEXTSIZE
 40
0.35
  9
$TRACEWID
 40
0.05
  9
$TEXTSTYLE
  7
STANDARD
  9
$CLAYER
  8
0
  9
$CELTYPE
  6
CONTINUOUS
  9
$CECOLOR
 62
   256
  9
$CELTSCALE
 40
1.0
  9
$DISPSILH
 70
     0
  9
$DIMSCALE
 40
1.0
  9
$DIMASZ
 40
3.0
  9
$DIMEXO
 40
1.0
  9
$DIMDLI
 40
0.38
  9
$DIMRND
 40
0.0
  9
$DIMDLE
 40
0.0
  9
$DIMEXE
 40
0.5
  9
$DIMTP
 40
0.0
  9
$DIMTM
 40
0.0
  9
$DIMTXT
 40
3.527777777777777
  9
$DIMCEN
 40
0.09
  9
$DIMTSZ
 40
0.0
  9
$DIMTOL
 70
     0
  9
$DIMLIM
 70
     0
  9
$DIMTIH
 70
     0
  9
$DIMTOH
 70
     0
  9
$DIMSE1
 70
     0
  9
$DIMSE2
 70
     0
  9
$DIMTAD
 70
     1
  9
$DIMZIN
 70
     0
  9
$DIMBLK
  1

  9
$DIMASO
 70
     1
  9
$DIMSHO
 70
     1
  9
$DIMPOST
  1

  9
$DIMAPOST
  1

  9
$DIMALT
 70
     0
  9
$DIMALTD
 70
     3
  9
$DIMALTF
 40
25.4
  9
$DIMLFAC
 40
1.0
  9
$DIMTOFL
 70
     0
  9
$DIMTVP
 40
0.0
  9
$DIMTIX
 70
     0
  9
$DIMSOXD
 70
     0
  9
$DIMSAH
 70
     0
  9
$DIMBLK1
  1

  9
$DIMBLK2
  1

  9
$DIMSTYLE
  2
Standard
  9
$DIMCLRD
 70
     0
  9
$DIMCLRE
 70
     0
  9
$DIMCLRT
 70
     0
  9
$DIMTFAC
 40
1.0
  9
$DIMGAP
 40
0.09
  9
$DIMJUST
 70
     0
  9
$DIMSD1
 70
     0
  9
$DIMSD2
 70
     0
  9
$DIMTOLJ
 70
     1
  9
$DIMTZIN
 70
     0
  9
$DIMALTZ
 70
     0
  9
$DIMALTTZ
 70
     0
  9
$DIMUPT
 70
     0
  9
$DIMDEC
 70
     4
  9
$DIMTDEC
 70
     4
  9
$DIMALTU
 70
     2
  9
$DIMALTTD
 70
     2
  9
$DIMTXSTY
  7
STANDARD
  9
$DIMAUNIT
 70
     0
  9
$DIMADEC
 70
     0
  9
$DIMALTRND
 40
0.0
  9
$DIMAZIN
 70
     0
  9
$DIMDSEP
 70
    46
  9
$DIMATFIT
 70
     3
  9
$DIMFRAC
 70
     0
  9
$DIMLDRBLK
  1

  9
$DIMLUNIT
 70
     2
  9
$DIMLWD
 70
    -2
  9
$DIMLWE
 70
    -2
  9
$DIMTMOVE
 70
     0
  9
$LUNITS
 70
     2
  9
$LUPREC
 70
     4
  9
$SKETCHINC
 40
0.1
  9
$FILLETRAD
 40
0.0
  9
$AUNITS
 70
     0
  9
$AUPREC
 70
     0
  9
$MENU
  1
acad
  9
$ELEVATION
 40
0.0
  9
$PELEVATION
 40
0.0
  9
$THICKNESS
 40
0.0
  9
$LIMCHECK
 70
     0
  9
$CHAMFERA
 40
0.0
  9
$CHAMFERB
 40
0.0
  9
$CHAMFERC
 40
0.0
  9
$CHAMFERD
 40
0.0
  9
$SKPOLY
 70
     0
  9
$TDCREATE
 40
2455539.456481481
  9
$TDUCREATE
 40
2455539.081481482
  9
$TDUPDATE
 40
2458918.465917744
  9
$TDUUPDATE
 40
2458918.090917744
  9
$TDINDWG
 40
0.0091953241
  9
$TDUSRTIMER
 40
0.0091949653
  9
$USRTIMER
 70
     1
  9
$ANGBASE
 50
0.0
  9
$ANGDIR
 70
     0
  9
$PDMODE
 70
     0
  9
$PDSIZE
 40
0.0
  9
$PLINEWID
 40
0.0
  9
$SPLFRAME
 70
     0
  9
$SPLINETYPE
 70
     6
  9
$SPLINESEGS
 70
     8
  9
$HANDSEED
  5
D78
  9
$SURFTAB1
 70
     6
  9
$SURFTAB2
 70
     6
  9
$SURFTYPE
 70
     6
  9
$SURFU
 70
     6
  9
$SURFV
 70
     6
  9
$UCSBASE
  2

  9
$UCSNAME
  2

  9
$UCSORG
 10
0.0
 20
0.0
 30
0.0
  9
$UCSXDIR
 10
1.0
 20
0.0
 30
0.0
  9
$UCSYDIR
 10
0.0
 20
1.0
 30
0.0
  9
$UCSORTHOREF
  2

  9
$UCSORTHOVIEW
 70
     0
  9
$UCSORGTOP
 10
0.0
 20
0.0
 30
0.0
  9
$UCSORGBOTTOM
 10
0.0
 20
0.0
 30
0.0
  9
$UCSORGLEFT
 10
0.0
 20
0.0
 30
0.0
  9
$UCSORGRIGHT
 10
0.0
 20
0.0
 30
0.0
  9
$UCSORGFRONT
 10
0.0
 20
0.0
 30
0.0
  9
$UCSORGBACK
 10
0.0
 20
0.0
 30
0.0
  9
$PUCSBASE
  2

  9
$PUCSNAME
  2

  9
$PUCSORG
 10
0.0
 20
0.0
 30
0.0
  9
$PUCSXDIR
 10
1.0
 20
0.0
 30
0.0
  9
$PUCSYDIR
 10
0.0
 20
1.0
 30
0.0
  9
$PUCSORTHOREF
  2

  9
$PUCSORTHOVIEW
 70
     0
  9
$PUCSORGTOP
 10
0.0
 20
0.0
 30
0.0
  9
$PUCSORGBOTTOM
 10
0.0
 20
0.0
 30
0.0
  9
$PUCSORGLEFT
 10
0.0
 20
0.0
 30
0.0
  9
$PUCSORGRIGHT
 10
0.0
 20
0.0
 30
0.0
  9
$PUCSORGFRONT
 10
0.0
 20
0.0
 30
0.0
  9
$PUCSORGBACK
 10
0.0
 20
0.0
 30
0.0
  9
$USERI1
 70
     0
  9
$USERI2
 70
     0
  9
$USERI3
 70
     0
  9
$USERI4
 70
     0
  9
$USERI5
 70
     0
  9
$USERR1
 40
0.0
  9
$USERR2
 40
0.0
  9
$USERR3
 40
0.0
  9
$USERR4
 40
0.0
  9
$USERR5
 40
0.0
  9
$WORLDVIEW
 70
     1
  9
$SHADEDGE
 70
     3
  9
$SHADEDIF
 70
    70
  9
$TILEMODE
 70
     1
  9
$MAXACTVP
 70
    64
  9
$PINSBASE
 10
0.0
 20
0.0
 30
0.0
  9
$PLIMCHECK
 70
     0
  9
$PEXTMIN
 10
1.000000000000000E+20
 20
1.000000000000000E+20
 30
1.000000000000000E+20
  9
$PEXTMAX
 10
-1.000000000000000E+20
 20
-1.000000000000000E+20
 30
-1.000000000000000E+20
  9
$PLIMMIN
 10
0.0
 20
0.0
  9
$PLIMMAX
 10
12.0
 20
9.0
  9
$UNITMODE
 70
     0
  9
$VISRETAIN
 70
     1
  9
$PLINEGEN
 70
     0
  9
$PSLTSCALE
 70
     1
  9
$TREEDEPTH
 70
  3020
  9
$CMLSTYLE
  2
Standard
  9
$CMLJUST
 70
     0
  9
$CMLSCALE
 40
1.0
  9
$PROXYGRAPHICS
 70
     1
  9
$MEASUREMENT
 70
     0
  9
$CELWEIGHT
370
    -1
  9
$ENDCAPS
280
     0
  9
$JOINSTYLE
280
     0
  9
$LWDISPLAY
290
     0
  9
$INSUNITS
 70
     0
  9
$HYPERLINKBASE
  1

  9
$STYLESHEET
  1
monochrome.ctb
  9
$XEDIT
290
     1
  9
$CEPSNTYPE
380
     0
  9
$PSTYLEMODE
290
     1
  9
$FINGERPRINTGUID
  2
{17B09074-C911-4572-9B9B-2CB2F98C61A8}
  9
$VERSIONGUID
  2
{791383EC-7198-4A96-AFF9-31AD09AD1C40}
  9
$EXTNAMES
290
     1
  9
$PSVPSCALE
 40
0.0
  9
$OLESTARTUP
290
     0
  0
ENDSEC
  0
SECTION
  2
CLASSES
  0
CLASS
  1
ACDBDICTIONARYWDFLT
  2
AcDbDictionaryWithDefault
  3
ObjectDBX Classes
 90
        0
280
     0
281
     0
  0
CLASS
  1
MATERIAL
  2
AcDbMaterial
  3
ObjectDBX Classes
 90
     1153
280
     0
281
     0
  0
CLASS
  1
VISUALSTYLE
  2
AcDbVisualStyle
  3
ObjectDBX Classes
 90
     4095
280
     0
281
     0
  0
CLASS
  1
TABLESTYLE
  2
AcDbTableStyle
  3
ObjectDBX Classes
 90
     4095
280
     0
281
     0
  0
CLASS
  1
SCALE
  2
AcDbScale
  3
ObjectDBX Classes
 90
     1153
280
     0
281
     0
  0
CLASS
  1
MLEADERSTYLE
  2
AcDbMLeaderStyle
  3
ACDB_MLEADERSTYLE_CLASS
 90
     4095
280
     0
281
     0
  0
CLASS
  1
ACDBSECTIONVIEWSTYLE
  2
AcDbSectionViewStyle
  3
ObjectDBX Classes
 90
     1025
280
     0
281
     0
  0
CLASS
  1
ACDBDETAILVIEWSTYLE
  2
AcDbDetailViewStyle
  3
ObjectDBX Classes
 90
     1025
280
     0
281
     0
  0
CLASS
  1
SORTENTSTABLE
  2
AcDbSortentsTable
  3
ObjectDBX Classes
 90
    32768
280
     0
281
     0
  0
CLASS
  1
DICTIONARYVAR
  2
AcDbDictionaryVar
  3
ObjectDBX Classes
 90
        0
280
     0
281
     0
  0
CLASS
  1
CELLSTYLEMAP
  2
AcDbCellStyleMap
  3
ObjectDBX Classes
 90
     1152
280
     0
281
     0
  0
CLASS
  1
ACDBPLACEHOLDER
  2
AcDbPlaceHolder
  3
ObjectDBX Classes
 90
        0
280
     0
281
     0
  0
CLASS
  1
LAYOUT
  2
AcDbLayout
  3
ObjectDBX Classes
 90
        0
280
     0
281
     0
  0
ENDSEC
  0
SECTION
  2
TABLES
  0
TABLE
  2
VPORT
  5
2FD
330
0
100
AcDbSymbolTable
 70
     1
  0
VPORT
  5
C14
330
2FD
100
AcDbSymbolTableRecord
100
AcDbViewportTableRecord
  2
*Active
 70
     0
 10
0.0
 20
0.0
 11
1.0
 21
1.0
 12
893.9454255698702
 22
291.7931210060088
 13
0.0
 23
0.0
 14
1.0
 24
1.0
 15
0.0
 25
0.0
 16
0.0
 26
0.0
 36
1.0
 17
0.0
 27
0.0
 37
0.0
 40
673.9666774667645
 41
2.671554252199413
 42
50.0
 43
0.0
 44
0.0
 50
0.0
 51
0.0
 71
     0
 72
   100
 73
     1
 74
     1
 75
     0
 76
     0
 77
     0
 78
     0
281
     0
 65
     1
110
0.0
120
0.0
130
0.0
111
1.0
121
0.0
131
0.0
112
0.0
122
1.0
132
0.0
 79
     0
146
0.0
1001
ACAD_NAV_VCDISPLAY
1070
     3
  0
ENDTAB
  0
TABLE
  2
LTYPE
  5
2FA
330
0
100
AcDbSymbolTable
 70
    11
  0
LTYPE
  5
308
330
2FA
100
AcDbSymbolTableRecord
100
AcDbLinetypeTableRecord
  2
ByBlock
 70
     0
  3

 72
    65
 73
     0
 40
0.0
  0
LTYPE
  5
309
330
2FA
100
AcDbSymbolTableRecord
100
AcDbLinetypeTableRecord
  2
ByLayer
 70
     0
  3

 72
    65
 73
     0
 40
0.0
  0
LTYPE
  5
30A
330
2FA
100
AcDbSymbolTableRecord
100
AcDbLinetypeTableRecord
  2
CONTINUOUS
 70
     0
  3
Solid line
 72
    65
 73
     0
 40
0.0
  0
LTYPE
  5
31A
330
2FA
100
AcDbSymbolTableRecord
100
AcDbLinetypeTableRecord
  2
DOT
 70
     0
  3

 72
    65
 73
     2
 40
1.0
 49
0.0
 74
     0
 49
-1.0
 74
     0
  0
LTYPE
  5
31B
330
2FA
100
AcDbSymbolTableRecord
100
AcDbLinetypeTableRecord
  2
DASHEDX2
 70
     0
  3

 72
    65
 73
     2
 40
4.0
 49
3.0
 74
     0
 49
-1.0
 74
     0
  0
LTYPE
  5
31C
330
2FA
100
AcDbSymbolTableRecord
100
AcDbLinetypeTableRecord
  2
DASHED
 70
     0
  3

 72
    65
 73
     2
 40
3.0
 49
2.0
 74
     0
 49
-1.0
 74
     0
  0
LTYPE
  5
31D
330
2FA
100
AcDbSymbolTableRecord
100
AcDbLinetypeTableRecord
  2
DASHED2
 70
     0
  3

 72
    65
 73
     2
 40
2.0
 49
1.0
 74
     0
 49
-1.0
 74
     0
  0
LTYPE
  5
31E
330
2FA
100
AcDbSymbolTableRecord
100
AcDbLinetypeTableRecord
  2
CENTERX2
 70
     0
  3

 72
    65
 73
     4
 40
43.0
 49
40.0
 74
     0
 49
-1.0
 74
     0
 49
1.0
 74
     0
 49
-1.0
 74
     0
  0
LTYPE
  5
31F
330
2FA
100
AcDbSymbolTableRecord
100
AcDbLinetypeTableRecord
  2
CENTER
 70
     0
  3

 72
    65
 73
     4
 40
33.0
 49
30.0
 74
     0
 49
-1.0
 74
     0
 49
1.0
 74
     0
 49
-1.0
 74
     0
  0
LTYPE
  5
320
330
2FA
100
AcDbSymbolTableRecord
100
AcDbLinetypeTableRecord
  2
CENTER2
 70
     0
  3

 72
    65
 73
     4
 40
23.0
 49
20.0
 74
     0
 49
-1.0
 74
     0
 49
1.0
 74
     0
 49
-1.0
 74
     0
  0
LTYPE
  5
321
330
2FA
100
AcDbSymbolTableRecord
100
AcDbLinetypeTableRecord
  2
PHANTOMX2
 70
     0
  3

 72
    65
 73
     6
 40
45.0
 49
40.0
 74
     0
 49
-1.0
 74
     0
 49
1.0
 74
     0
 49
-1.0
 74
     0
 49
1.0
 74
     0
 49
-1.0
 74
     0
  0
LTYPE
  5
322
330
2FA
100
AcDbSymbolTableRecord
100
AcDbLinetypeTableRecord
  2
PHANTOM
 70
     0
  3

 72
    65
 73
     6
 40
35.0
 49
30.0
 74
     0
 49
-1.0
 74
     0
 49
1.0
 74
     0
 49
-1.0
 74
     0
 49
1.0
 74
     0
 49
-1.0
 74
     0
  0
LTYPE
  5
323
330
2FA
100
AcDbSymbolTableRecord
100
AcDbLinetypeTableRecord
  2
PHANTOM2
 70
     0
  3

 72
    65
 73
     6
 40
25.0
 49
20.0
 74
     0
 49
-1.0
 74
     0
 49
1.0
 74
     0
 49
-1.0
 74
     0
 49
1.0
 74
     0
 49
-1.0
 74
     0
  0
ENDTAB
  0
TABLE
  2
LAYER
  5
2F7
102
{ACAD_XDICTIONARY
360
4FF
102
}
330
0
100
AcDbSymbolTable
 70
    11
  0
LAYER
  5
305
102
{ACAD_XDICTIONARY
360
CE6
102
}
330
2F7
100
AcDbSymbolTableRecord
100
AcDbLayerTableRecord
  2
0
 70
     0
 62
     7
  6
CONTINUOUS
370
    -3
390
304
  0
LAYER
  5
324
330
2F7
100
AcDbSymbolTableRecord
100
AcDbLayerTableRecord
  2
DEFPOINTS
 70
     0
 62
     7
  6
CONTINUOUS
290
     0
370
    -3
390
304
  0
LAYER
  5
325
102
{ACAD_XDICTIONARY
360
CE8
102
}
330
2F7
100
AcDbSymbolTableRecord
100
AcDbLayerTableRecord
  2
____1
 70
     0
 62
     3
  6
CENTER2
370
    -3
390
304
  0
LAYER
  5
326
102
{ACAD_XDICTIONARY
360
CEA
102
}
330
2F7
100
AcDbSymbolTableRecord
100
AcDbLayerTableRecord
  2
______
 70
     0
 62
     7
  6
CONTINUOUS
370
    -3
390
304
  0
LAYER
  5
327
102
{ACAD_XDICTIONARY
360
CEC
102
}
330
2F7
100
AcDbSymbolTableRecord
100
AcDbLayerTableRecord
  2
寸法線_1
 70
     0
 62
     7
  6
CONTINUOUS
370
    -3
390
304
  0
LAYER
  5
328
102
{ACAD_XDICTIONARY
360
CEE
102
}
330
2F7
100
AcDbSymbolTableRecord
100
AcDbLayerTableRecord
  2
CONSTRUCTION
 70
     0
 62
     7
  6
CONTINUOUS
370
    -3
390
304
  0
LAYER
  5
329
102
{ACAD_XDICTIONARY
360
CF0
102
}
330
2F7
100
AcDbSymbolTableRecord
100
AcDbLayerTableRecord
  2
DIMENSION
 70
     0
 62
     7
  6
CONTINUOUS
370
    -3
390
304
  0
LAYER
  5
32A
102
{ACAD_XDICTIONARY
360
CF2
102
}
330
2F7
100
AcDbSymbolTableRecord
100
AcDbLayerTableRecord
  2
FORMAT
 70
     0
 62
     7
  6
CONTINUOUS
370
    -3
390
304
  0
LAYER
  5
32B
102
{ACAD_XDICTIONARY
360
CF4
102
}
330
2F7
100
AcDbSymbolTableRecord
100
AcDbLayerTableRecord
  2
____2
 70
     0
 62
     5
  6
CONTINUOUS
370
    -3
390
304
  0
LAYER
  5
32C
102
{ACAD_XDICTIONARY
360
CF6
102
}
330
2F7
100
AcDbSymbolTableRecord
100
AcDbLayerTableRecord
  2
0_1
 70
     0
 62
     5
  6
CONTINUOUS
370
    -3
390
304
  0
LAYER
  5
32D
102
{ACAD_XDICTIONARY
360
CF8
102
}
330
2F7
100
AcDbSymbolTableRecord
100
AcDbLayerTableRecord
  2
DEFPOINTS_1
 70
     0
 62
     5
  6
CONTINUOUS
370
    -3
390
304
  0
ENDTAB
  0
TABLE
  2
STYLE
  5
2F8
330
0
100
AcDbSymbolTable
 70
     2
  0
STYLE
  5
306
330
2F8
100
AcDbSymbolTableRecord
100
AcDbTextStyleTableRecord
  2
STANDARD
 70
     0
 40
0.0
 41
1.0
 50
0.0
 71
     0
 42
0.35
  3
txt
  4

  0
STYLE
  5
32E
330
2F8
100
AcDbSymbolTableRecord
100
AcDbTextStyleTableRecord
  2
STYLE1
 70
     0
 40
0.0
 41
1.0
 50
0.0
 71
     0
 42
0.35
  3
ＭＳ ゴシック
  4

  0
ENDTAB
  0
TABLE
  2
VIEW
  5
2FB
330
0
100
AcDbSymbolTable
 70
     0
  0
ENDTAB
  0
TABLE
  2
UCS
  5
2FC
330
0
100
AcDbSymbolTable
 70
     0
  0
ENDTAB
  0
TABLE
  2
APPID
  5
2FE
330
0
100
AcDbSymbolTable
 70
     4
  0
APPID
  5
307
330
2FE
100
AcDbSymbolTableRecord
100
AcDbRegAppTableRecord
  2
ACAD
 70
     0
  0
APPID
  5
C66
330
2FE
100
AcDbSymbolTableRecord
100
AcDbRegAppTableRecord
  2
ACAD_NAV_VCDISPLAY
 70
     0
  0
APPID
  5
CE3
330
2FE
100
AcDbSymbolTableRecord
100
AcDbRegAppTableRecord
  2
ACAD_EXEMPT_FROM_CAD_STANDARDS
 70
     0
  0
APPID
  5
D73
330
2FE
100
AcDbSymbolTableRecord
100
AcDbRegAppTableRecord
  2
ACAD_MLEADERVER
 70
     0
  0
ENDTAB
  0
TABLE
  2
DIMSTYLE
  5
2FF
330
0
100
AcDbSymbolTable
 70
     1
100
AcDbDimStyleTable
 71
     0
  0
DIMSTYLE
105
4F7
330
2FF
100
AcDbSymbolTableRecord
100
AcDbDimStyleTableRecord
  2
Standard
 70
     0
340
306
  0
ENDTAB
  0
TABLE
  2
BLOCK_RECORD
  5
2F6
330
0
100
AcDbSymbolTable
 70
     6
  0
BLOCK_RECORD
  5
315
330
2F6
100
AcDbSymbolTableRecord
100
AcDbBlockTableRecord
  2
*Model_Space
340
318
  0
BLOCK_RECORD
  5
311
330
2F6
100
AcDbSymbolTableRecord
100
AcDbBlockTableRecord
  2
*Paper_Space
340
314
  0
BLOCK_RECORD
  5
4BF
330
2F6
100
AcDbSymbolTableRecord
100
AcDbBlockTableRecord
  2
C0
340
0
  0
BLOCK_RECORD
  5
4D2
330
2F6
100
AcDbSymbolTableRecord
100
AcDbBlockTableRecord
  2
C1
340
0
  0
BLOCK_RECORD
  5
4DB
330
2F6
100
AcDbSymbolTableRecord
100
AcDbBlockTableRecord
  2
C2
340
0
  0
BLOCK_RECORD
  5
4E2
330
2F6
100
AcDbSymbolTableRecord
100
AcDbBlockTableRecord
  2
C3
340
0
  0
BLOCK_RECORD
  5
4E9
330
2F6
100
AcDbSymbolTableRecord
100
AcDbBlockTableRecord
  2
C4
340
0
  0
BLOCK_RECORD
  5
4F0
330
2F6
100
AcDbSymbolTableRecord
100
AcDbBlockTableRecord
  2
C5
340
0
  0
ENDTAB
  0
ENDSEC
  0
SECTION
  2
BLOCKS
  0
BLOCK
  5
316
330
315
100
AcDbEntity
  8
0
100
AcDbBlockBegin
  2
*Model_Space
 70
     0
 10
0.0
 20
0.0
 30
0.0
  3
*Model_Space
  1

  0
ENDBLK
  5
317
330
315
100
AcDbEntity
  8
0
100
AcDbBlockEnd
  0
BLOCK
  5
312
330
311
100
AcDbEntity
 67
     1
  8
0
100
AcDbBlockBegin
  2
*Paper_Space
 70
     0
 10
0.0
 20
0.0
 30
0.0
  3
*Paper_Space
  1

  0
ENDBLK
  5
313
330
311
100
AcDbEntity
 67
     1
  8
0
100
AcDbBlockEnd
  0
BLOCK
  5
4C0
330
4BF
100
AcDbEntity
  8
0
100
AcDbBlockBegin
  2
C0
 70
     0
 10
0.0
 20
0.0
 30
0.0
  3
C0
  1

  0
TEXT
  5
4C1
330
4BF
100
AcDbEntity
  8
____1
  6
Continuous
 62
     7
100
AcDbText
 10
1064.573462200416
 20
42.75007456080373
 30
0.0
 40
5.853287887573243
  1
1
  7
STYLE1
100
AcDbText
  0
LINE
  5
4C2
330
4BF
100
AcDbEntity
  8
____1
  6
Continuous
 62
     5
100
AcDbLine
 10
1061.086784019649
 20
41.65012593268786
 30
0.0
 11
1070.986784019649
 21
41.65012593268786
 31
0.0
  0
LINE
  5
4C3
330
4BF
100
AcDbEntity
  8
____1
  6
Continuous
 62
     5
100
AcDbLine
 10
1066.036784019649
 20
50.2237774301539
 30
0.0
 11
1070.986784019649
 21
41.65012593268786
 31
0.0
  0
LINE
  5
4C4
330
4BF
100
AcDbEntity
  8
____1
  6
Continuous
 62
     5
100
AcDbLine
 10
1066.036784019649
 20
50.2237774301539
 30
0.0
 11
1061.086784019649
 21
41.65012593268786
 31
0.0
  0
ENDBLK
  5
4C5
330
4BF
100
AcDbEntity
  8
0
100
AcDbBlockEnd
  0
BLOCK
  5
4D3
330
4D2
100
AcDbEntity
  8
0
100
AcDbBlockBegin
  2
C1
 70
     0
 10
0.0
 20
0.0
 30
0.0
  3
C1
  1

  0
ARC
  5
4D4
330
4D2
100
AcDbEntity
  8
0
  6
Continuous
 62
     5
100
AcDbCircle
 10
502.3576231881169
 20
-980.1251621544336
 30
0.0
 40
1000.0
100
AcDbArc
 50
51.00174570602806
 51
75.07556604755918
  0
ARC
  5
4D5
330
4D2
100
AcDbEntity
  8
0
  6
Continuous
 62
     5
100
AcDbCircle
 10
502.3576231881169
 20
-980.1251621544336
 30
0.0
 40
1032.0
100
AcDbArc
 50
52.42613991158666
 51
70.39368596474244
  0
ARC
  5
4D6
330
4D2
100
AcDbEntity
  8
0
  6
Continuous
 62
     5
100
AcDbCircle
 10
760.6751415001855
 20
-10.96002672441122
 30
0.0
 40
3.000000000000005
100
AcDbArc
 50
187.4622169762186
 51
255.0755660475611
  0
LINE
  5
4D7
330
4D2
100
AcDbEntity
  8
0
  6
Continuous
 62
     5
100
AcDbLine
 10
757.7005493409314
 20
-11.34964382632861
 30
0.0
 11
757.7005493409314
 21
-7.96002672441122
 31
0.0
  0
LINE
  5
4D8
330
4D2
100
AcDbEntity
  8
0
  6
Continuous
 62
     5
100
AcDbLine
 10
757.7005493409314
 20
-7.96002672441122
 30
0.0
 11
848.6507785555396
 21
-7.96002672441122
 31
0.0
  0
LINE
  5
4D9
330
4D2
100
AcDbEntity
  8
0
  6
Continuous
 62
     5
100
AcDbLine
 10
1131.654335615597
 20
-162.1950626178253
 30
0.0
 11
1131.654335615597
 21
-202.9600267244117
 31
0.0
  0
ENDBLK
  5
4DA
330
4D2
100
AcDbEntity
  8
0
100
AcDbBlockEnd
  0
BLOCK
  5
4DC
330
4DB
100
AcDbEntity
  8
0
100
AcDbBlockBegin
  2
C2
 70
     0
 10
0.0
 20
0.0
 30
0.0
  3
C2
  1

  0
LINE
  5
4DD
330
4DB
100
AcDbEntity
  8
____1
  6
Continuous
 62
     5
100
AcDbLine
 10
1066.036784019649
 20
40.22377743015403
 30
0.0
 11
1061.086784019649
 21
31.65012593268802
 31
0.0
  0
LINE
  5
4DE
330
4DB
100
AcDbEntity
  8
____1
  6
Continuous
 62
     5
100
AcDbLine
 10
1066.036784019649
 20
40.22377743015403
 30
0.0
 11
1070.986784019649
 21
31.65012593268802
 31
0.0
  0
LINE
  5
4DF
330
4DB
100
AcDbEntity
  8
____1
  6
Continuous
 62
     5
100
AcDbLine
 10
1061.086784019649
 20
31.65012593268802
 30
0.0
 11
1070.986784019649
 21
31.65012593268802
 31
0.0
  0
TEXT
  5
4E0
330
4DB
100
AcDbEntity
  8
____1
  6
Continuous
 62
     7
100
AcDbText
 10
1064.573462200416
 20
32.75007456080388
 30
0.0
 40
5.853287887573243
  1
2
  7
STYLE1
100
AcDbText
  0
ENDBLK
  5
4E1
330
4DB
100
AcDbEntity
  8
0
100
AcDbBlockEnd
  0
BLOCK
  5
4E3
330
4E2
100
AcDbEntity
  8
0
100
AcDbBlockBegin
  2
C3
 70
     0
 10
0.0
 20
0.0
 30
0.0
  3
C3
  1

  0
LINE
  5
4E4
330
4E2
100
AcDbEntity
  8
____1
  6
Continuous
 62
     5
100
AcDbLine
 10
1201.847181315104
 20
-439.6053469550464
 30
0.0
 11
1196.897181315105
 21
-448.1789984525123
 31
0.0
  0
LINE
  5
4E5
330
4E2
100
AcDbEntity
  8
____1
  6
Continuous
 62
     5
100
AcDbLine
 10
1201.847181315104
 20
-439.6053469550464
 30
0.0
 11
1206.797181315105
 21
-448.1789984525123
 31
0.0
  0
LINE
  5
4E6
330
4E2
100
AcDbEntity
  8
____1
  6
Continuous
 62
     5
100
AcDbLine
 10
1196.897181315105
 20
-448.1789984525123
 30
0.0
 11
1206.797181315105
 21
-448.1789984525123
 31
0.0
  0
TEXT
  5
4E7
330
4E2
100
AcDbEntity
  8
____1
  6
Continuous
 62
     7
100
AcDbText
 10
1200.383859495871
 20
-447.0790498243965
 30
0.0
 40
5.853287887573243
  1
2
  7
STYLE1
100
AcDbText
  0
ENDBLK
  5
4E8
330
4E2
100
AcDbEntity
  8
0
100
AcDbBlockEnd
  0
BLOCK
  5
4EA
330
4E9
100
AcDbEntity
  8
0
100
AcDbBlockBegin
  2
C4
 70
     0
 10
0.0
 20
0.0
 30
0.0
  3
C4
  1

  0
TEXT
  5
4EB
330
4E9
100
AcDbEntity
  8
____1
  6
Continuous
 62
     7
100
AcDbText
 10
1087.432960886776
 20
-406.3596114963458
 30
0.0
 40
5.853287887573243
  1
1
  7
STYLE1
100
AcDbText
  0
LINE
  5
4EC
330
4E9
100
AcDbEntity
  8
____1
  6
Continuous
 62
     5
100
AcDbLine
 10
1083.94628270601
 20
-407.4595601244617
 30
0.0
 11
1093.846282706009
 21
-407.4595601244617
 31
0.0
  0
LINE
  5
4ED
330
4E9
100
AcDbEntity
  8
____1
  6
Continuous
 62
     5
100
AcDbLine
 10
1088.89628270601
 20
-398.8859086269957
 30
0.0
 11
1093.846282706009
 21
-407.4595601244617
 31
0.0
  0
LINE
  5
4EE
330
4E9
100
AcDbEntity
  8
____1
  6
Continuous
 62
     5
100
AcDbLine
 10
1088.89628270601
 20
-398.8859086269957
 30
0.0
 11
1083.94628270601
 21
-407.4595601244617
 31
0.0
  0
ENDBLK
  5
4EF
330
4E9
100
AcDbEntity
  8
0
100
AcDbBlockEnd
  0
BLOCK
  5
4F1
330
4F0
100
AcDbEntity
  8
0
100
AcDbBlockBegin
  2
C5
 70
     0
 10
0.0
 20
0.0
 30
0.0
  3
C5
  1

  0
TEXT
  5
4F2
330
4F0
100
AcDbEntity
  8
____1
  6
Continuous
 62
     7
100
AcDbText
 10
1138.330933915522
 20
-423.1629848222635
 30
0.0
 40
5.853287887573243
  1
1
  7
STYLE1
100
AcDbText
  0
LINE
  5
4F3
330
4F0
100
AcDbEntity
  8
____1
  6
Continuous
 62
     5
100
AcDbLine
 10
1134.844255734755
 20
-424.2629334503794
 30
0.0
 11
1144.744255734755
 21
-424.2629334503794
 31
0.0
  0
LINE
  5
4F4
330
4F0
100
AcDbEntity
  8
____1
  6
Continuous
 62
     5
100
AcDbLine
 10
1139.794255734755
 20
-415.6892819529133
 30
0.0
 11
1144.744255734755
 21
-424.2629334503794
 31
0.0
  0
LINE
  5
4F5
330
4F0
100
AcDbEntity
  8
____1
  6
Continuous
 62
     5
100
AcDbLine
 10
1139.794255734755
 20
-415.6892819529133
 30
0.0
 11
1134.844255734755
 21
-424.2629334503794
 31
0.0
  0
ENDBLK
  5
4F6
330
4F0
100
AcDbEntity
  8
0
100
AcDbBlockEnd
  0
ENDSEC
  0
SECTION
  2
ENTITIES
  0
LWPOLYLINE
  5
89D
330
315
100
AcDbEntity
  8
DEFPOINTS
100
AcDbPolyline
 90
        4
 70
     1
 43
0.0
 10
1277.070639770741
 20
757.5523737985199
 10
435.0756397707435
 20
757.5523737985199
 10
435.0756397707435
 20
162.2023737985198
 10
1277.070639770741
 20
162.2023737985198
  0
LINE
  5
8A2
330
315
100
AcDbEntity
  8
____1
  6
Continuous
 62
     0
100
AcDbLine
 10
1079.557068998659
 20
703.0639573005266
 30
0.0
 11
1089.457068998659
 21
703.0639573005266
 31
0.0
  0
LINE
  5
8A3
330
315
100
AcDbEntity
  8
____1
  6
Continuous
 62
     0
100
AcDbLine
 10
1084.507068998659
 20
711.6376087979926
 30
0.0
 11
1079.557068998659
 21
703.0639573005266
 31
0.0
  0
LINE
  5
8A4
330
315
100
AcDbEntity
  8
____1
  6
Continuous
 62
     0
100
AcDbLine
 10
1084.507068998659
 20
711.6376087979926
 30
0.0
 11
1089.457068998659
 21
703.0639573005266
 31
0.0
  0
TEXT
  5
8A5
330
315
100
AcDbEntity
  8
____1
  6
Continuous
 62
     0
100
AcDbText
 10
1083.043747179425
 20
704.1639059286425
 30
0.0
 40
4.682630310058594
  1
3
  7
STYLE1
100
AcDbText
  0
TEXT
  5
8A6
330
315
100
AcDbEntity
  8
____1
  6
Continuous
 62
     0
100
AcDbText
 10
1104.492306755302
 20
704.72281073972
 30
0.0
 40
4.93888874053955
  1
H25.03
  7
STYLE1
100
AcDbText
  0
LINE
  5
8A7
330
315
100
AcDbEntity
  8
____1
  6
Continuous
 62
     0
100
AcDbLine
 10
1075.075639770744
 20
702.20237379852
 30
0.0
 11
1255.075639770743
 21
702.20237379852
 31
0.0
  0
TEXT
  5
8A8
330
315
100
AcDbEntity
  8
____1
  6
Continuous
 62
     0
100
AcDbText
 10
1139.740875733549
 20
704.72281073972
 30
0.0
 40
4.93888874053955
  1
ﾈｼﾞ仕様変更（木ﾈｼﾞ ⇒ 皿ﾀｯﾋﾟﾝﾈｼﾞ）
  7
STYLE1
100
AcDbText
  0
TEXT
  5
8A9
330
315
100
AcDbEntity
  8
____1
  6
Continuous
 62
     0
100
AcDbText
 10
1083.043747179425
 20
714.1639059286424
 30
0.0
 40
4.682630310058594
  1
2
  7
STYLE1
100
AcDbText
  0
LINE
  5
8AA
330
315
100
AcDbEntity
  8
____1
  6
Continuous
 62
     0
100
AcDbLine
 10
1079.557068998659
 20
713.0639573005264
 30
0.0
 11
1089.457068998659
 21
713.0639573005264
 31
0.0
  0
LINE
  5
8AB
330
315
100
AcDbEntity
  8
____1
  6
Continuous
 62
     0
100
AcDbLine
 10
1084.507068998659
 20
721.6376087979925
 30
0.0
 11
1089.457068998659
 21
713.0639573005264
 31
0.0
  0
LINE
  5
8AC
330
315
100
AcDbEntity
  8
____1
  6
Continuous
 62
     0
100
AcDbLine
 10
1084.507068998659
 20
721.6376087979925
 30
0.0
 11
1079.557068998659
 21
713.0639573005264
 31
0.0
  0
LINE
  5
8AD
330
315
100
AcDbEntity
  8
____1
  6
Continuous
 62
     0
100
AcDbLine
 10
1084.507068998659
 20
731.6376087979923
 30
0.0
 11
1079.557068998659
 21
723.0639573005263
 31
0.0
  0
LINE
  5
8AE
330
315
100
AcDbEntity
  8
____1
  6
Continuous
 62
     0
100
AcDbLine
 10
1084.507068998659
 20
731.6376087979923
 30
0.0
 11
1089.457068998659
 21
723.0639573005263
 31
0.0
  0
LINE
  5
8AF
330
315
100
AcDbEntity
  8
____1
  6
Continuous
 62
     0
100
AcDbLine
 10
1079.557068998659
 20
723.0639573005263
 30
0.0
 11
1089.457068998659
 21
723.0639573005263
 31
0.0
  0
TEXT
  5
8B0
330
315
100
AcDbEntity
  8
____1
  6
Continuous
 62
     0
100
AcDbText
 10
1083.043747179426
 20
724.1639059286422
 30
0.0
 40
4.682630310058594
  1
1
  7
STYLE1
100
AcDbText
  0
TEXT
  5
8BD
330
315
100
AcDbEntity
  8
____1
  6
Continuous
 62
     0
100
AcDbText
 10
1104.492306755302
 20
714.7228107397198
 30
0.0
 40
4.93888874053955
  1
H22.12
  7
STYLE1
100
AcDbText
  0
TEXT
  5
8BE
330
315
100
AcDbEntity
  8
____1
  6
Continuous
 62
     0
100
AcDbText
 10
1156.270086334464
 20
714.7228107397198
 30
0.0
 40
4.93888874053955
  1
品番変更　LY637→LY837
  7
STYLE1
100
AcDbText
  0
TEXT
  5
8C0
330
315
100
AcDbEntity
  8
____1
  6
Continuous
 62
     0
100
AcDbText
 10
1145.686752365348
 20
724.7228107397197
 30
0.0
 40
4.93888874053955
  1
色変更アイボリー → ホワイト
  7
STYLE1
100
AcDbText
  0
TEXT
  5
8C1
330
315
100
AcDbEntity
  8
____1
  6
Continuous
 62
     0
100
AcDbText
 10
1170.38119702172
 20
734.6519617383941
 30
0.0
 40
4.93888874053955
  1
改　訂　内　容
  7
STYLE1
100
AcDbText
  0
LINE
  5
8C2
330
315
100
AcDbEntity
  8
____1
  6
Continuous
 62
     0
100
AcDbLine
 10
1135.075639770744
 20
692.2023737985202
 30
0.0
 11
1135.075639770744
 21
742.2023737985198
 31
0.0
  0
LINE
  5
8C3
330
315
100
AcDbEntity
  8
____1
  6
Continuous
 62
     0
100
AcDbLine
 10
1135.075639770744
 20
712.2023737985199
 30
0.0
 11
1135.075639770744
 21
742.2023737985198
 31
0.0
  0
LINE
  5
8C4
330
315
100
AcDbEntity
  8
____1
  6
Continuous
 62
     0
100
AcDbLine
 10
1095.075639770744
 20
692.2023737985202
 30
0.0
 11
1095.075639770744
 21
742.2023737985198
 31
0.0
  0
LINE
  5
8C5
330
315
100
AcDbEntity
  8
____1
  6
Continuous
 62
     0
100
AcDbLine
 10
1075.075639770744
 20
692.2023737985202
 30
0.0
 11
1075.075639770744
 21
742.2023737985198
 31
0.0
  0
LINE
  5
8C6
330
315
100
AcDbEntity
  8
____1
  6
Continuous
 62
     0
100
AcDbLine
 10
1084.507068998659
 20
741.5376087979922
 30
0.0
 11
1079.557068998659
 21
732.9639573005264
 31
0.0
  0
LINE
  5
8C7
330
315
100
AcDbEntity
  8
____1
  6
Continuous
 62
     0
100
AcDbLine
 10
1084.507068998659
 20
741.5376087979922
 30
0.0
 11
1089.457068998659
 21
732.9639573005264
 31
0.0
  0
LINE
  5
8C8
330
315
100
AcDbEntity
  8
____1
  6
Continuous
 62
     0
100
AcDbLine
 10
1079.557068998659
 20
732.9639573005264
 30
0.0
 11
1089.457068998659
 21
732.9639573005264
 31
0.0
  0
TEXT
  5
8C9
330
315
100
AcDbEntity
  8
____1
  6
Continuous
 62
     0
100
AcDbText
 10
1104.492306755302
 20
724.7228107397197
 30
0.0
 40
4.93888874053955
  1
H22.11
  7
STYLE1
100
AcDbText
  0
LINE
  5
8CA
330
315
100
AcDbEntity
  8
____1
  6
Continuous
 62
     0
100
AcDbLine
 10
1075.075639770744
 20
722.2023737985198
 30
0.0
 11
1255.075639770743
 21
722.2023737985198
 31
0.0
  0
LINE
  5
8CB
330
315
100
AcDbEntity
  8
____1
  6
Continuous
 62
     0
100
AcDbLine
 10
1075.075639770744
 20
732.2023737985198
 30
0.0
 11
1255.075639770743
 21
732.2023737985198
 31
0.0
  0
LINE
  5
8CC
330
315
100
AcDbEntity
  8
____1
  6
Continuous
 62
     0
100
AcDbLine
 10
1075.075639770744
 20
712.2023737985199
 30
0.0
 11
1255.075639770743
 21
712.2023737985199
 31
0.0
  0
TEXT
  5
8CD
330
315
100
AcDbEntity
  8
____1
  6
Continuous
 62
     0
100
AcDbText
 10
1104.492306755302
 20
734.6519617383941
 30
0.0
 40
4.93888874053955
  1
改訂日
  7
STYLE1
100
AcDbText
  0
POLYLINE
  5
8CE
330
315
100
AcDbEntity
  8
____1
  6
Continuous
 62
     0
100
AcDb3dPolyline
 66
     1
 10
0.0
 20
0.0
 30
0.0
 70
     8
  0
VERTEX
  5
8CF
330
8CE
100
AcDbEntity
  8
____1
 62
     0
100
AcDbVertex
100
AcDb3dPolylineVertex
 10
1061.451419679692
 20
194.5255349461817
 30
0.0
 70
    32
  0
VERTEX
  5
8D0
330
8CE
100
AcDbEntity
  8
____1
 62
     0
100
AcDbVertex
100
AcDb3dPolylineVertex
 10
1062.829806507963
 20
193.2653689228768
 30
0.0
 70
    32
  0
VERTEX
  5
8D1
330
8CE
100
AcDbEntity
  8
____1
 62
     0
100
AcDbVertex
100
AcDb3dPolylineVertex
 10
1064.230730532774
 20
192.046875369133
 30
0.0
 70
    32
  0
VERTEX
  5
8D2
330
8CE
100
AcDbEntity
  8
____1
 62
     0
100
AcDbVertex
100
AcDb3dPolylineVertex
 10
1065.676728950661
 20
190.9117267545111
 30
0.0
 70
    32
  0
VERTEX
  5
8D3
330
8CE
100
AcDbEntity
  8
____1
 62
     0
100
AcDbVertex
100
AcDb3dPolylineVertex
 10
1067.190338958165
 20
189.9015955485723
 30
0.0
 70
    32
  0
VERTEX
  5
8D4
330
8CE
100
AcDbEntity
  8
____1
 62
     0
100
AcDbVertex
100
AcDb3dPolylineVertex
 10
1067.190338962082
 20
189.9015955462201
 30
0.0
 70
    32
  0
SEQEND
  5
8D5
330
8CE
100
AcDbEntity
  8
____1
 62
     0
  0
LINE
  5
8D6
330
315
100
AcDbEntity
  8
____1
  6
Continuous
 62
     7
100
AcDbLine
 10
960.0756397707439
 20
215.2023737985199
 30
0.0
 11
1030.075639770743
 21
215.2023737985199
 31
0.0
  0
TEXT
  5
8D7
330
315
100
AcDbEntity
  8
____1
  6
Continuous
 62
     7
100
AcDbText
 10
955.0756397707433
 20
218.1564798310931
 30
0.0
 40
5.644444274902344
  1
 設計　　 岸本
  7
STYLE1
100
AcDbText
  0
TEXT
  5
8D8
330
315
100
AcDbEntity
  8
____1
  6
Continuous
 62
     7
100
AcDbText
 10
955.0756397707433
 20
207.1564798310931
 30
0.0
 40
5.644444274902344
  1
 製図　　 岸本
  7
STYLE1
100
AcDbText
  0
TEXT
  5
8D9
330
315
100
AcDbEntity
  8
____1
  6
Continuous
 62
     7
100
AcDbText
 10
957.1860029879974
 20
240.1564798310931
 30
0.0
 40
5.644444274902344
  1
 日　　付
  7
STYLE1
100
AcDbText
  0
TEXT
  5
8DA
330
315
100
AcDbEntity
  8
____1
  6
Continuous
 62
     7
100
AcDbText
 10
1117.308983444383
 20
240.1553276779343
 30
0.0
 40
5.644444274902344
  1
型番
  7
STYLE1
100
AcDbText
  0
TEXT
  5
8DB
330
315
100
AcDbEntity
  8
____1
  6
Continuous
 62
     7
100
AcDbText
 10
1117.308983444383
 20
218.1553276779343
 30
0.0
 40
5.644444274902344
  1
品名
  7
STYLE1
100
AcDbText
  0
TEXT
  5
8DC
330
315
100
AcDbEntity
  8
____1
  6
Continuous
 62
     7
100
AcDbText
 10
1117.308983444383
 20
196.1553276779343
 30
0.0
 40
5.644444274902344
  1
図番
  7
STYLE1
100
AcDbText
  0
LINE
  5
8DD
330
315
100
AcDbEntity
  8
____1
  6
Continuous
 62
     5
100
AcDbLine
 10
455.0756397707435
 20
182.2023737985199
 30
0.0
 11
455.0756397707435
 21
742.2023737985198
 31
0.0
  0
ARC
  5
8DE
330
315
100
AcDbEntity
  8
____1
  6
Continuous
 62
     0
100
AcDbCircle
 10
1063.755419679692
 20
196.33843837331
 30
0.0
 40
7.29600000000006
100
AcDbArc
 50
331.3992813832578
 51
358.4920422457636
  0
LINE
  5
8DF
330
315
100
AcDbEntity
  8
____1
  6
Continuous
 62
     0
100
AcDbLine
 10
1053.463056043329
 20
192.8824383733101
 30
0.0
 11
1056.343056043329
 21
192.8824383733101
 31
0.0
  0
ARC
  5
8E0
330
315
100
AcDbEntity
  8
____1
  6
Continuous
 62
     0
100
AcDbCircle
 10
1066.251419679692
 20
196.72243837331
 30
0.0
 40
10.56000000000012
100
AcDbArc
 50
270.0
 51
302.5449588540466
  0
LINE
  5
8E1
330
315
100
AcDbEntity
  8
____1
  6
Continuous
 62
     0
100
AcDbLine
 10
1056.343056043329
 20
195.7624383733101
 30
0.0
 11
1053.463056043329
 21
195.7624383733101
 31
0.0
  0
LINE
  5
8E2
330
315
100
AcDbEntity
  8
____1
  6
Continuous
 62
     0
100
AcDbLine
 10
1053.463056043329
 20
195.7624383733101
 30
0.0
 11
1053.463056043329
 21
196.72243837331
 31
0.0
  0
LINE
  5
8E3
330
315
100
AcDbEntity
  8
____1
  6
Continuous
 62
     0
100
AcDbLine
 10
1082.988986364397
 20
196.33843837331
 30
0.0
 11
1087.786426364397
 21
196.33843837331
 31
0.0
  0
LINE
  5
8E4
330
315
100
AcDbEntity
  8
____1
  6
Continuous
 62
     0
100
AcDbLine
 10
1092.943360967571
 20
197.315197843007
 30
0.0
 11
1094.508986364397
 21
199.6024383733101
 31
0.0
  0
LINE
  5
8E5
330
315
100
AcDbEntity
  8
____1
  6
Continuous
 62
     0
100
AcDbLine
 10
1040.023056043329
 20
192.8824383733101
 30
0.0
 11
1040.023056043329
 21
190.0024383733101
 31
0.0
  0
LINE
  5
8E6
330
315
100
AcDbEntity
  8
____1
  6
Continuous
 62
     7
100
AcDbLine
 10
960.0756397707439
 20
237.2023737985199
 30
0.0
 11
990.0756397707437
 21
237.2023737985199
 31
0.0
  0
LINE
  5
8E7
330
315
100
AcDbEntity
  8
____1
  6
Continuous
 62
     7
100
AcDbLine
 10
1000.075639770743
 20
237.2023737985199
 30
0.0
 11
1030.075639770743
 21
237.2023737985199
 31
0.0
  0
LINE
  5
8E8
330
315
100
AcDbEntity
  8
____1
  6
Continuous
 62
     7
100
AcDbLine
 10
1040.075639770743
 20
237.2023737985199
 30
0.0
 11
1070.075639770743
 21
237.2023737985199
 31
0.0
  0
LINE
  5
8E9
330
315
100
AcDbEntity
  8
____1
  6
Continuous
 62
     7
100
AcDbLine
 10
1040.075639770743
 20
215.2023737985199
 30
0.0
 11
1070.075639770743
 21
215.2023737985199
 31
0.0
  0
LINE
  5
8EA
330
315
100
AcDbEntity
  8
____1
  6
Continuous
 62
     7
100
AcDbLine
 10
995.0756397707433
 20
248.2023737985199
 30
0.0
 11
995.0756397707433
 21
226.2023737985199
 31
0.0
  0
LINE
  5
8EB
330
315
100
AcDbEntity
  8
____1
  6
Continuous
 62
     0
100
AcDbLine
 10
1093.224437928002
 20
196.33843837331
 30
0.0
 11
1092.943360967571
 21
197.315197843007
 31
0.0
  0
LINE
  5
8EC
330
315
100
AcDbEntity
  8
____1
  6
Continuous
 62
     0
100
AcDbLine
 10
1078.731419679692
 20
199.6024383733101
 30
0.0
 11
1061.451419679692
 21
199.6024383733101
 31
0.0
  0
POLYLINE
  5
8ED
330
315
100
AcDbEntity
  8
____1
  6
Continuous
 62
     0
100
AcDb3dPolyline
 66
     1
 10
0.0
 20
0.0
 30
0.0
 70
     8
  0
VERTEX
  5
8EE
330
8ED
100
AcDbEntity
  8
____1
 62
     0
100
AcDbVertex
100
AcDb3dPolylineVertex
 10
1074.2858848809
 20
189.957300415237
 30
0.0
 70
    32
  0
VERTEX
  5
8EF
330
8ED
100
AcDbEntity
  8
____1
 62
     0
100
AcDbVertex
100
AcDb3dPolylineVertex
 10
1075.367004972256
 20
189.679862373725
 30
0.0
 70
    32
  0
VERTEX
  5
8F0
330
8ED
100
AcDbEntity
  8
____1
 62
     0
100
AcDbVertex
100
AcDb3dPolylineVertex
 10
1076.474065299334
 20
189.4441865016677
 30
0.0
 70
    32
  0
VERTEX
  5
8F1
330
8ED
100
AcDbEntity
  8
____1
 62
     0
100
AcDbVertex
100
AcDb3dPolylineVertex
 10
1078.731419679692
 20
189.0424383733101
 30
0.0
 70
    32
  0
SEQEND
  5
8F2
330
8ED
100
AcDbEntity
  8
____1
 62
     0
  0
POLYLINE
  5
8F3
330
315
100
AcDbEntity
  8
____1
  6
Continuous
 62
     0
100
AcDb3dPolyline
 66
     1
 10
0.0
 20
0.0
 30
0.0
 70
     8
  0
VERTEX
  5
8F4
330
8F3
100
AcDbEntity
  8
____1
 62
     0
100
AcDbVertex
100
AcDb3dPolylineVertex
 10
1068.04530366379
 20
194.0578706438434
 30
0.0
 70
    32
  0
VERTEX
  5
8F5
330
8F3
100
AcDbEntity
  8
____1
 62
     0
100
AcDbVertex
100
AcDb3dPolylineVertex
 10
1068.855484613264
 20
193.1697468810582
 30
0.0
 70
    32
  0
VERTEX
  5
8F6
330
8F3
100
AcDbEntity
  8
____1
 62
     0
100
AcDbVertex
100
AcDb3dPolylineVertex
 10
1069.699195715602
 20
192.3356045832353
 30
0.0
 70
    32
  0
SEQEND
  5
8F7
330
8F3
100
AcDbEntity
  8
____1
 62
     0
  0
POLYLINE
  5
8F8
330
315
100
AcDbEntity
  8
____1
  6
Continuous
 62
     0
100
AcDb3dPolyline
 66
     1
 10
0.0
 20
0.0
 30
0.0
 70
     8
  0
VERTEX
  5
8F9
330
8F8
100
AcDbEntity
  8
____1
 62
     0
100
AcDbVertex
100
AcDb3dPolylineVertex
 10
1071.932290324365
 20
187.8206796303145
 30
0.0
 70
    32
  0
VERTEX
  5
8FA
330
8F8
100
AcDbEntity
  8
____1
 62
     0
100
AcDbVertex
100
AcDb3dPolylineVertex
 10
1073.593027043749
 20
187.3339218985582
 30
0.0
 70
    32
  0
VERTEX
  5
8FB
330
8F8
100
AcDbEntity
  8
____1
 62
     0
100
AcDbVertex
100
AcDb3dPolylineVertex
 10
1075.287231436946
 20
186.9090476675205
 30
0.0
 70
    32
  0
VERTEX
  5
8FC
330
8F8
100
AcDbEntity
  8
____1
 62
     0
100
AcDbVertex
100
AcDb3dPolylineVertex
 10
1078.731419679692
 20
186.1624383733101
 30
0.0
 70
    32
  0
SEQEND
  5
8FD
330
8F8
100
AcDbEntity
  8
____1
 62
     0
  0
LINE
  5
8FE
330
315
100
AcDbEntity
  8
____1
  6
Continuous
 62
     0
100
AcDbLine
 10
1076.811419679692
 20
196.72243837331
 30
0.0
 11
1078.731419679692
 21
199.6024383733101
 31
0.0
  0
LINE
  5
8FF
330
315
100
AcDbEntity
  8
____1
  6
Continuous
 62
     0
100
AcDbLine
 10
1061.451419679692
 20
189.0424383733101
 30
0.0
 11
1061.451419679692
 21
186.1624383733101
 31
0.0
  0
LINE
  5
900
330
315
100
AcDbEntity
  8
____1
  6
Continuous
 62
     0
100
AcDbLine
 10
1061.451419679692
 20
189.0424383733101
 30
0.0
 11
1063.755419679692
 21
189.0424383733101
 31
0.0
  0
LINE
  5
901
330
315
100
AcDbEntity
  8
____1
  6
Continuous
 62
     0
100
AcDbLine
 10
1086.828986364396
 20
199.6024383733101
 30
0.0
 11
1094.508986364397
 21
199.6024383733101
 31
0.0
  0
LINE
  5
902
330
315
100
AcDbEntity
  8
____1
  6
Continuous
 62
     0
100
AcDbLine
 10
1040.023056043329
 20
195.7624383733101
 30
0.0
 11
1037.812936725147
 21
195.7624383733101
 31
0.0
  0
LINE
  5
903
330
315
100
AcDbEntity
  8
____1
  6
Continuous
 62
     0
100
AcDbLine
 10
1100.268986364396
 20
191.34643837331
 30
0.0
 11
1100.268986364396
 21
187.8904383733101
 31
0.0
  0
LINE
  5
904
330
315
100
AcDbEntity
  8
____1
  6
Continuous
 62
     0
100
AcDbLine
 10
1078.731419679692
 20
189.0424383733101
 30
0.0
 11
1078.731419679692
 21
186.1624383733101
 31
0.0
  0
LINE
  5
905
330
315
100
AcDbEntity
  8
____1
  6
Continuous
 62
     0
100
AcDbLine
 10
1040.023056043329
 20
192.8824383733101
 30
0.0
 11
1039.732936725147
 21
192.8824383733101
 31
0.0
  0
LINE
  5
906
330
315
100
AcDbEntity
  8
____1
  6
Continuous
 62
     0
100
AcDbLine
 10
1040.023056043329
 20
189.0424383733101
 30
0.0
 11
1040.023056043329
 21
186.1624383733101
 31
0.0
  0
LINE
  5
907
330
315
100
AcDbEntity
  8
____1
  6
Continuous
 62
     0
100
AcDbLine
 10
1061.451419679692
 20
186.1624383733101
 30
0.0
 11
1061.451419679692
 21
189.0424383733101
 31
0.0
  0
LINE
  5
908
330
315
100
AcDbEntity
  8
____1
  6
Continuous
 62
     0
100
AcDbLine
 10
1044.823056043329
 20
192.8824383733101
 30
0.0
 11
1048.663056043329
 21
192.8824383733101
 31
0.0
  0
LINE
  5
909
330
315
100
AcDbEntity
  8
____1
  6
Continuous
 62
     0
100
AcDbLine
 10
1096.428986364396
 20
185.2024383733101
 30
0.0
 11
1095.655474672852
 21
187.8904383733101
 31
0.0
  0
LINE
  5
90A
330
315
100
AcDbEntity
  8
____1
  6
Continuous
 62
     0
100
AcDbLine
 10
1037.812936725147
 20
192.8824383733101
 30
0.0
 11
1039.732936725147
 21
192.8824383733101
 31
0.0
  0
LINE
  5
90B
330
315
100
AcDbEntity
  8
____1
  6
Continuous
 62
     0
100
AcDbLine
 10
1082.988986364397
 20
191.34643837331
 30
0.0
 11
1089.250746364397
 21
191.34643837331
 31
0.0
  0
LINE
  5
90C
330
315
100
AcDbEntity
  8
____1
  6
Continuous
 62
     5
100
AcDbLine
 10
955.0756397707433
 20
182.2023737985199
 30
0.0
 11
455.0756397707435
 21
182.2023737985199
 31
0.0
  0
LINE
  5
90D
330
315
100
AcDbEntity
  8
____1
  6
Continuous
 62
     5
100
AcDbLine
 10
1255.075639770743
 20
742.2023737985198
 30
0.0
 11
455.0756397707433
 21
742.2023737985198
 31
0.0
  0
LINE
  5
90E
330
315
100
AcDbEntity
  8
____1
  6
Continuous
 62
     5
100
AcDbLine
 10
1255.075639770743
 20
248.2023737985199
 30
0.0
 11
1255.075639770743
 21
742.2023737985198
 31
0.0
  0
LINE
  5
90F
330
315
100
AcDbEntity
  8
____1
  6
Continuous
 62
     0
100
AcDbLine
 10
1094.660959640868
 20
191.34643837331
 30
0.0
 11
1094.218952959986
 21
192.8824383733101
 31
0.0
  0
LINE
  5
910
330
315
100
AcDbEntity
  8
____1
  6
Continuous
 62
     0
100
AcDbLine
 10
1091.052986364396
 20
185.2024383733101
 30
0.0
 11
1090.264506364397
 21
187.8904383733101
 31
0.0
  0
LINE
  5
911
330
315
100
AcDbEntity
  8
____1
  6
Continuous
 62
     0
100
AcDbLine
 10
1045.783056043329
 20
189.0424383733101
 30
0.0
 11
1040.023056043329
 21
189.0424383733101
 31
0.0
  0
LINE
  5
912
330
315
100
AcDbEntity
  8
____1
  6
Continuous
 62
     0
100
AcDbLine
 10
1061.451419679692
 20
196.14643837331
 30
0.0
 11
1071.051419679692
 21
196.14643837331
 31
0.0
  0
LINE
  5
913
330
315
100
AcDbEntity
  8
____1
  6
Continuous
 62
     0
100
AcDbLine
 10
1100.268986364396
 20
196.33843837331
 30
0.0
 11
1100.268986364396
 21
192.8824383733101
 31
0.0
  0
LINE
  5
914
330
315
100
AcDbEntity
  8
____1
  6
Continuous
 62
     0
100
AcDbLine
 10
1082.988986364397
 20
192.8824383733101
 30
0.0
 11
1088.800186364397
 21
192.8824383733101
 31
0.0
  0
LINE
  5
915
330
315
100
AcDbEntity
  8
____1
  6
Continuous
 62
     0
100
AcDbLine
 10
1082.988986364397
 20
191.34643837331
 30
0.0
 11
1082.988986364397
 21
187.8904383733101
 31
0.0
  0
LINE
  5
916
330
315
100
AcDbEntity
  8
____1
  6
Continuous
 62
     0
100
AcDbLine
 10
1044.823056043329
 20
190.0024383733101
 30
0.0
 11
1044.823056043329
 21
192.8824383733101
 31
0.0
  0
LINE
  5
917
330
315
100
AcDbEntity
  8
____1
  6
Continuous
 62
     0
100
AcDbLine
 10
1048.663056043329
 20
195.7624383733101
 30
0.0
 11
1044.823056043329
 21
195.7624383733101
 31
0.0
  0
LINE
  5
918
330
315
100
AcDbEntity
  8
____1
  6
Continuous
 62
     0
100
AcDbLine
 10
1047.703056043329
 20
199.6024383733101
 30
0.0
 11
1040.023056043329
 21
199.6024383733101
 31
0.0
  0
LINE
  5
919
330
315
100
AcDbEntity
  8
____1
  6
Continuous
 62
     0
100
AcDbLine
 10
1044.823056043329
 20
196.72243837331
 30
0.0
 11
1047.703056043329
 21
199.6024383733101
 31
0.0
  0
LINE
  5
91A
330
315
100
AcDbEntity
  8
____1
  6
Continuous
 62
     0
100
AcDbLine
 10
1040.023056043329
 20
199.6024383733101
 30
0.0
 11
1040.023056043329
 21
195.7624383733101
 31
0.0
  0
LINE
  5
91B
330
315
100
AcDbEntity
  8
____1
  6
Continuous
 62
     0
100
AcDbLine
 10
1095.655474672852
 20
187.8904383733101
 30
0.0
 11
1100.268986364396
 21
187.8904383733101
 31
0.0
  0
LINE
  5
91C
330
315
100
AcDbEntity
  8
____1
  6
Continuous
 62
     0
100
AcDbLine
 10
1087.786426364397
 20
196.33843837331
 30
0.0
 11
1086.828986364396
 21
199.6024383733101
 31
0.0
  0
LINE
  5
91D
330
315
100
AcDbEntity
  8
____1
  6
Continuous
 62
     0
100
AcDbLine
 10
1093.224437928002
 20
196.33843837331
 30
0.0
 11
1100.268986364396
 21
196.33843837331
 31
0.0
  0
LINE
  5
91E
330
315
100
AcDbEntity
  8
____1
  6
Continuous
 62
     7
100
AcDbLine
 10
1035.075639770743
 20
226.2023737985199
 30
0.0
 11
1035.075639770743
 21
204.2023737985199
 31
0.0
  0
LINE
  5
91F
330
315
100
AcDbEntity
  8
____1
  6
Continuous
 62
     7
100
AcDbLine
 10
955.0756397707433
 20
248.2023737985199
 30
0.0
 11
955.0756397707433
 21
182.2023737985199
 31
0.0
  0
TEXT
  5
923
330
315
100
AcDbEntity
  8
____1
  6
Continuous
 62
     7
100
AcDbText
 10
1145.76464727414
 20
212.1745969008635
 30
0.0
 40
6.773332977294922
  1
カウンターブラケット
  7
STYLE1
100
AcDbText
  0
LINE
  5
924
330
315
100
AcDbEntity
  8
____1
  6
Continuous
 62
     0
100
AcDbLine
 10
1040.023056043329
 20
190.0024383733101
 30
0.0
 11
1044.823056043329
 21
190.0024383733101
 31
0.0
  0
LINE
  5
925
330
315
100
AcDbEntity
  8
____1
  6
Continuous
 62
     0
100
AcDbLine
 10
1053.463056043329
 20
196.72243837331
 30
0.0
 11
1056.343056043329
 21
199.6024383733101
 31
0.0
  0
LINE
  5
926
330
315
100
AcDbEntity
  8
____1
  6
Continuous
 62
     0
100
AcDbLine
 10
1089.250746364397
 20
191.34643837331
 30
0.0
 11
1088.800186364397
 21
192.8824383733101
 31
0.0
  0
LINE
  5
927
330
315
100
AcDbEntity
  8
____1
  6
Continuous
 62
     0
100
AcDbLine
 10
1044.823056043329
 20
195.7624383733101
 30
0.0
 11
1044.823056043329
 21
196.72243837331
 31
0.0
  0
LINE
  5
928
330
315
100
AcDbEntity
  8
____1
  6
Continuous
 62
     0
100
AcDbLine
 10
1074.6278408357
 20
190.2921064520809
 30
0.0
 11
1074.285884880899
 21
189.957300415237
 31
0.0
  0
LINE
  5
929
330
315
100
AcDbEntity
  8
____1
  6
Continuous
 62
     0
100
AcDbLine
 10
1076.811419679692
 20
196.72243837331
 30
0.0
 11
1078.731419679692
 21
199.6024383733101
 31
0.0
  0
LINE
  5
92A
330
315
100
AcDbEntity
  8
____1
  6
Continuous
 62
     0
100
AcDbLine
 10
1094.218952959986
 20
192.8824383733101
 30
0.0
 11
1100.268986364396
 21
192.8824383733101
 31
0.0
  0
LINE
  5
92B
330
315
100
AcDbEntity
  8
____1
  6
Continuous
 62
     0
100
AcDbLine
 10
1061.451419679692
 20
186.1624383733101
 30
0.0
 11
1066.251419679692
 21
186.1624383733101
 31
0.0
  0
LINE
  5
92C
330
315
100
AcDbEntity
  8
____1
  6
Continuous
 62
     0
100
AcDbLine
 10
1048.663056043329
 20
199.6024383733101
 30
0.0
 11
1048.663056043329
 21
195.7624383733101
 31
0.0
  0
LINE
  5
92D
330
315
100
AcDbEntity
  8
____1
  6
Continuous
 62
     5
100
AcDbLine
 10
955.0756397707433
 20
182.2023737985199
 30
0.0
 11
1255.075639770743
 21
182.2023737985199
 31
0.0
  0
LINE
  5
92E
330
315
100
AcDbEntity
  8
____1
  6
Continuous
 62
     0
100
AcDbLine
 10
1070.16113966373
 20
192.8458222354989
 30
0.0
 11
1069.699195715602
 21
192.3356045832354
 31
0.0
  0
LINE
  5
92F
330
315
100
AcDbEntity
  8
____1
  6
Continuous
 62
     0
100
AcDbLine
 10
1061.451419679692
 20
195.1439866597458
 30
0.0
 11
1069.131419679692
 21
195.1439866597458
 31
0.0
  0
ARC
  5
930
330
315
100
AcDbEntity
  8
____1
  6
Continuous
 62
     0
100
AcDbCircle
 10
1063.755419679692
 20
196.33843837331
 30
0.0
 40
7.295999999999981
100
AcDbArc
 50
270.0
 51
298.0859048152069
  0
LINE
  5
931
330
315
100
AcDbEntity
  8
____1
  6
Continuous
 62
     0
100
AcDbLine
 10
1069.131419679692
 20
195.1439866597458
 30
0.0
 11
1068.04530366379
 21
194.0578706438434
 31
0.0
  0
LINE
  5
932
330
315
100
AcDbEntity
  8
____1
  6
Continuous
 62
     0
100
AcDbLine
 10
1061.451419679692
 20
194.5255349461817
 30
0.0
 11
1061.451419679692
 21
195.1439866597458
 31
0.0
  0
LINE
  5
933
330
315
100
AcDbEntity
  8
____1
  6
Continuous
 62
     0
100
AcDbLine
 10
1037.812936725147
 20
195.7624383733101
 30
0.0
 11
1037.812936725147
 21
192.8824383733101
 31
0.0
  0
LINE
  5
934
330
315
100
AcDbEntity
  8
____1
  6
Continuous
 62
     0
100
AcDbLine
 10
1056.343056043329
 20
195.7624383733101
 30
0.0
 11
1056.343056043329
 21
192.8824383733101
 31
0.0
  0
LINE
  5
935
330
315
100
AcDbEntity
  8
____1
  6
Continuous
 62
     0
100
AcDbLine
 10
1056.343056043329
 20
199.6024383733101
 30
0.0
 11
1048.663056043329
 21
199.6024383733101
 31
0.0
  0
LINE
  5
936
330
315
100
AcDbEntity
  8
____1
  6
Continuous
 62
     0
100
AcDbLine
 10
1061.451419679692
 20
199.6024383733101
 30
0.0
 11
1061.451419679692
 21
196.14643837331
 31
0.0
  0
LINE
  5
937
330
315
100
AcDbEntity
  8
____1
  6
Continuous
 62
     5
100
AcDbLine
 10
1255.075639770743
 20
182.2023737985199
 30
0.0
 11
1255.075639770743
 21
248.2023737985199
 31
0.0
  0
ARC
  5
938
330
315
100
AcDbEntity
  8
____1
  6
Continuous
 62
     0
100
AcDbCircle
 10
1047.703056043329
 20
191.92243837331
 30
0.0
 40
5.76
100
AcDbArc
 50
270.0
 51
0.0
  0
LINE
  5
939
330
315
100
AcDbEntity
  8
____1
  6
Continuous
 62
     0
100
AcDbLine
 10
1094.660959640868
 20
191.34643837331
 30
0.0
 11
1100.268986364396
 21
191.34643837331
 31
0.0
  0
ARC
  5
93A
330
315
100
AcDbEntity
  8
____1
  6
Continuous
 62
     0
100
AcDbCircle
 10
1066.251419679692
 20
196.72243837331
 30
0.0
 40
10.56
100
AcDbArc
 50
322.4876119796974
 51
0.0
  0
LINE
  5
93B
330
315
100
AcDbEntity
  8
____1
  6
Continuous
 62
     0
100
AcDbLine
 10
1040.023056043329
 20
186.1624383733101
 30
0.0
 11
1047.703056043329
 21
186.1624383733101
 31
0.0
  0
LINE
  5
93C
330
315
100
AcDbEntity
  8
____1
  6
Continuous
 62
     0
100
AcDbLine
 10
1082.988986364397
 20
187.8904383733101
 30
0.0
 11
1090.264506364397
 21
187.8904383733101
 31
0.0
  0
ARC
  5
93D
330
315
100
AcDbEntity
  8
____1
  6
Continuous
 62
     0
100
AcDbCircle
 10
1045.783056043329
 20
191.92243837331
 30
0.0
 40
2.88
100
AcDbArc
 50
270.0
 51
0.0
  0
LINE
  5
93E
330
315
100
AcDbEntity
  8
____1
  6
Continuous
 62
     0
100
AcDbLine
 10
1053.463056043329
 20
191.92243837331
 30
0.0
 11
1053.463056043329
 21
192.8824383733101
 31
0.0
  0
LINE
  5
93F
330
315
100
AcDbEntity
  8
____1
  6
Continuous
 62
     7
100
AcDbLine
 10
1255.075639770743
 20
248.2023737985199
 30
0.0
 11
955.0756397707433
 21
248.2023737985199
 31
0.0
  0
LINE
  5
940
330
315
100
AcDbEntity
  8
____1
  6
Continuous
 62
     7
100
AcDbLine
 10
1115.075639770743
 20
248.2023737985199
 30
0.0
 11
1115.075639770743
 21
182.2023737985199
 31
0.0
  0
LINE
  5
941
330
315
100
AcDbEntity
  8
____1
  6
Continuous
 62
     7
100
AcDbLine
 10
1075.075639770743
 20
248.2023737985199
 30
0.0
 11
1075.075639770743
 21
204.2023737985199
 31
0.0
  0
LINE
  5
942
330
315
100
AcDbEntity
  8
____1
  6
Continuous
 62
     7
100
AcDbLine
 10
1035.075639770743
 20
248.2023737985199
 30
0.0
 11
1035.075639770743
 21
226.2023737985199
 31
0.0
  0
LINE
  5
943
330
315
100
AcDbEntity
  8
____1
  6
Continuous
 62
     7
100
AcDbLine
 10
955.0756397707433
 20
204.2023737985199
 30
0.0
 11
1255.075639770743
 21
204.2023737985199
 31
0.0
  0
TEXT
  5
944
330
315
100
AcDbEntity
  8
____1
  6
Continuous
 62
     7
100
AcDbText
 10
979.0944983208808
 20
187.3666129332825
 30
0.0
 40
10.15999984741211
  1
株式会社
  7
STYLE1
100
AcDbText
  0
LINE
  5
945
330
315
100
AcDbEntity
  8
____1
  6
Continuous
 62
     0
100
AcDbLine
 10
1082.988986364397
 20
196.33843837331
 30
0.0
 11
1082.988986364397
 21
192.8824383733101
 31
0.0
  0
TEXT
  5
946
330
315
100
AcDbEntity
  8
____1
  6
Continuous
 62
     7
100
AcDbText
 10
1077.186002987997
 20
240.1564798310931
 30
0.0
 40
5.644444274902344
  1
 検　　印
  7
STYLE1
100
AcDbText
  0
LINE
  5
947
330
315
100
AcDbEntity
  8
____1
  6
Continuous
 62
     7
100
AcDbLine
 10
1075.075639770743
 20
237.2023737985199
 30
0.0
 11
1115.075639770743
 21
237.2023737985199
 31
0.0
  0
LINE
  5
948
330
315
100
AcDbEntity
  8
____1
  6
Continuous
 62
     7
100
AcDbLine
 10
1115.075639770743
 20
226.2023737985199
 30
0.0
 11
1255.075639770743
 21
226.2023737985199
 31
0.0
  0
LINE
  5
949
330
315
100
AcDbEntity
  8
____1
  6
Continuous
 62
     7
100
AcDbLine
 10
955.0756397707433
 20
226.2023737985199
 30
0.0
 11
1075.075639770743
 21
226.2023737985199
 31
0.0
  0
TEXT
  5
94A
330
315
100
AcDbEntity
  8
____1
  6
Continuous
 62
     7
100
AcDbText
 10
1037.186002987997
 20
218.1564798310931
 30
0.0
 40
5.644444274902344
  1
 尺　　度
  7
STYLE1
100
AcDbText
  0
TEXT
  5
94B
330
315
100
AcDbEntity
  8
____1
  6
Continuous
 62
     7
100
AcDbText
 10
1048.020084427115
 20
207.1421451436978
 30
0.0
 40
5.644444274902344
  1
1：2
  7
STYLE1
100
AcDbText
  0
TEXT
  5
94C
330
315
100
AcDbEntity
  8
____1
  6
Continuous
 62
     7
100
AcDbText
 10
1037.186002987997
 20
240.1564798310931
 30
0.0
 40
5.644444274902344
  1
 板　　厚
  7
STYLE1
100
AcDbText
  0
TEXT
  5
94D
330
315
100
AcDbEntity
  8
____1
  6
Continuous
 62
     7
100
AcDbText
 10
997.1860029879975
 20
240.1564798310931
 30
0.0
 40
5.644444274902344
  1
 材　　質
  7
STYLE1
100
AcDbText
  0
TEXT
  5
94E
330
315
100
AcDbEntity
  8
____1
  6
Continuous
 62
     7
100
AcDbText
 10
1048.020084427115
 20
229.1421451436979
 30
0.0
 40
5.644444274902344
  1
4.5t
  7
STYLE1
100
AcDbText
  0
TEXT
  5
94F
330
315
100
AcDbEntity
  8
____1
  6
Continuous
 62
     7
100
AcDbText
 10
1011.547861145255
 20
229.1421451436979
 30
0.0
 40
5.644444274902344
  1
鉄
  7
STYLE1
100
AcDbText
  0
TEXT
  5
950
330
315
100
AcDbEntity
  8
____1
  6
Continuous
 62
     7
100
AcDbText
 10
966.2561951143713
 20
229.1421451436979
 30
0.0
 40
5.644444274902344
  1
H14.5
  7
STYLE1
100
AcDbText
  0
LINE
  5
951
330
315
100
AcDbEntity
  8
____1
  6
Continuous
 62
     0
100
AcDbLine
 10
1096.428986364396
 20
185.2024383733101
 30
0.0
 11
1091.052986364396
 21
185.2024383733101
 31
0.0
  0
LINE
  5
952
330
315
100
AcDbEntity
  8
____1
  6
Continuous
 62
     0
100
AcDbLine
 10
1048.663056043329
 20
192.8824383733101
 30
0.0
 11
1048.663056043329
 21
191.92243837331
 31
0.0
  0
TEXT
  5
A93
330
315
100
AcDbEntity
  8
寸法線_1
  6
Continuous
 62
     7
100
AcDbText
 10
1005.72794867903
 20
570.7695093167636
 30
0.0
 40
7.055555343627932
  1
32
 50
60.79857855050077
  7
STYLE1
100
AcDbText
  0
LINE
  5
A94
330
315
100
AcDbEntity
  8
寸法線_1
  6
Continuous
 62
     7
100
AcDbLine
 10
1017.108740415173
 20
586.9731867544841
 30
0.0
 11
1009.220163221772
 21
572.859062079792
 31
0.0
  0
SOLID
  5
A95
330
315
100
AcDbEntity
  8
寸法線_1
  6
Continuous
 62
     7
100
AcDbTrace
 10
1013.415151434592
 20
583.0450918728179
 30
0.0
 11
1016.044063795489
 21
583.0450918728179
 31
0.0
 12
1017.108740415173
 22
586.9731867544841
 32
0.0
 13
1017.108740415173
 23
586.9731867544841
 33
0.0
  0
SOLID
  5
A96
330
315
100
AcDbEntity
  8
寸法線_1
  6
Continuous
 62
     7
100
AcDbTrace
 10
1015.076687213293
 20
582.4675488851969
 30
0.0
 11
1015.887525693862
 21
582.4675488851969
 31
0.0
 12
1014.91327449637
 22
583.0450918728179
 32
0.0
 13
1016.044063795489
 23
583.0450918728179
 33
0.0
  0
SOLID
  5
A97
330
315
100
AcDbEntity
  8
寸法線_1
  6
Continuous
 62
     7
100
AcDbTrace
 10
1012.87208756288
 20
582.4675488851969
 30
0.0
 11
1012.87208756288
 21
582.4675488851969
 31
0.0
 12
1013.415151434592
 22
583.0450918728179
 32
0.0
 13
1014.91327449637
 23
583.0450918728179
 33
0.0
  0
SOLID
  5
A98
330
315
100
AcDbEntity
  8
寸法線_1
  6
Continuous
 62
     7
100
AcDbTrace
 10
1015.490817483991
 20
581.0039049393281
 30
0.0
 11
1015.490817483991
 21
581.0039049393281
 31
0.0
 12
1015.076687213293
 22
582.4675488851969
 32
0.0
 13
1015.887525693862
 23
582.4675488851969
 33
0.0
  0
LINE
  5
A99
330
315
100
AcDbEntity
  8
寸法線_1
  6
Continuous
 62
     7
100
AcDbLine
 10
1001.496538325905
 20
559.0400675959682
 30
0.0
 11
1009.220163221772
 21
572.859062079792
 31
0.0
  0
SOLID
  5
A9A
330
315
100
AcDbEntity
  8
寸法線_1
  6
Continuous
 62
     7
100
AcDbTrace
 10
1002.717753047216
 20
563.5457054652555
 30
0.0
 11
1003.528591527785
 21
563.5457054652555
 31
0.0
 12
1003.114461257088
 22
565.0093494111245
 32
0.0
 13
1003.114461257088
 23
565.0093494111245
 33
0.0
  0
SOLID
  5
A9B
330
315
100
AcDbEntity
  8
寸法線_1
  6
Continuous
 62
     7
100
AcDbTrace
 10
1003.692004244708
 20
562.9681624776345
 30
0.0
 11
1005.190127306487
 21
562.9681624776345
 31
0.0
 12
1005.733191178198
 22
563.5457054652555
 32
0.0
 13
1005.733191178198
 23
563.5457054652555
 33
0.0
  0
SOLID
  5
A9C
330
315
100
AcDbEntity
  8
寸法線_1
  6
Continuous
 62
     7
100
AcDbTrace
 10
1002.56121494559
 20
562.9681624776345
 30
0.0
 11
1003.692004244708
 21
562.9681624776345
 31
0.0
 12
1002.717753047216
 22
563.5457054652555
 32
0.0
 13
1003.528591527785
 23
563.5457054652555
 33
0.0
  0
SOLID
  5
A9D
330
315
100
AcDbEntity
  8
寸法線_1
  6
Continuous
 62
     7
100
AcDbTrace
 10
1001.496538325905
 20
559.0400675959682
 30
0.0
 11
1001.496538325905
 21
559.0400675959682
 31
0.0
 12
1002.56121494559
 22
562.9681624776345
 32
0.0
 13
1005.190127306487
 23
562.9681624776345
 33
0.0
  0
LINE
  5
A9E
330
315
100
AcDbEntity
  8
寸法線_1
  6
Continuous
 62
     7
100
AcDbLine
 10
1007.836313483063
 20
555.4966806081999
 30
0.0
 11
1001.060083339053
 21
559.284008253613
 31
0.0
  0
LINE
  5
A9F
330
315
100
AcDbEntity
  8
寸法線_1
  6
Continuous
 62
     7
100
AcDbLine
 10
1023.448515572331
 20
583.4297997667159
 30
0.0
 11
1016.672285428322
 21
587.2171274121289
 31
0.0
  0
TEXT
  5
AA0
330
315
100
AcDbEntity
  8
寸法線_1
  6
Continuous
 62
     7
100
AcDbText
 10
1121.93812550274
 20
635.2076625029755
 30
0.0
 40
7.055555343627929
  1
90ﾟ
 50
313.0092353436513
  7
STYLE1
100
AcDbText
  0
LINE
  5
AA1
330
315
100
AcDbEntity
  8
寸法線_1
  6
Continuous
 62
     7
100
AcDbLine
 10
658.624620594607
 20
654.2639610193146
 30
0.0
 11
1117.369209491176
 21
654.2639610193146
 31
0.0
  0
LINE
  5
AA2
330
315
100
AcDbEntity
  8
寸法線_1
  6
Continuous
 62
     7
100
AcDbLine
 10
1150.124620594606
 20
412.7639610193145
 30
0.0
 11
1150.124620594606
 21
621.508549915884
 31
0.0
  0
SOLID
  5
AA3
330
315
100
AcDbEntity
  8
寸法線_1
  6
Continuous
 62
     7
100
AcDbTrace
 10
1112.691458389063
 20
649.7841779292897
 30
0.0
 11
1114.952891049846
 21
649.7841779292897
 31
0.0
 12
1113.369209491176
 22
654.2639610193146
 32
0.0
 13
1113.369209491176
 23
654.2639610193146
 33
0.0
  0
SOLID
  5
AA4
330
315
100
AcDbEntity
  8
寸法線_1
  6
Continuous
 62
     7
100
AcDbTrace
 10
1115.43057609248
 20
648.4329432921052
 30
0.0
 11
1115.43057609248
 21
648.4329432921052
 31
0.0
 12
1113.795288669648
 22
649.7841779292897
 32
0.0
 13
1114.952891049846
 23
649.7841779292897
 33
0.0
  0
SOLID
  5
AA5
330
315
100
AcDbEntity
  8
寸法線_1
  6
Continuous
 62
     7
100
AcDbTrace
 10
1112.487028677588
 20
648.4329432921052
 30
0.0
 11
1112.678766265553
 21
648.4329432921052
 31
0.0
 12
1112.691458389063
 22
649.7841779292897
 32
0.0
 13
1113.795288669648
 23
649.7841779292897
 33
0.0
  0
SOLID
  5
AA6
330
315
100
AcDbEntity
  8
寸法線_1
  6
Continuous
 62
     7
100
AcDbTrace
 10
1112.444054032463
 20
648.1488905064574
 30
0.0
 11
1112.444054032463
 21
648.1488905064574
 31
0.0
 12
1112.487028677588
 22
648.4329432921052
 32
0.0
 13
1112.678766265553
 23
648.4329432921052
 33
0.0
  0
ARC
  5
AA7
330
315
100
AcDbEntity
  8
寸法線_1
  6
Continuous
 62
     7
100
AcDbCircle
 10
1150.124620594606
 20
654.2639610193146
 30
0.0
 40
36.75541110343056
100
AcDbArc
 50
180.0
 51
236.020648485997
  0
SOLID
  5
AA8
330
315
100
AcDbEntity
  8
寸法線_1
  6
Continuous
 62
     7
100
AcDbTrace
 10
1145.644837504582
 20
617.9346290943556
 30
0.0
 11
1148.919364216973
 21
617.9346290943556
 31
0.0
 12
1144.293602867398
 22
619.5699165171877
 32
0.0
 13
1144.293602867398
 23
619.5699165171877
 33
0.0
  0
SOLID
  5
AA9
330
315
100
AcDbEntity
  8
寸法線_1
  6
Continuous
 62
     7
100
AcDbTrace
 10
1145.129189146768
 20
617.508549915884
 30
0.0
 11
1150.124620594606
 21
617.508549915884
 31
0.0
 12
1145.644837504582
 22
617.9346290943556
 32
0.0
 13
1148.919364216973
 23
617.9346290943556
 33
0.0
  0
SOLID
  5
AAA
330
315
100
AcDbEntity
  8
寸法線_1
  6
Continuous
 62
     7
100
AcDbTrace
 10
1144.009550081749
 20
616.5833944571711
 30
0.0
 11
1144.009550081749
 21
616.5833944571711
 31
0.0
 12
1145.129189146768
 22
617.508549915884
 32
0.0
 13
1150.124620594606
 23
617.508549915884
 33
0.0
  0
ARC
  5
AAB
330
315
100
AcDbEntity
  8
寸法線_1
  6
Continuous
 62
     7
100
AcDbCircle
 10
1150.124620594606
 20
654.2639610193146
 30
0.0
 40
36.75541110343065
100
AcDbArc
 50
209.9978222013059
 51
270.0
  0
TEXT
  5
AAC
330
315
100
AcDbEntity
  8
寸法線_1
  6
Continuous
 62
     7
100
AcDbText
 10
1187.563718793283
 20
514.3611838243376
 30
0.0
 40
7.055555343627929
  1
250（壁側）
 50
90.0
  7
STYLE1
100
AcDbText
  0
LINE
  5
AAD
330
315
100
AcDbEntity
  8
寸法線_1
  6
Continuous
 62
     7
100
AcDbLine
 10
1189.592653947562
 20
408.7639610193145
 30
0.0
 11
1189.592653947562
 21
533.7639610193145
 31
0.0
  0
SOLID
  5
AAE
330
315
100
AcDbEntity
  8
寸法線_1
  6
Continuous
 62
     7
100
AcDbTrace
 10
1189.592653947562
 20
413.2639610193145
 30
0.0
 11
1190.717653947563
 21
413.2639610193145
 31
0.0
 12
1191.092653947563
 22
414.7639610193144
 32
0.0
 13
1191.092653947563
 23
414.7639610193144
 33
0.0
  0
SOLID
  5
AAF
330
315
100
AcDbEntity
  8
寸法線_1
  6
Continuous
 62
     7
100
AcDbTrace
 10
1188.467653947562
 20
413.2639610193145
 30
0.0
 11
1189.592653947562
 21
413.2639610193145
 31
0.0
 12
1188.092653947562
 22
414.7639610193144
 32
0.0
 13
1188.092653947562
 23
414.7639610193144
 33
0.0
  0
SOLID
  5
AB0
330
315
100
AcDbEntity
  8
寸法線_1
  6
Continuous
 62
     7
100
AcDbTrace
 10
1189.592653947562
 20
408.7639610193145
 30
0.0
 11
1189.592653947562
 21
408.7639610193145
 31
0.0
 12
1188.467653947562
 22
413.2639610193145
 32
0.0
 13
1190.717653947563
 23
413.2639610193145
 33
0.0
  0
LINE
  5
AB1
330
315
100
AcDbEntity
  8
寸法線_1
  6
Continuous
 62
     7
100
AcDbLine
 10
1189.592653947562
 20
658.7639610193146
 30
0.0
 11
1189.592653947562
 21
533.7639610193145
 31
0.0
  0
SOLID
  5
AB2
330
315
100
AcDbEntity
  8
寸法線_1
  6
Continuous
 62
     7
100
AcDbTrace
 10
1188.467653947562
 20
654.2639610193146
 30
0.0
 11
1190.717653947563
 21
654.2639610193146
 31
0.0
 12
1189.592653947562
 22
658.7639610193146
 32
0.0
 13
1189.592653947562
 23
658.7639610193146
 33
0.0
  0
SOLID
  5
AB3
330
315
100
AcDbEntity
  8
寸法線_1
  6
Continuous
 62
     7
100
AcDbTrace
 10
1191.092653947563
 20
652.7639610193146
 30
0.0
 11
1191.092653947563
 21
652.7639610193146
 31
0.0
 12
1189.592653947562
 22
654.2639610193146
 32
0.0
 13
1190.717653947563
 23
654.2639610193146
 33
0.0
  0
SOLID
  5
AB4
330
315
100
AcDbEntity
  8
寸法線_1
  6
Continuous
 62
     7
100
AcDbTrace
 10
1188.092653947562
 20
652.7639610193146
 30
0.0
 11
1188.092653947562
 21
652.7639610193146
 31
0.0
 12
1188.467653947562
 22
654.2639610193146
 32
0.0
 13
1189.592653947562
 23
654.2639610193146
 33
0.0
  0
LINE
  5
AB5
330
315
100
AcDbEntity
  8
寸法線_1
  6
Continuous
 62
     7
100
AcDbLine
 10
1151.124620594607
 20
658.7639610193146
 30
0.0
 11
1190.092653947562
 21
658.7639610193146
 31
0.0
  0
LINE
  5
AB6
330
315
100
AcDbEntity
  8
寸法線_1
  6
Continuous
 62
     7
100
AcDbLine
 10
1156.053225315061
 20
408.7639610193145
 30
0.0
 11
1190.092653947562
 21
408.7639610193145
 31
0.0
  0
TEXT
  5
AB7
330
315
100
AcDbEntity
  8
寸法線_1
  6
Continuous
 62
     7
100
AcDbText
 10
1197.176327801439
 20
346.0875705588325
 30
0.0
 40
7.055555343627929
  1
10
 50
90.0
  7
STYLE1
100
AcDbText
  0
LINE
  5
AB8
330
315
100
AcDbEntity
  8
寸法線_1
  6
Continuous
 62
     7
100
AcDbLine
 10
1199.205262955718
 20
345.6682128139791
 30
0.0
 11
1199.205262955718
 21
342.6682128139792
 31
0.0
  0
SOLID
  5
AB9
330
315
100
AcDbEntity
  8
寸法線_1
  6
Continuous
 62
     7
100
AcDbTrace
 10
1198.080262955718
 20
341.1682128139791
 30
0.0
 11
1200.330262955718
 21
341.1682128139791
 31
0.0
 12
1199.205262955718
 22
345.6682128139791
 32
0.0
 13
1199.205262955718
 23
345.6682128139791
 33
0.0
  0
SOLID
  5
ABA
330
315
100
AcDbEntity
  8
寸法線_1
  6
Continuous
 62
     7
100
AcDbTrace
 10
1200.705262955718
 20
339.6682128139791
 30
0.0
 11
1200.705262955718
 21
339.6682128139791
 31
0.0
 12
1199.205262955718
 22
341.1682128139791
 32
0.0
 13
1200.330262955718
 23
341.1682128139791
 33
0.0
  0
SOLID
  5
ABB
330
315
100
AcDbEntity
  8
寸法線_1
  6
Continuous
 62
     7
100
AcDbTrace
 10
1197.705262955718
 20
339.6682128139791
 30
0.0
 11
1197.705262955718
 21
339.6682128139791
 31
0.0
 12
1198.080262955718
 22
341.1682128139791
 32
0.0
 13
1199.205262955718
 23
341.1682128139791
 33
0.0
  0
LINE
  5
ABC
330
315
100
AcDbEntity
  8
寸法線_1
  6
Continuous
 62
     7
100
AcDbLine
 10
1199.205262955718
 20
355.6682128139791
 30
0.0
 11
1199.205262955718
 21
358.668212813979
 31
0.0
  0
SOLID
  5
ABD
330
315
100
AcDbEntity
  8
寸法線_1
  6
Continuous
 62
     7
100
AcDbTrace
 10
1199.205262955718
 20
360.1682128139791
 30
0.0
 11
1200.330262955718
 21
360.1682128139791
 31
0.0
 12
1200.705262955718
 22
361.668212813979
 32
0.0
 13
1200.705262955718
 23
361.668212813979
 33
0.0
  0
SOLID
  5
ABE
330
315
100
AcDbEntity
  8
寸法線_1
  6
Continuous
 62
     7
100
AcDbTrace
 10
1198.080262955718
 20
360.1682128139791
 30
0.0
 11
1199.205262955718
 21
360.1682128139791
 31
0.0
 12
1197.705262955718
 22
361.668212813979
 32
0.0
 13
1197.705262955718
 23
361.668212813979
 33
0.0
  0
SOLID
  5
ABF
330
315
100
AcDbEntity
  8
寸法線_1
  6
Continuous
 62
     7
100
AcDbTrace
 10
1199.205262955718
 20
355.6682128139791
 30
0.0
 11
1199.205262955718
 21
355.6682128139791
 31
0.0
 12
1198.080262955718
 22
360.1682128139791
 32
0.0
 13
1200.330262955718
 23
360.1682128139791
 33
0.0
  0
LINE
  5
AC0
330
315
100
AcDbEntity
  8
寸法線_1
  6
Continuous
 62
     7
100
AcDbLine
 10
1155.624620594607
 20
355.6682128139791
 30
0.0
 11
1199.705262955719
 21
355.6682128139791
 31
0.0
  0
LINE
  5
AC1
330
315
100
AcDbEntity
  8
寸法線_1
  6
Continuous
 62
     7
100
AcDbLine
 10
1093.124620594607
 20
345.6682128139791
 30
0.0
 11
1199.705262955719
 21
345.6682128139791
 31
0.0
  0
LINE
  5
AC2
330
315
100
AcDbEntity
  8
寸法線_1
  6
Continuous
 62
     7
100
AcDbLine
 10
1199.205262955718
 20
355.6682128139791
 30
0.0
 11
1199.205262955718
 21
345.6682128139791
 31
0.0
  0
TEXT
  5
AC3
330
315
100
AcDbEntity
  8
寸法線_1
  6
Continuous
 62
     7
100
AcDbText
 10
1197.176328140523
 20
327.1404351421652
 30
0.0
 40
7.055555343627929
  1
30
 50
90.0
  7
STYLE1
100
AcDbText
  0
LINE
  5
AC4
330
315
100
AcDbEntity
  8
寸法線_1
  6
Continuous
 62
     7
100
AcDbLine
 10
1199.205263294802
 20
315.6682128139792
 30
0.0
 11
1199.205263294802
 21
330.6682128139792
 31
0.0
  0
SOLID
  5
AC5
330
315
100
AcDbEntity
  8
寸法線_1
  6
Continuous
 62
     7
100
AcDbTrace
 10
1199.205263294802
 20
320.1682128139792
 30
0.0
 11
1200.330263294802
 21
320.1682128139792
 31
0.0
 12
1200.705263294802
 22
321.6682128139792
 32
0.0
 13
1200.705263294802
 23
321.6682128139792
 33
0.0
  0
SOLID
  5
AC6
330
315
100
AcDbEntity
  8
寸法線_1
  6
Continuous
 62
     7
100
AcDbTrace
 10
1198.080263294802
 20
320.1682128139792
 30
0.0
 11
1199.205263294802
 21
320.1682128139792
 31
0.0
 12
1197.705263294802
 22
321.6682128139792
 32
0.0
 13
1197.705263294802
 23
321.6682128139792
 33
0.0
  0
SOLID
  5
AC7
330
315
100
AcDbEntity
  8
寸法線_1
  6
Continuous
 62
     7
100
AcDbTrace
 10
1199.205263294802
 20
315.6682128139792
 30
0.0
 11
1199.205263294802
 21
315.6682128139792
 31
0.0
 12
1198.080263294802
 22
320.1682128139792
 32
0.0
 13
1200.330263294802
 23
320.1682128139792
 33
0.0
  0
LINE
  5
AC8
330
315
100
AcDbEntity
  8
寸法線_1
  6
Continuous
 62
     7
100
AcDbLine
 10
1199.205263294802
 20
345.6682128139791
 30
0.0
 11
1199.205263294802
 21
330.6682128139792
 31
0.0
  0
SOLID
  5
AC9
330
315
100
AcDbEntity
  8
寸法線_1
  6
Continuous
 62
     7
100
AcDbTrace
 10
1198.080263294802
 20
341.1682128139791
 30
0.0
 11
1200.330263294802
 21
341.1682128139791
 31
0.0
 12
1199.205263294802
 22
345.6682128139791
 32
0.0
 13
1199.205263294802
 23
345.6682128139791
 33
0.0
  0
SOLID
  5
ACA
330
315
100
AcDbEntity
  8
寸法線_1
  6
Continuous
 62
     7
100
AcDbTrace
 10
1200.705263294802
 20
339.6682128139791
 30
0.0
 11
1200.705263294802
 21
339.6682128139791
 31
0.0
 12
1199.205263294802
 22
341.1682128139791
 32
0.0
 13
1200.330263294802
 23
341.1682128139791
 33
0.0
  0
SOLID
  5
ACB
330
315
100
AcDbEntity
  8
寸法線_1
  6
Continuous
 62
     7
100
AcDbTrace
 10
1197.705263294802
 20
339.6682128139791
 30
0.0
 11
1197.705263294802
 21
339.6682128139791
 31
0.0
 12
1198.080263294802
 22
341.1682128139791
 32
0.0
 13
1199.205263294802
 23
341.1682128139791
 33
0.0
  0
LINE
  5
ACC
330
315
100
AcDbEntity
  8
寸法線_1
  6
Continuous
 62
     7
100
AcDbLine
 10
1093.124620594607
 20
345.6682128139791
 30
0.0
 11
1199.705263294802
 21
345.6682128139791
 31
0.0
  0
LINE
  5
ACD
330
315
100
AcDbEntity
  8
寸法線_1
  6
Continuous
 62
     7
100
AcDbLine
 10
958.1246205946078
 20
315.6682128139792
 30
0.0
 11
1199.705263294802
 21
315.6682128139792
 31
0.0
  0
TEXT
  5
ACE
330
315
100
AcDbEntity
  8
寸法線_1
  6
Continuous
 62
     7
100
AcDbText
 10
1210.758272245883
 20
327.1404351421652
 30
0.0
 40
7.055555343627929
  1
50
 50
90.0
  7
STYLE1
100
AcDbText
  0
LINE
  5
ACF
330
315
100
AcDbEntity
  8
寸法線_1
  6
Continuous
 62
     7
100
AcDbLine
 10
1212.787207400162
 20
305.6682128139792
 30
0.0
 11
1212.787207400162
 21
330.6682128139792
 31
0.0
  0
SOLID
  5
AD0
330
315
100
AcDbEntity
  8
寸法線_1
  6
Continuous
 62
     7
100
AcDbTrace
 10
1212.787207400162
 20
310.1682128139791
 30
0.0
 11
1213.912207400162
 21
310.1682128139791
 31
0.0
 12
1214.287207400162
 22
311.6682128139792
 32
0.0
 13
1214.287207400162
 23
311.6682128139792
 33
0.0
  0
SOLID
  5
AD1
330
315
100
AcDbEntity
  8
寸法線_1
  6
Continuous
 62
     7
100
AcDbTrace
 10
1211.662207400162
 20
310.1682128139791
 30
0.0
 11
1212.787207400162
 21
310.1682128139791
 31
0.0
 12
1211.287207400162
 22
311.6682128139792
 32
0.0
 13
1211.287207400162
 23
311.6682128139792
 33
0.0
  0
SOLID
  5
AD2
330
315
100
AcDbEntity
  8
寸法線_1
  6
Continuous
 62
     7
100
AcDbTrace
 10
1212.787207400162
 20
305.6682128139792
 30
0.0
 11
1212.787207400162
 21
305.6682128139792
 31
0.0
 12
1211.662207400162
 22
310.1682128139791
 32
0.0
 13
1213.912207400162
 23
310.1682128139791
 33
0.0
  0
LINE
  5
AD3
330
315
100
AcDbEntity
  8
寸法線_1
  6
Continuous
 62
     7
100
AcDbLine
 10
1212.787207400162
 20
355.6682128139791
 30
0.0
 11
1212.787207400162
 21
330.6682128139792
 31
0.0
  0
SOLID
  5
AD4
330
315
100
AcDbEntity
  8
寸法線_1
  6
Continuous
 62
     7
100
AcDbTrace
 10
1211.662207400162
 20
351.168212813979
 30
0.0
 11
1213.912207400162
 21
351.168212813979
 31
0.0
 12
1212.787207400162
 22
355.6682128139791
 32
0.0
 13
1212.787207400162
 23
355.6682128139791
 33
0.0
  0
SOLID
  5
AD5
330
315
100
AcDbEntity
  8
寸法線_1
  6
Continuous
 62
     7
100
AcDbTrace
 10
1214.287207400162
 20
349.6682128139791
 30
0.0
 11
1214.287207400162
 21
349.6682128139791
 31
0.0
 12
1212.787207400162
 22
351.168212813979
 32
0.0
 13
1213.912207400162
 23
351.168212813979
 33
0.0
  0
SOLID
  5
AD6
330
315
100
AcDbEntity
  8
寸法線_1
  6
Continuous
 62
     7
100
AcDbTrace
 10
1211.287207400162
 20
349.6682128139791
 30
0.0
 11
1211.287207400162
 21
349.6682128139791
 31
0.0
 12
1211.662207400162
 22
351.168212813979
 32
0.0
 13
1212.787207400162
 23
351.168212813979
 33
0.0
  0
LINE
  5
AD7
330
315
100
AcDbEntity
  8
寸法線_1
  6
Continuous
 62
     7
100
AcDbLine
 10
1155.624620594607
 20
355.6682128139791
 30
0.0
 11
1213.287207400162
 21
355.6682128139791
 31
0.0
  0
LINE
  5
AD8
330
315
100
AcDbEntity
  8
寸法線_1
  6
Continuous
 62
     7
100
AcDbLine
 10
1155.624620594607
 20
305.6682128139792
 30
0.0
 11
1213.287207400162
 21
305.6682128139792
 31
0.0
  0
TEXT
  5
AD9
330
315
100
AcDbEntity
  8
寸法線_1
  6
Continuous
 62
     7
100
AcDbText
 10
1197.176328417955
 20
307.1404351421652
 30
0.0
 40
7.055555343627929
  1
10
 50
90.0
  7
STYLE1
100
AcDbText
  0
LINE
  5
ADA
330
315
100
AcDbEntity
  8
寸法線_1
  6
Continuous
 62
     7
100
AcDbLine
 10
1199.205263572235
 20
305.6682128139792
 30
0.0
 11
1199.205263572235
 21
302.6682128139792
 31
0.0
  0
SOLID
  5
ADB
330
315
100
AcDbEntity
  8
寸法線_1
  6
Continuous
 62
     7
100
AcDbTrace
 10
1198.080263572235
 20
301.1682128139792
 30
0.0
 11
1200.330263572235
 21
301.1682128139792
 31
0.0
 12
1199.205263572235
 22
305.6682128139792
 32
0.0
 13
1199.205263572235
 23
305.6682128139792
 33
0.0
  0
SOLID
  5
ADC
330
315
100
AcDbEntity
  8
寸法線_1
  6
Continuous
 62
     7
100
AcDbTrace
 10
1200.705263572235
 20
299.6682128139791
 30
0.0
 11
1200.705263572235
 21
299.6682128139791
 31
0.0
 12
1199.205263572235
 22
301.1682128139792
 32
0.0
 13
1200.330263572235
 23
301.1682128139792
 33
0.0
  0
SOLID
  5
ADD
330
315
100
AcDbEntity
  8
寸法線_1
  6
Continuous
 62
     7
100
AcDbTrace
 10
1197.705263572235
 20
299.6682128139791
 30
0.0
 11
1197.705263572235
 21
299.6682128139791
 31
0.0
 12
1198.080263572235
 22
301.1682128139792
 32
0.0
 13
1199.205263572235
 23
301.1682128139792
 33
0.0
  0
LINE
  5
ADE
330
315
100
AcDbEntity
  8
寸法線_1
  6
Continuous
 62
     7
100
AcDbLine
 10
1199.205263572235
 20
315.6682128139792
 30
0.0
 11
1199.205263572235
 21
318.6682128139791
 31
0.0
  0
SOLID
  5
ADF
330
315
100
AcDbEntity
  8
寸法線_1
  6
Continuous
 62
     7
100
AcDbTrace
 10
1199.205263572235
 20
320.1682128139792
 30
0.0
 11
1200.330263572235
 21
320.1682128139792
 31
0.0
 12
1200.705263572235
 22
321.6682128139792
 32
0.0
 13
1200.705263572235
 23
321.6682128139792
 33
0.0
  0
SOLID
  5
AE0
330
315
100
AcDbEntity
  8
寸法線_1
  6
Continuous
 62
     7
100
AcDbTrace
 10
1198.080263572235
 20
320.1682128139792
 30
0.0
 11
1199.205263572235
 21
320.1682128139792
 31
0.0
 12
1197.705263572235
 22
321.6682128139792
 32
0.0
 13
1197.705263572235
 23
321.6682128139792
 33
0.0
  0
SOLID
  5
AE1
330
315
100
AcDbEntity
  8
寸法線_1
  6
Continuous
 62
     7
100
AcDbTrace
 10
1199.205263572235
 20
315.6682128139792
 30
0.0
 11
1199.205263572235
 21
315.6682128139792
 31
0.0
 12
1198.080263572235
 22
320.1682128139792
 32
0.0
 13
1200.330263572235
 23
320.1682128139792
 33
0.0
  0
LINE
  5
AE2
330
315
100
AcDbEntity
  8
寸法線_1
  6
Continuous
 62
     7
100
AcDbLine
 10
958.1246205946078
 20
315.6682128139792
 30
0.0
 11
1199.705263572234
 21
315.6682128139792
 31
0.0
  0
LINE
  5
AE3
330
315
100
AcDbEntity
  8
寸法線_1
  6
Continuous
 62
     7
100
AcDbLine
 10
1156.933107810516
 20
305.6682128139792
 30
0.0
 11
1199.705263572234
 21
305.6682128139792
 31
0.0
  0
LINE
  5
AE4
330
315
100
AcDbEntity
  8
寸法線_1
  6
Continuous
 62
     7
100
AcDbLine
 10
1199.205263572235
 20
315.6682128139792
 30
0.0
 11
1199.205263572235
 21
305.6682128139792
 31
0.0
  0
TEXT
  5
AE5
330
315
100
AcDbEntity
  8
寸法線_1
  6
Continuous
 62
     7
100
AcDbText
 10
1181.967197148751
 20
325.3765463062582
 30
0.0
 40
7.055555343627929
  1
4.5
 50
90.0
  7
STYLE1
100
AcDbText
  0
LINE
  5
AE6
330
315
100
AcDbEntity
  8
寸法線_1
  6
Continuous
 62
     7
100
AcDbLine
 10
1183.99613230303
 20
328.4182128139792
 30
0.0
 11
1183.99613230303
 21
325.4182128139792
 31
0.0
  0
SOLID
  5
AE7
330
315
100
AcDbEntity
  8
寸法線_1
  6
Continuous
 62
     7
100
AcDbTrace
 10
1182.87113230303
 20
323.9182128139792
 30
0.0
 11
1185.12113230303
 21
323.9182128139792
 31
0.0
 12
1183.99613230303
 22
328.4182128139792
 32
0.0
 13
1183.99613230303
 23
328.4182128139792
 33
0.0
  0
SOLID
  5
AE8
330
315
100
AcDbEntity
  8
寸法線_1
  6
Continuous
 62
     7
100
AcDbTrace
 10
1185.49613230303
 20
322.4182128139791
 30
0.0
 11
1185.49613230303
 21
322.4182128139791
 31
0.0
 12
1183.99613230303
 22
323.9182128139792
 32
0.0
 13
1185.12113230303
 23
323.9182128139792
 33
0.0
  0
SOLID
  5
AE9
330
315
100
AcDbEntity
  8
寸法線_1
  6
Continuous
 62
     7
100
AcDbTrace
 10
1182.49613230303
 20
322.4182128139791
 30
0.0
 11
1182.49613230303
 21
322.4182128139791
 31
0.0
 12
1182.87113230303
 22
323.9182128139792
 32
0.0
 13
1183.99613230303
 23
323.9182128139792
 33
0.0
  0
LINE
  5
AEA
330
315
100
AcDbEntity
  8
寸法線_1
  6
Continuous
 62
     7
100
AcDbLine
 10
1183.99613230303
 20
332.9182128139791
 30
0.0
 11
1183.99613230303
 21
335.9182128139792
 31
0.0
  0
SOLID
  5
AEB
330
315
100
AcDbEntity
  8
寸法線_1
  6
Continuous
 62
     7
100
AcDbTrace
 10
1183.99613230303
 20
337.4182128139791
 30
0.0
 11
1185.12113230303
 21
337.4182128139791
 31
0.0
 12
1185.49613230303
 22
338.9182128139792
 32
0.0
 13
1185.49613230303
 23
338.9182128139792
 33
0.0
  0
SOLID
  5
AEC
330
315
100
AcDbEntity
  8
寸法線_1
  6
Continuous
 62
     7
100
AcDbTrace
 10
1182.87113230303
 20
337.4182128139791
 30
0.0
 11
1183.99613230303
 21
337.4182128139791
 31
0.0
 12
1182.49613230303
 22
338.9182128139792
 32
0.0
 13
1182.49613230303
 23
338.9182128139792
 33
0.0
  0
SOLID
  5
AED
330
315
100
AcDbEntity
  8
寸法線_1
  6
Continuous
 62
     7
100
AcDbTrace
 10
1183.99613230303
 20
332.9182128139791
 30
0.0
 11
1183.99613230303
 21
332.9182128139791
 31
0.0
 12
1182.87113230303
 22
337.4182128139791
 32
0.0
 13
1185.12113230303
 23
337.4182128139791
 33
0.0
  0
LINE
  5
AEE
330
315
100
AcDbEntity
  8
寸法線_1
  6
Continuous
 62
     7
100
AcDbLine
 10
1151.124620594607
 20
332.9182128139791
 30
0.0
 11
1184.49613230303
 21
332.9182128139791
 31
0.0
  0
LINE
  5
AEF
330
315
100
AcDbEntity
  8
寸法線_1
  6
Continuous
 62
     7
100
AcDbLine
 10
1151.124620594607
 20
328.4182128139792
 30
0.0
 11
1184.49613230303
 21
328.4182128139792
 31
0.0
  0
LINE
  5
AF0
330
315
100
AcDbEntity
  8
寸法線_1
  6
Continuous
 62
     7
100
AcDbLine
 10
1183.99613230303
 20
332.9182128139791
 30
0.0
 11
1183.99613230303
 21
328.4182128139792
 31
0.0
  0
TEXT
  5
AF1
330
315
100
AcDbEntity
  8
寸法線_1
  6
Continuous
 62
     7
100
AcDbText
 10
874.3329540868865
 20
287.1485692784991
 30
0.0
 40
7.055555343627929
  1
140
  7
STYLE1
100
AcDbText
  0
LINE
  5
AF2
330
315
100
AcDbEntity
  8
寸法線_1
  6
Continuous
 62
     7
100
AcDbLine
 10
949.6246205946077
 20
285.11963412422
 30
0.0
 11
879.6246205946076
 21
285.11963412422
 31
0.0
  0
SOLID
  5
AF3
330
315
100
AcDbEntity
  8
寸法線_1
  6
Continuous
 62
     7
100
AcDbTrace
 10
945.1246205946077
 20
285.11963412422
 30
0.0
 11
949.6246205946077
 21
285.11963412422
 31
0.0
 12
943.6246205946076
 22
286.6196341242201
 32
0.0
 13
943.6246205946076
 23
286.6196341242201
 33
0.0
  0
SOLID
  5
AF4
330
315
100
AcDbEntity
  8
寸法線_1
  6
Continuous
 62
     7
100
AcDbTrace
 10
943.6246205946076
 20
283.61963412422
 30
0.0
 11
943.6246205946076
 21
283.61963412422
 31
0.0
 12
945.1246205946077
 22
285.11963412422
 32
0.0
 13
949.6246205946077
 23
285.11963412422
 33
0.0
  0
LINE
  5
AF5
330
315
100
AcDbEntity
  8
寸法線_1
  6
Continuous
 62
     7
100
AcDbLine
 10
809.6246205946076
 20
285.11963412422
 30
0.0
 11
879.6246205946076
 21
285.11963412422
 31
0.0
  0
SOLID
  5
AF6
330
315
100
AcDbEntity
  8
寸法線_1
  6
Continuous
 62
     7
100
AcDbTrace
 10
809.6246205946076
 20
285.11963412422
 30
0.0
 11
814.1246205946076
 21
285.11963412422
 31
0.0
 12
815.6246205946077
 22
286.6196341242201
 32
0.0
 13
815.6246205946077
 23
286.6196341242201
 33
0.0
  0
SOLID
  5
AF7
330
315
100
AcDbEntity
  8
寸法線_1
  6
Continuous
 62
     7
100
AcDbTrace
 10
815.6246205946077
 20
283.61963412422
 30
0.0
 11
815.6246205946077
 21
283.61963412422
 31
0.0
 12
809.6246205946076
 22
285.11963412422
 32
0.0
 13
814.1246205946076
 23
285.11963412422
 33
0.0
  0
LINE
  5
AF8
330
315
100
AcDbEntity
  8
寸法線_1
  6
Continuous
 62
     7
100
AcDbLine
 10
809.6246205946076
 20
337.1682128139791
 30
0.0
 11
809.6246205946076
 21
284.6196341242201
 31
0.0
  0
LINE
  5
AF9
330
315
100
AcDbEntity
  8
寸法線_1
  6
Continuous
 62
     7
100
AcDbLine
 10
949.6246205946077
 20
307.1682128139792
 30
0.0
 11
949.6246205946077
 21
284.6196341242201
 31
0.0
  0
TEXT
  5
AFA
330
315
100
AcDbEntity
  8
寸法線_1
  6
Continuous
 62
     7
100
AcDbText
 10
736.8329540868865
 20
287.1485692784991
 30
0.0
 40
7.055555343627929
  1
135
  7
STYLE1
100
AcDbText
  0
LINE
  5
AFB
330
315
100
AcDbEntity
  8
寸法線_1
  6
Continuous
 62
     7
100
AcDbLine
 10
809.6246205946076
 20
285.11963412422
 30
0.0
 11
742.1246205946077
 21
285.11963412422
 31
0.0
  0
SOLID
  5
AFC
330
315
100
AcDbEntity
  8
寸法線_1
  6
Continuous
 62
     7
100
AcDbTrace
 10
805.1246205946076
 20
285.11963412422
 30
0.0
 11
809.6246205946076
 21
285.11963412422
 31
0.0
 12
803.6246205946076
 22
286.6196341242201
 32
0.0
 13
803.6246205946076
 23
286.6196341242201
 33
0.0
  0
SOLID
  5
AFD
330
315
100
AcDbEntity
  8
寸法線_1
  6
Continuous
 62
     7
100
AcDbTrace
 10
803.6246205946076
 20
283.61963412422
 30
0.0
 11
803.6246205946076
 21
283.61963412422
 31
0.0
 12
805.1246205946076
 22
285.11963412422
 32
0.0
 13
809.6246205946076
 23
285.11963412422
 33
0.0
  0
LINE
  5
AFE
330
315
100
AcDbEntity
  8
寸法線_1
  6
Continuous
 62
     7
100
AcDbLine
 10
674.6246205946077
 20
285.11963412422
 30
0.0
 11
742.1246205946077
 21
285.11963412422
 31
0.0
  0
SOLID
  5
AFF
330
315
100
AcDbEntity
  8
寸法線_1
  6
Continuous
 62
     7
100
AcDbTrace
 10
674.6246205946077
 20
285.11963412422
 30
0.0
 11
679.1246205946077
 21
285.11963412422
 31
0.0
 12
680.6246205946076
 22
286.6196341242201
 32
0.0
 13
680.6246205946076
 23
286.6196341242201
 33
0.0
  0
SOLID
  5
B00
330
315
100
AcDbEntity
  8
寸法線_1
  6
Continuous
 62
     7
100
AcDbTrace
 10
680.6246205946076
 20
283.61963412422
 30
0.0
 11
680.6246205946076
 21
283.61963412422
 31
0.0
 12
674.6246205946077
 22
285.11963412422
 32
0.0
 13
679.1246205946077
 23
285.11963412422
 33
0.0
  0
LINE
  5
B01
330
315
100
AcDbEntity
  8
寸法線_1
  6
Continuous
 62
     7
100
AcDbLine
 10
674.6246205946077
 20
322.1682128139792
 30
0.0
 11
674.6246205946077
 21
284.6196341242201
 31
0.0
  0
LINE
  5
B02
330
315
100
AcDbEntity
  8
寸法線_1
  6
Continuous
 62
     7
100
AcDbLine
 10
809.6246205946076
 20
337.1682128139791
 30
0.0
 11
809.6246205946076
 21
284.6196341242201
 31
0.0
  0
TEXT
  5
B03
330
315
100
AcDbEntity
  8
寸法線_1
  6
Continuous
 62
     7
100
AcDbText
 10
1011.832954086886
 20
287.1485692784991
 30
0.0
 40
7.055555343627929
  1
135
  7
STYLE1
100
AcDbText
  0
LINE
  5
B04
330
315
100
AcDbEntity
  8
寸法線_1
  6
Continuous
 62
     7
100
AcDbLine
 10
1084.624620594607
 20
285.11963412422
 30
0.0
 11
1017.124620594607
 21
285.11963412422
 31
0.0
  0
SOLID
  5
B05
330
315
100
AcDbEntity
  8
寸法線_1
  6
Continuous
 62
     7
100
AcDbTrace
 10
1080.124620594608
 20
285.11963412422
 30
0.0
 11
1084.624620594607
 21
285.11963412422
 31
0.0
 12
1078.624620594607
 22
286.6196341242201
 32
0.0
 13
1078.624620594607
 23
286.6196341242201
 33
0.0
  0
SOLID
  5
B06
330
315
100
AcDbEntity
  8
寸法線_1
  6
Continuous
 62
     7
100
AcDbTrace
 10
1078.624620594607
 20
283.61963412422
 30
0.0
 11
1078.624620594607
 21
283.61963412422
 31
0.0
 12
1080.124620594608
 22
285.11963412422
 32
0.0
 13
1084.624620594607
 23
285.11963412422
 33
0.0
  0
LINE
  5
B07
330
315
100
AcDbEntity
  8
寸法線_1
  6
Continuous
 62
     7
100
AcDbLine
 10
949.6246205946077
 20
285.11963412422
 30
0.0
 11
1017.124620594607
 21
285.11963412422
 31
0.0
  0
SOLID
  5
B08
330
315
100
AcDbEntity
  8
寸法線_1
  6
Continuous
 62
     7
100
AcDbTrace
 10
949.6246205946077
 20
285.11963412422
 30
0.0
 11
954.1246205946077
 21
285.11963412422
 31
0.0
 12
955.6246205946077
 22
286.6196341242201
 32
0.0
 13
955.6246205946077
 23
286.6196341242201
 33
0.0
  0
SOLID
  5
B09
330
315
100
AcDbEntity
  8
寸法線_1
  6
Continuous
 62
     7
100
AcDbTrace
 10
955.6246205946077
 20
283.61963412422
 30
0.0
 11
955.6246205946077
 21
283.61963412422
 31
0.0
 12
949.6246205946077
 22
285.11963412422
 32
0.0
 13
954.1246205946077
 23
285.11963412422
 33
0.0
  0
LINE
  5
B0A
330
315
100
AcDbEntity
  8
寸法線_1
  6
Continuous
 62
     7
100
AcDbLine
 10
949.6246205946077
 20
307.1682128139792
 30
0.0
 11
949.6246205946077
 21
284.6196341242201
 31
0.0
  0
LINE
  5
B0B
330
315
100
AcDbEntity
  8
寸法線_1
  6
Continuous
 62
     7
100
AcDbLine
 10
1084.624620594607
 20
337.1682128139791
 30
0.0
 11
1084.624620594607
 21
284.6196341242201
 31
0.0
  0
TEXT
  5
B0C
330
315
100
AcDbEntity
  8
寸法線_1
  6
Continuous
 62
     7
100
AcDbText
 10
1116.096842922793
 20
287.1485692784991
 30
0.0
 40
7.055555343627929
  1
70
  7
STYLE1
100
AcDbText
  0
LINE
  5
B0D
330
315
100
AcDbEntity
  8
寸法線_1
  6
Continuous
 62
     7
100
AcDbLine
 10
1154.624620594607
 20
285.11963412422
 30
0.0
 11
1119.624620594607
 21
285.11963412422
 31
0.0
  0
SOLID
  5
B0E
330
315
100
AcDbEntity
  8
寸法線_1
  6
Continuous
 62
     7
100
AcDbTrace
 10
1150.124620594607
 20
285.11963412422
 30
0.0
 11
1154.624620594607
 21
285.11963412422
 31
0.0
 12
1148.624620594607
 22
286.6196341242201
 32
0.0
 13
1148.624620594607
 23
286.6196341242201
 33
0.0
  0
SOLID
  5
B0F
330
315
100
AcDbEntity
  8
寸法線_1
  6
Continuous
 62
     7
100
AcDbTrace
 10
1148.624620594607
 20
283.61963412422
 30
0.0
 11
1148.624620594607
 21
283.61963412422
 31
0.0
 12
1150.124620594607
 22
285.11963412422
 32
0.0
 13
1154.624620594607
 23
285.11963412422
 33
0.0
  0
LINE
  5
B10
330
315
100
AcDbEntity
  8
寸法線_1
  6
Continuous
 62
     7
100
AcDbLine
 10
1084.624620594607
 20
285.11963412422
 30
0.0
 11
1119.624620594607
 21
285.11963412422
 31
0.0
  0
SOLID
  5
B11
330
315
100
AcDbEntity
  8
寸法線_1
  6
Continuous
 62
     7
100
AcDbTrace
 10
1084.624620594607
 20
285.11963412422
 30
0.0
 11
1089.124620594607
 21
285.11963412422
 31
0.0
 12
1090.624620594607
 22
286.6196341242201
 32
0.0
 13
1090.624620594607
 23
286.6196341242201
 33
0.0
  0
SOLID
  5
B12
330
315
100
AcDbEntity
  8
寸法線_1
  6
Continuous
 62
     7
100
AcDbTrace
 10
1090.624620594607
 20
283.61963412422
 30
0.0
 11
1090.624620594607
 21
283.61963412422
 31
0.0
 12
1084.624620594607
 22
285.11963412422
 32
0.0
 13
1089.124620594607
 23
285.11963412422
 33
0.0
  0
LINE
  5
B13
330
315
100
AcDbEntity
  8
寸法線_1
  6
Continuous
 62
     7
100
AcDbLine
 10
1084.624620594607
 20
337.1682128139791
 30
0.0
 11
1084.624620594607
 21
284.6196341242201
 31
0.0
  0
LINE
  5
B14
330
315
100
AcDbEntity
  8
寸法線_1
  6
Continuous
 62
     7
100
AcDbLine
 10
1154.624620594607
 20
304.6682128139792
 30
0.0
 11
1154.624620594607
 21
284.6196341242201
 31
0.0
  0
TEXT
  5
B15
330
315
100
AcDbEntity
  8
寸法線_1
  6
Continuous
 62
     7
100
AcDbText
 10
946.7727279341112
 20
396.2367268417485
 30
0.0
 40
7.055555343627929
  1
補強(375)
  7
STYLE1
100
AcDbText
  0
LINE
  5
B16
330
315
100
AcDbEntity
  8
寸法線_1
  6
Continuous
 62
     7
100
AcDbLine
 10
775.6708343199416
 20
394.2077916874695
 30
0.0
 11
962.6477274572744
 21
394.2077916874695
 31
0.0
  0
SOLID
  5
B17
330
315
100
AcDbEntity
  8
寸法線_1
  6
Continuous
 62
     7
100
AcDbTrace
 10
775.6708343199416
 20
394.2077916874695
 30
0.0
 11
780.1708343199416
 21
394.2077916874695
 31
0.0
 12
781.6708343199416
 22
395.7077916874695
 32
0.0
 13
781.6708343199416
 23
395.7077916874695
 33
0.0
  0
SOLID
  5
B18
330
315
100
AcDbEntity
  8
寸法線_1
  6
Continuous
 62
     7
100
AcDbTrace
 10
781.6708343199416
 20
392.7077916874694
 30
0.0
 11
781.6708343199416
 21
392.7077916874694
 31
0.0
 12
775.6708343199416
 22
394.2077916874695
 32
0.0
 13
780.1708343199416
 23
394.2077916874695
 33
0.0
  0
LINE
  5
B19
330
315
100
AcDbEntity
  8
寸法線_1
  6
Continuous
 62
     7
100
AcDbLine
 10
1149.624620594607
 20
394.2077916874695
 30
0.0
 11
962.6477274572744
 21
394.2077916874695
 31
0.0
  0
SOLID
  5
B1A
330
315
100
AcDbEntity
  8
寸法線_1
  6
Continuous
 62
     7
100
AcDbTrace
 10
1145.124620594607
 20
394.2077916874695
 30
0.0
 11
1149.624620594607
 21
394.2077916874695
 31
0.0
 12
1143.624620594607
 22
395.7077916874695
 32
0.0
 13
1143.624620594607
 23
395.7077916874695
 33
0.0
  0
SOLID
  5
B1B
330
315
100
AcDbEntity
  8
寸法線_1
  6
Continuous
 62
     7
100
AcDbTrace
 10
1143.624620594607
 20
392.7077916874694
 30
0.0
 11
1143.624620594607
 21
392.7077916874694
 31
0.0
 12
1145.124620594607
 22
394.2077916874695
 32
0.0
 13
1149.624620594607
 23
394.2077916874695
 33
0.0
  0
LINE
  5
B1C
330
315
100
AcDbEntity
  8
寸法線_1
  6
Continuous
 62
     7
100
AcDbLine
 10
1149.624620594607
 20
407.7639610193148
 30
0.0
 11
1149.624620594607
 21
393.7077916874695
 31
0.0
  0
LINE
  5
B1D
330
315
100
AcDbEntity
  8
寸法線_1
  6
Continuous
 62
     7
100
AcDbLine
 10
775.6708343199416
 20
652.7639610193148
 30
0.0
 11
775.6708343199416
 21
393.7077916874695
 31
0.0
  0
TEXT
  5
B1E
330
315
100
AcDbEntity
  8
寸法線_1
  6
Continuous
 62
     7
100
AcDbText
 10
1012.885255508753
 20
497.0232327992465
 30
0.0
 40
7.055555343627929
  1
(R1000)
 50
50.00000000000002
  7
STYLE1
100
AcDbText
  0
LINE
  5
B1F
330
315
100
AcDbEntity
  8
寸法線_1
  6
Continuous
 62
     7
100
AcDbLine
 10
1046.017427108281
 20
532.712579285662
 30
0.0
 11
1014.754439358839
 21
495.4548013200368
 31
0.0
  0
SOLID
  5
B20
330
315
100
AcDbEntity
  8
寸法線_1
  6
Continuous
 62
     7
100
AcDbTrace
 10
1041.266446306571
 20
529.2653792916267
 30
0.0
 11
1044.338813812537
 21
529.2653792916267
 31
0.0
 12
1046.017427108281
 22
532.712579285662
 32
0.0
 13
1046.017427108281
 23
532.712579285662
 33
0.0
  0
SOLID
  5
B21
330
315
100
AcDbEntity
  8
寸法線_1
  6
Continuous
 62
     7
100
AcDbTrace
 10
1043.141058228133
 20
529.080494041478
 30
0.0
 11
1044.248783979739
 21
529.080494041478
 31
0.0
 12
1043.124882864691
 22
529.2653792916267
 32
0.0
 13
1044.338813812537
 23
529.2653792916267
 33
0.0
  0
SOLID
  5
B22
330
315
100
AcDbEntity
  8
寸法線_1
  6
Continuous
 62
     7
100
AcDbTrace
 10
1041.011634785483
 20
529.080494041478
 30
0.0
 11
1041.011634785483
 21
529.080494041478
 31
0.0
 12
1041.266446306571
 22
529.2653792916267
 32
0.0
 13
1043.124882864691
 23
529.2653792916267
 33
0.0
  0
SOLID
  5
B23
330
315
100
AcDbEntity
  8
寸法線_1
  6
Continuous
 62
     7
100
AcDbTrace
 10
1043.30976811484
 20
527.1521312124185
 30
0.0
 11
1043.30976811484
 21
527.1521312124185
 31
0.0
 12
1043.141058228133
 22
529.080494041478
 32
0.0
 13
1044.248783979739
 23
529.080494041478
 33
0.0
  0
TEXT
  5
B24
330
315
100
AcDbEntity
  8
寸法線_1
  6
Continuous
 62
     7
100
AcDbText
 10
632.595685440328
 20
540.388961496152
 30
0.0
 40
7.055555343627929
  1
補強(195)
 50
90.0
  7
STYLE1
100
AcDbText
  0
LINE
  5
B25
330
315
100
AcDbEntity
  8
寸法線_1
  6
Continuous
 62
     7
100
AcDbLine
 10
634.6246205946071
 20
653.7639610193147
 30
0.0
 11
634.6246205946071
 21
556.2639610193148
 31
0.0
  0
SOLID
  5
B26
330
315
100
AcDbEntity
  8
寸法線_1
  6
Continuous
 62
     7
100
AcDbTrace
 10
633.4996205946071
 20
649.2639610193148
 30
0.0
 11
635.7496205946071
 21
649.2639610193148
 31
0.0
 12
634.6246205946071
 22
653.7639610193147
 32
0.0
 13
634.6246205946071
 23
653.7639610193147
 33
0.0
  0
SOLID
  5
B27
330
315
100
AcDbEntity
  8
寸法線_1
  6
Continuous
 62
     7
100
AcDbTrace
 10
636.1246205946071
 20
647.7639610193148
 30
0.0
 11
636.1246205946071
 21
647.7639610193148
 31
0.0
 12
634.6246205946071
 22
649.2639610193148
 32
0.0
 13
635.7496205946071
 23
649.2639610193148
 33
0.0
  0
SOLID
  5
B28
330
315
100
AcDbEntity
  8
寸法線_1
  6
Continuous
 62
     7
100
AcDbTrace
 10
633.1246205946071
 20
647.7639610193148
 30
0.0
 11
633.1246205946071
 21
647.7639610193148
 31
0.0
 12
633.4996205946071
 22
649.2639610193148
 32
0.0
 13
634.6246205946071
 23
649.2639610193148
 33
0.0
  0
LINE
  5
B29
330
315
100
AcDbEntity
  8
寸法線_1
  6
Continuous
 62
     7
100
AcDbLine
 10
634.6246205946071
 20
458.7639610193148
 30
0.0
 11
634.6246205946071
 21
556.2639610193148
 31
0.0
  0
SOLID
  5
B2A
330
315
100
AcDbEntity
  8
寸法線_1
  6
Continuous
 62
     7
100
AcDbTrace
 10
634.6246205946071
 20
463.2639610193148
 30
0.0
 11
635.7496205946071
 21
463.2639610193148
 31
0.0
 12
636.1246205946071
 22
464.7639610193148
 32
0.0
 13
636.1246205946071
 23
464.7639610193148
 33
0.0
  0
SOLID
  5
B2B
330
315
100
AcDbEntity
  8
寸法線_1
  6
Continuous
 62
     7
100
AcDbTrace
 10
633.4996205946071
 20
463.2639610193148
 30
0.0
 11
634.6246205946071
 21
463.2639610193148
 31
0.0
 12
633.1246205946071
 22
464.7639610193148
 32
0.0
 13
633.1246205946071
 23
464.7639610193148
 33
0.0
  0
SOLID
  5
B2C
330
315
100
AcDbEntity
  8
寸法線_1
  6
Continuous
 62
     7
100
AcDbTrace
 10
634.6246205946071
 20
458.7639610193148
 30
0.0
 11
634.6246205946071
 21
458.7639610193148
 31
0.0
 12
633.4996205946071
 22
463.2639610193148
 32
0.0
 13
635.7496205946071
 23
463.2639610193148
 33
0.0
  0
LINE
  5
B2D
330
315
100
AcDbEntity
  8
寸法線_1
  6
Continuous
 62
     7
100
AcDbLine
 10
1148.624620594607
 20
458.7639610193148
 30
0.0
 11
634.124620594607
 21
458.7639610193148
 31
0.0
  0
LINE
  5
B2E
330
315
100
AcDbEntity
  8
寸法線_1
  6
Continuous
 62
     7
100
AcDbLine
 10
653.6246205946071
 20
653.7639610193147
 30
0.0
 11
634.124620594607
 21
653.7639610193147
 31
0.0
  0
TEXT
  5
B2F
330
315
100
AcDbEntity
  8
寸法線_1
  6
Continuous
 62
     7
100
AcDbText
 10
661.506348131127
 20
287.1485692784991
 30
0.0
 40
7.055555343627929
  1
20
  7
STYLE1
100
AcDbText
  0
LINE
  5
B30
330
315
100
AcDbEntity
  8
寸法線_1
  6
Continuous
 62
     7
100
AcDbLine
 10
674.6246205946077
 20
285.11963412422
 30
0.0
 11
677.6246205946076
 21
285.11963412422
 31
0.0
  0
SOLID
  5
B31
330
315
100
AcDbEntity
  8
寸法線_1
  6
Continuous
 62
     7
100
AcDbTrace
 10
674.6246205946077
 20
285.11963412422
 30
0.0
 11
679.1246205946077
 21
285.11963412422
 31
0.0
 12
680.6246205946076
 22
286.6196341242201
 32
0.0
 13
680.6246205946076
 23
286.6196341242201
 33
0.0
  0
SOLID
  5
B32
330
315
100
AcDbEntity
  8
寸法線_1
  6
Continuous
 62
     7
100
AcDbTrace
 10
680.6246205946076
 20
283.61963412422
 30
0.0
 11
680.6246205946076
 21
283.61963412422
 31
0.0
 12
674.6246205946077
 22
285.11963412422
 32
0.0
 13
679.1246205946077
 23
285.11963412422
 33
0.0
  0
LINE
  5
B33
330
315
100
AcDbEntity
  8
寸法線_1
  6
Continuous
 62
     7
100
AcDbLine
 10
654.6246205946073
 20
285.11963412422
 30
0.0
 11
651.6246205946073
 21
285.11963412422
 31
0.0
  0
SOLID
  5
B34
330
315
100
AcDbEntity
  8
寸法線_1
  6
Continuous
 62
     7
100
AcDbTrace
 10
650.1246205946073
 20
285.11963412422
 30
0.0
 11
654.6246205946073
 21
285.11963412422
 31
0.0
 12
648.6246205946073
 22
286.6196341242201
 32
0.0
 13
648.6246205946073
 23
286.6196341242201
 33
0.0
  0
SOLID
  5
B35
330
315
100
AcDbEntity
  8
寸法線_1
  6
Continuous
 62
     7
100
AcDbTrace
 10
648.6246205946073
 20
283.61963412422
 30
0.0
 11
648.6246205946073
 21
283.61963412422
 31
0.0
 12
650.1246205946073
 22
285.11963412422
 32
0.0
 13
654.6246205946073
 23
285.11963412422
 33
0.0
  0
LINE
  5
B36
330
315
100
AcDbEntity
  8
寸法線_1
  6
Continuous
 62
     7
100
AcDbLine
 10
654.6246205946073
 20
329.6682128139792
 30
0.0
 11
654.6246205946073
 21
284.6196341242201
 31
0.0
  0
LINE
  5
B37
330
315
100
AcDbEntity
  8
寸法線_1
  6
Continuous
 62
     7
100
AcDbLine
 10
674.6246205946077
 20
322.1682128139792
 30
0.0
 11
674.6246205946077
 21
284.6196341242201
 31
0.0
  0
LINE
  5
B38
330
315
100
AcDbEntity
  8
寸法線_1
  6
Continuous
 62
     7
100
AcDbLine
 10
654.6246205946073
 20
285.11963412422
 30
0.0
 11
674.6246205946077
 21
285.11963412422
 31
0.0
  0
TEXT
  5
B39
330
315
100
AcDbEntity
  8
寸法線_1
  6
Continuous
 62
     7
100
AcDbText
 10
1005.339103085013
 20
385.3236897864522
 30
0.0
 40
7.055555343627929
  1
4－\U+03C66穴　皿\U+03C611
 50
335.0000000000033
  7
STYLE1
100
AcDbText
  0
LINE
  5
B3A
330
315
100
AcDbEntity
  8
寸法線_1
  6
Continuous
 62
     7
100
AcDbLine
 10
1079.636768563686
 20
347.9858262670029
 30
0.0
 11
1001.389686076873
 21
384.4730400588837
 31
0.0
  0
SOLID
  5
B3B
330
315
100
AcDbEntity
  8
寸法線_1
  6
Continuous
 62
     7
100
AcDbTrace
 10
1075.558383522021
 20
349.8876084448357
 30
0.0
 11
1076.981763952366
 21
350.138588818518
 31
0.0
 12
1074.832849234077
 22
351.8809975180017
 32
0.0
 13
1074.832849234077
 23
351.8809975180017
 33
0.0
  0
SOLID
  5
B3C
330
315
100
AcDbEntity
  8
寸法線_1
  6
Continuous
 62
     7
100
AcDbTrace
 10
1073.564994448855
 20
349.1620741568918
 30
0.0
 11
1077.360675596442
 21
349.8313551533778
 31
0.0
 12
1075.558383522021
 22
349.8876084448357
 32
0.0
 13
1076.981763952366
 23
350.138588818518
 33
0.0
  0
SOLID
  5
B3D
330
315
100
AcDbEntity
  8
寸法線_1
  6
Continuous
 62
     7
100
AcDbTrace
 10
1079.636768563686
 20
347.9858262670029
 30
0.0
 11
1079.636768563686
 21
347.9858262670029
 31
0.0
 12
1073.564994448855
 22
349.1620741568918
 32
0.0
 13
1077.360675596442
 23
349.8313551533778
 33
0.0
  0
TEXT
  5
B3E
330
315
100
AcDbEntity
  8
寸法線_1
  6
Continuous
 62
     7
100
AcDbText
 10
625.7759458686193
 20
364.0661145435132
 30
0.0
 40
7.055555343627929
  1
R50
 50
330.0
  7
STYLE1
100
AcDbText
  0
LINE
  5
B3F
330
315
100
AcDbEntity
  8
寸法線_1
  6
Continuous
 62
     7
100
AcDbLine
 10
656.3283292801538
 20
343.6091650691052
 30
0.0
 11
624.555922757117
 21
361.9529725279828
 31
0.0
  0
SOLID
  5
B40
330
315
100
AcDbEntity
  8
寸法線_1
  6
Continuous
 62
     7
100
AcDbTrace
 10
652.4312149631239
 20
345.8591650691052
 30
0.0
 11
654.001333634807
 21
345.8591650691052
 31
0.0
 12
651.8821768574472
 22
347.9082031747819
 32
0.0
 13
651.8821768574472
 23
347.9082031747819
 33
0.0
  0
SOLID
  5
B41
330
315
100
AcDbEntity
  8
寸法線_1
  6
Continuous
 62
     7
100
AcDbTrace
 10
650.3821768574472
 20
345.3101269634287
 30
0.0
 11
654.5691599819353
 21
345.3101269634287
 31
0.0
 12
652.4312149631239
 22
345.8591650691052
 32
0.0
 13
654.001333634807
 23
345.8591650691052
 33
0.0
  0
SOLID
  5
B42
330
315
100
AcDbEntity
  8
寸法線_1
  6
Continuous
 62
     7
100
AcDbTrace
 10
656.3283292801538
 20
343.6091650691052
 30
0.0
 11
656.3283292801538
 21
343.6091650691052
 31
0.0
 12
650.3821768574472
 22
345.3101269634287
 32
0.0
 13
654.5691599819353
 23
345.3101269634287
 33
0.0
  0
TEXT
  5
B43
330
315
100
AcDbEntity
  8
寸法線_1
  6
Continuous
 62
     7
100
AcDbText
 10
881.6940657278163
 20
681.8439990698798
 30
0.0
 40
7.055555343627929
  1
500（天板側）
  7
STYLE1
100
AcDbText
  0
LINE
  5
B44
330
315
100
AcDbEntity
  8
寸法線_1
  6
Continuous
 62
     7
100
AcDbLine
 10
1154.624620594606
 20
679.8150639156008
 30
0.0
 11
904.624620594607
 21
679.8150639156008
 31
0.0
  0
SOLID
  5
B45
330
315
100
AcDbEntity
  8
寸法線_1
  6
Continuous
 62
     7
100
AcDbTrace
 10
1150.124620594606
 20
679.8150639156008
 30
0.0
 11
1154.624620594606
 21
679.8150639156008
 31
0.0
 12
1148.624620594607
 22
681.3150639156008
 32
0.0
 13
1148.624620594607
 23
681.3150639156008
 33
0.0
  0
SOLID
  5
B46
330
315
100
AcDbEntity
  8
寸法線_1
  6
Continuous
 62
     7
100
AcDbTrace
 10
1148.624620594607
 20
678.3150639156008
 30
0.0
 11
1148.624620594607
 21
678.3150639156008
 31
0.0
 12
1150.124620594606
 22
679.8150639156008
 32
0.0
 13
1154.624620594606
 23
679.8150639156008
 33
0.0
  0
LINE
  5
B47
330
315
100
AcDbEntity
  8
寸法線_1
  6
Continuous
 62
     7
100
AcDbLine
 10
654.6246205946069
 20
679.8150639156008
 30
0.0
 11
904.624620594607
 21
679.8150639156008
 31
0.0
  0
SOLID
  5
B48
330
315
100
AcDbEntity
  8
寸法線_1
  6
Continuous
 62
     7
100
AcDbTrace
 10
654.6246205946069
 20
679.8150639156008
 30
0.0
 11
659.1246205946069
 21
679.8150639156008
 31
0.0
 12
660.624620594607
 22
681.3150639156008
 32
0.0
 13
660.624620594607
 23
681.3150639156008
 33
0.0
  0
SOLID
  5
B49
330
315
100
AcDbEntity
  8
寸法線_1
  6
Continuous
 62
     7
100
AcDbTrace
 10
660.624620594607
 20
678.3150639156008
 30
0.0
 11
660.624620594607
 21
678.3150639156008
 31
0.0
 12
654.6246205946069
 22
679.8150639156008
 32
0.0
 13
659.1246205946069
 23
679.8150639156008
 33
0.0
  0
LINE
  5
B4A
330
315
100
AcDbEntity
  8
寸法線_1
  6
Continuous
 62
     7
100
AcDbLine
 10
654.6246205946069
 20
659.7639610193145
 30
0.0
 11
654.6246205946069
 21
680.3150639156008
 31
0.0
  0
LINE
  5
B4B
330
315
100
AcDbEntity
  8
寸法線_1
  6
Continuous
 62
     7
100
AcDbLine
 10
1154.624620594606
 20
655.2639610193145
 30
0.0
 11
1154.624620594606
 21
680.3150639156008
 31
0.0
  0
LINE
  5
B4C
330
315
100
AcDbEntity
  8
0
  6
Continuous
 62
     5
100
AcDbLine
 10
1150.124620594607
 20
500.0289251259003
 30
0.0
 11
1150.124620594607
 21
459.2639610193138
 31
0.0
  0
LINE
  5
B4D
330
315
100
AcDbEntity
  8
0
  6
Continuous
 62
     5
100
AcDbLine
 10
776.1708343199416
 20
654.2639610193143
 30
0.0
 11
867.1210635345497
 21
654.2639610193143
 31
0.0
  0
LINE
  5
B4E
330
315
100
AcDbEntity
  8
0
  6
Continuous
 62
     5
100
AcDbLine
 10
776.1708343199416
 20
650.874343917397
 30
0.0
 11
776.1708343199416
 21
654.2639610193143
 31
0.0
  0
ARC
  5
B4F
330
315
100
AcDbEntity
  8
0
  6
Continuous
 62
     5
100
AcDbCircle
 10
779.1454264791956
 20
651.2639610193144
 30
0.0
 40
3.000000000000005
100
AcDbArc
 50
187.4622169762186
 51
255.0755660475611
  0
ARC
  5
B50
330
315
100
AcDbEntity
  8
0
  6
Continuous
 62
     5
100
AcDbCircle
 10
520.827908167127
 20
-317.9011744107081
 30
0.0
 40
1032.0
100
AcDbArc
 50
52.42613991158665
 51
70.39368596474246
  0
ARC
  5
B51
330
315
100
AcDbEntity
  8
0
  6
Continuous
 62
     5
100
AcDbCircle
 10
520.827908167127
 20
-317.9011744107081
 30
0.0
 40
1000.0
100
AcDbArc
 50
51.00174570602806
 51
75.07556604755918
  0
LINE
  5
B52
330
315
100
AcDbEntity
  8
0
  6
Continuous
 62
     5
100
AcDbLine
 10
654.6246205946069
 20
658.7639610193146
 30
0.0
 11
1146.624620594606
 21
658.7639610193146
 31
0.0
  0
LINE
  5
B53
330
315
100
AcDbEntity
  8
0
  6
Continuous
 62
     5
100
AcDbLine
 10
654.6246205946069
 20
654.2639610193146
 30
0.0
 11
1146.624620594606
 21
654.2639610193146
 31
0.0
  0
LINE
  5
B54
330
315
100
AcDbEntity
  8
0
  6
Continuous
 62
     5
100
AcDbLine
 10
1154.624620594606
 20
650.7639610193145
 30
0.0
 11
1154.624620594606
 21
408.7639610193145
 31
0.0
  0
LINE
  5
B55
330
315
100
AcDbEntity
  8
0
  6
Continuous
 62
     5
100
AcDbLine
 10
654.6246205946069
 20
658.7639610193146
 30
0.0
 11
654.6246205946069
 21
654.2639610193146
 31
0.0
  0
LINE
  5
B56
330
315
100
AcDbEntity
  8
0
  6
Continuous
 62
     5
100
AcDbLine
 10
1150.124620594606
 20
408.7639610193145
 30
0.0
 11
1154.624620594606
 21
408.7639610193145
 31
0.0
  0
ARC
  5
B57
330
315
100
AcDbEntity
  8
0
  6
Continuous
 62
     5
100
AcDbCircle
 10
1146.624620594606
 20
650.7639610193145
 30
0.0
 40
8.0
100
AcDbArc
 50
0.0
 51
90.0
  0
ARC
  5
B58
330
315
100
AcDbEntity
  8
0
  6
Continuous
 62
     5
100
AcDbCircle
 10
1146.624620594606
 20
650.7639610193145
 30
0.0
 40
3.5
100
AcDbArc
 50
0.0
 51
90.0
  0
LINE
  5
B59
330
315
100
AcDbEntity
  8
0
  6
Continuous
 62
     5
100
AcDbLine
 10
1150.124620594606
 20
650.7639610193145
 30
0.0
 11
1150.124620594606
 21
408.7639610193145
 31
0.0
  0
LINE
  5
B5A
330
315
100
AcDbEntity
  8
0
  6
Continuous
 62
     5
100
AcDbLine
 10
1150.124620594606
 20
328.4182128139792
 30
0.0
 11
776.1708343199416
 21
328.4182128139792
 31
0.0
  0
LINE
  5
B5B
330
315
100
AcDbEntity
  8
0
  6
Continuous
 62
     5
100
AcDbLine
 10
1154.624620594606
 20
305.6682128139792
 30
0.0
 11
661.3233504053853
 21
305.6682128139792
 31
0.0
  0
LINE
  5
B5C
330
315
100
AcDbEntity
  8
0
  6
Continuous
 62
     5
100
AcDbLine
 10
1150.124620594606
 20
332.9182128139791
 30
0.0
 11
776.1708343199416
 21
332.9182128139791
 31
0.0
  0
LINE
  5
B5D
330
315
100
AcDbEntity
  8
0
  6
Continuous
 62
     5
100
AcDbLine
 10
1154.624620594606
 20
355.6682128139792
 30
0.0
 11
661.3233504053851
 21
355.6682128139792
 31
0.0
  0
LINE
  5
B5E
330
315
100
AcDbEntity
  8
0
  6
CENTER
 62
     3
100
AcDbLine
 10
942.1246205946072
 20
315.6682128139792
 30
0.0
 11
957.1246205946073
 21
315.6682128139792
 31
0.0
  0
LINE
  5
B5F
330
315
100
AcDbEntity
  8
0
  6
CENTER
 62
     3
100
AcDbLine
 10
674.6246205946074
 20
338.1682128139792
 30
0.0
 11
674.6246205946074
 21
323.1682128139791
 31
0.0
  0
LINE
  5
B60
330
315
100
AcDbEntity
  8
0
  6
CENTER
 62
     3
100
AcDbLine
 10
667.1246205946074
 20
330.6682128139792
 30
0.0
 11
682.1246205946074
 21
330.6682128139792
 31
0.0
  0
LINE
  5
B61
330
315
100
AcDbEntity
  8
0
  6
CENTER
 62
     3
100
AcDbLine
 10
809.6246205946073
 20
353.1682128139792
 30
0.0
 11
809.6246205946073
 21
338.1682128139792
 31
0.0
  0
LINE
  5
B62
330
315
100
AcDbEntity
  8
0
  6
CENTER
 62
     3
100
AcDbLine
 10
802.1246205946074
 20
345.6682128139791
 30
0.0
 11
817.1246205946072
 21
345.6682128139791
 31
0.0
  0
CIRCLE
  5
B63
330
315
100
AcDbEntity
  8
0
  6
Continuous
 62
     5
100
AcDbCircle
 10
809.6246205946073
 20
345.6682128139791
 30
0.0
 40
3.000000000000043
  0
CIRCLE
  5
B64
330
315
100
AcDbEntity
  8
0
  6
Continuous
 62
     5
100
AcDbCircle
 10
809.6246205946073
 20
345.6682128139791
 30
0.0
 40
5.499999999999964
  0
CIRCLE
  5
B65
330
315
100
AcDbEntity
  8
0
  6
Continuous
 62
     5
100
AcDbCircle
 10
674.6246205946074
 20
330.6682128139792
 30
0.0
 40
3.000000000000043
  0
CIRCLE
  5
B66
330
315
100
AcDbEntity
  8
0
  6
Continuous
 62
     5
100
AcDbCircle
 10
674.6246205946074
 20
330.6682128139792
 30
0.0
 40
5.499999999999964
  0
CIRCLE
  5
B67
330
315
100
AcDbEntity
  8
0
  6
Continuous
 62
     5
100
AcDbCircle
 10
949.6246205946071
 20
315.6682128139792
 30
0.0
 40
5.499999999999964
  0
CIRCLE
  5
B68
330
315
100
AcDbEntity
  8
0
  6
Continuous
 62
     5
100
AcDbCircle
 10
949.6246205946071
 20
315.6682128139792
 30
0.0
 40
3.000000000000043
  0
CIRCLE
  5
B69
330
315
100
AcDbEntity
  8
0
  6
Continuous
 62
     5
100
AcDbCircle
 10
1084.624620594607
 20
345.6682128139791
 30
0.0
 40
5.500000000000124
  0
CIRCLE
  5
B6A
330
315
100
AcDbEntity
  8
0
  6
Continuous
 62
     5
100
AcDbCircle
 10
1084.624620594607
 20
345.6682128139791
 30
0.0
 40
3.000000000000043
  0
LINE
  5
B6B
330
315
100
AcDbEntity
  8
0
  6
Continuous
 62
     5
100
AcDbLine
 10
1154.624620594606
 20
355.6682128139791
 30
0.0
 11
1154.624620594606
 21
305.6682128139792
 31
0.0
  0
LINE
  5
B6C
330
315
100
AcDbEntity
  8
0
  6
Continuous
 62
     5
100
AcDbLine
 10
1150.124620594606
 20
355.6682128139791
 30
0.0
 11
1150.124620594606
 21
305.6682128139792
 31
0.0
  0
ARC
  5
B6D
330
315
100
AcDbEntity
  8
0
  6
Continuous
 62
     5
100
AcDbCircle
 10
704.6246205946072
 20
330.6682128139793
 30
0.0
 40
49.99999999999997
100
AcDbArc
 50
150.0
 51
210.0000000000002
  0
LINE
  5
B6E
330
315
100
AcDbEntity
  8
0
  6
Continuous
 62
     5
100
AcDbLine
 10
776.1708343199416
 20
332.9182128139791
 30
0.0
 11
776.1708343199416
 21
328.4182128139792
 31
0.0
  0
LINE
  5
B6F
330
315
100
AcDbEntity
  8
0
  6
CENTER
 62
     3
100
AcDbLine
 10
1160.124620594606
 20
330.6682128139792
 30
0.0
 11
649.1246205946072
 21
330.6682128139792
 31
0.0
  0
LINE
  5
B70
330
315
100
AcDbEntity
  8
0
  6
CENTER
 62
     3
100
AcDbLine
 10
1084.624620594607
 20
353.1682128139792
 30
0.0
 11
1084.624620594607
 21
338.1682128139792
 31
0.0
  0
LINE
  5
B71
330
315
100
AcDbEntity
  8
0
  6
CENTER
 62
     3
100
AcDbLine
 10
1077.124620594607
 20
345.6682128139791
 30
0.0
 11
1092.124620594607
 21
345.6682128139791
 31
0.0
  0
LINE
  5
B72
330
315
100
AcDbEntity
  8
0
  6
CENTER
 62
     3
100
AcDbLine
 10
949.6246205946071
 20
323.1682128139791
 30
0.0
 11
949.6246205946071
 21
308.1682128139791
 31
0.0
  0
TEXT
  5
B73
330
315
100
AcDbEntity
  8
寸法線_1
  6
Continuous
 62
     7
100
AcDbText
 10
600.4469847824337
 20
493.4722945115935
 30
0.0
 40
7.055555343627929
  1
140
 50
90.0
  7
STYLE1
100
AcDbText
  0
LINE
  5
B74
330
315
100
AcDbEntity
  8
寸法線_1
  6
Continuous
 62
     7
100
AcDbLine
 10
602.4759199367127
 20
428.7639610193144
 30
0.0
 11
602.4759199367127
 21
498.7639610193144
 31
0.0
  0
SOLID
  5
B75
330
315
100
AcDbEntity
  8
寸法線_1
  6
Continuous
 62
     7
100
AcDbTrace
 10
602.4759199367127
 20
433.2639610193144
 30
0.0
 11
603.6009199367128
 21
433.2639610193144
 31
0.0
 12
603.9759199367128
 22
434.7639610193144
 32
0.0
 13
603.9759199367128
 23
434.7639610193144
 33
0.0
  0
SOLID
  5
B76
330
315
100
AcDbEntity
  8
寸法線_1
  6
Continuous
 62
     7
100
AcDbTrace
 10
601.3509199367128
 20
433.2639610193144
 30
0.0
 11
602.4759199367127
 21
433.2639610193144
 31
0.0
 12
600.9759199367127
 22
434.7639610193144
 32
0.0
 13
600.9759199367127
 23
434.7639610193144
 33
0.0
  0
SOLID
  5
B77
330
315
100
AcDbEntity
  8
寸法線_1
  6
Continuous
 62
     7
100
AcDbTrace
 10
602.4759199367127
 20
428.7639610193144
 30
0.0
 11
602.4759199367127
 21
428.7639610193144
 31
0.0
 12
601.3509199367128
 22
433.2639610193144
 32
0.0
 13
603.6009199367128
 23
433.2639610193144
 33
0.0
  0
LINE
  5
B78
330
315
100
AcDbEntity
  8
寸法線_1
  6
Continuous
 62
     7
100
AcDbLine
 10
602.4759199367127
 20
568.7639610193145
 30
0.0
 11
602.4759199367127
 21
498.7639610193144
 31
0.0
  0
SOLID
  5
B79
330
315
100
AcDbEntity
  8
寸法線_1
  6
Continuous
 62
     7
100
AcDbTrace
 10
601.3509199367128
 20
564.2639610193145
 30
0.0
 11
603.6009199367128
 21
564.2639610193145
 31
0.0
 12
602.4759199367127
 22
568.7639610193145
 32
0.0
 13
602.4759199367127
 23
568.7639610193145
 33
0.0
  0
SOLID
  5
B7A
330
315
100
AcDbEntity
  8
寸法線_1
  6
Continuous
 62
     7
100
AcDbTrace
 10
603.9759199367128
 20
562.7639610193146
 30
0.0
 11
603.9759199367128
 21
562.7639610193146
 31
0.0
 12
602.4759199367127
 22
564.2639610193145
 32
0.0
 13
603.6009199367128
 23
564.2639610193145
 33
0.0
  0
SOLID
  5
B7B
330
315
100
AcDbEntity
  8
寸法線_1
  6
Continuous
 62
     7
100
AcDbTrace
 10
600.9759199367127
 20
562.7639610193146
 30
0.0
 11
600.9759199367127
 21
562.7639610193146
 31
0.0
 12
601.3509199367128
 22
564.2639610193145
 32
0.0
 13
602.4759199367127
 23
564.2639610193145
 33
0.0
  0
LINE
  5
B7C
330
315
100
AcDbEntity
  8
寸法線_1
  6
Continuous
 62
     7
100
AcDbLine
 10
580.9759199367127
 20
568.7639610193145
 30
0.0
 11
602.9759199367127
 21
568.7639610193145
 31
0.0
  0
LINE
  5
B7D
330
315
100
AcDbEntity
  8
寸法線_1
  6
Continuous
 62
     7
100
AcDbLine
 10
565.9759199367128
 20
428.7639610193144
 30
0.0
 11
602.9759199367127
 21
428.7639610193144
 31
0.0
  0
TEXT
  5
B7E
330
315
100
AcDbEntity
  8
寸法線_1
  6
Continuous
 62
     7
100
AcDbText
 10
553.9481422648984
 20
709.6991280136714
 30
0.0
 40
7.055555343627929
  1
50
  7
STYLE1
100
AcDbText
  0
LINE
  5
B7F
330
315
100
AcDbEntity
  8
寸法線_1
  6
Continuous
 62
     7
100
AcDbLine
 10
582.4759199367125
 20
707.6701928593925
 30
0.0
 11
557.4759199367125
 21
707.6701928593925
 31
0.0
  0
SOLID
  5
B80
330
315
100
AcDbEntity
  8
寸法線_1
  6
Continuous
 62
     7
100
AcDbTrace
 10
577.9759199367125
 20
707.6701928593925
 30
0.0
 11
582.4759199367125
 21
707.6701928593925
 31
0.0
 12
576.4759199367126
 22
709.1701928593924
 32
0.0
 13
576.4759199367126
 23
709.1701928593924
 33
0.0
  0
SOLID
  5
B81
330
315
100
AcDbEntity
  8
寸法線_1
  6
Continuous
 62
     7
100
AcDbTrace
 10
576.4759199367126
 20
706.1701928593925
 30
0.0
 11
576.4759199367126
 21
706.1701928593925
 31
0.0
 12
577.9759199367125
 22
707.6701928593925
 32
0.0
 13
582.4759199367125
 23
707.6701928593925
 33
0.0
  0
LINE
  5
B82
330
315
100
AcDbEntity
  8
寸法線_1
  6
Continuous
 62
     7
100
AcDbLine
 10
532.4759199367125
 20
707.6701928593925
 30
0.0
 11
557.4759199367125
 21
707.6701928593925
 31
0.0
  0
SOLID
  5
B83
330
315
100
AcDbEntity
  8
寸法線_1
  6
Continuous
 62
     7
100
AcDbTrace
 10
532.4759199367125
 20
707.6701928593925
 30
0.0
 11
536.9759199367125
 21
707.6701928593925
 31
0.0
 12
538.4759199367125
 22
709.1701928593924
 32
0.0
 13
538.4759199367125
 23
709.1701928593924
 33
0.0
  0
SOLID
  5
B84
330
315
100
AcDbEntity
  8
寸法線_1
  6
Continuous
 62
     7
100
AcDbTrace
 10
538.4759199367125
 20
706.1701928593925
 30
0.0
 11
538.4759199367125
 21
706.1701928593925
 31
0.0
 12
532.4759199367125
 22
707.6701928593925
 32
0.0
 13
536.9759199367125
 23
707.6701928593925
 33
0.0
  0
LINE
  5
B85
330
315
100
AcDbEntity
  8
寸法線_1
  6
Continuous
 62
     7
100
AcDbLine
 10
532.4759199367125
 20
659.7639610193145
 30
0.0
 11
532.4759199367125
 21
708.1701928593925
 31
0.0
  0
LINE
  5
B86
330
315
100
AcDbEntity
  8
寸法線_1
  6
Continuous
 62
     7
100
AcDbLine
 10
582.4759199367125
 20
659.7639610193145
 30
0.0
 11
582.4759199367125
 21
708.1701928593925
 31
0.0
  0
TEXT
  5
B87
330
315
100
AcDbEntity
  8
寸法線_1
  6
Continuous
 62
     7
100
AcDbText
 10
553.9481422648984
 20
696.3383218229003
 30
0.0
 40
7.055555343627929
  1
30
  7
STYLE1
100
AcDbText
  0
LINE
  5
B88
330
315
100
AcDbEntity
  8
寸法線_1
  6
Continuous
 62
     7
100
AcDbLine
 10
572.4759199367126
 20
694.3093866686212
 30
0.0
 11
557.4759199367125
 21
694.3093866686212
 31
0.0
  0
SOLID
  5
B89
330
315
100
AcDbEntity
  8
寸法線_1
  6
Continuous
 62
     7
100
AcDbTrace
 10
567.9759199367125
 20
694.3093866686212
 30
0.0
 11
572.4759199367126
 21
694.3093866686212
 31
0.0
 12
566.4759199367125
 22
695.8093866686213
 32
0.0
 13
566.4759199367125
 23
695.8093866686213
 33
0.0
  0
SOLID
  5
B8A
330
315
100
AcDbEntity
  8
寸法線_1
  6
Continuous
 62
     7
100
AcDbTrace
 10
566.4759199367125
 20
692.8093866686213
 30
0.0
 11
566.4759199367125
 21
692.8093866686213
 31
0.0
 12
567.9759199367125
 22
694.3093866686212
 32
0.0
 13
572.4759199367126
 23
694.3093866686212
 33
0.0
  0
LINE
  5
B8B
330
315
100
AcDbEntity
  8
寸法線_1
  6
Continuous
 62
     7
100
AcDbLine
 10
542.4759199367125
 20
694.3093866686212
 30
0.0
 11
557.4759199367125
 21
694.3093866686212
 31
0.0
  0
SOLID
  5
B8C
330
315
100
AcDbEntity
  8
寸法線_1
  6
Continuous
 62
     7
100
AcDbTrace
 10
542.4759199367125
 20
694.3093866686212
 30
0.0
 11
546.9759199367125
 21
694.3093866686212
 31
0.0
 12
548.4759199367125
 22
695.8093866686213
 32
0.0
 13
548.4759199367125
 23
695.8093866686213
 33
0.0
  0
SOLID
  5
B8D
330
315
100
AcDbEntity
  8
寸法線_1
  6
Continuous
 62
     7
100
AcDbTrace
 10
548.4759199367125
 20
692.8093866686213
 30
0.0
 11
548.4759199367125
 21
692.8093866686213
 31
0.0
 12
542.4759199367125
 22
694.3093866686212
 32
0.0
 13
546.9759199367125
 23
694.3093866686212
 33
0.0
  0
LINE
  5
B8E
330
315
100
AcDbEntity
  8
寸法線_1
  6
Continuous
 62
     7
100
AcDbLine
 10
542.4759199367125
 20
637.2639610193146
 30
0.0
 11
542.4759199367125
 21
694.8093866686213
 31
0.0
  0
LINE
  5
B8F
330
315
100
AcDbEntity
  8
寸法線_1
  6
Continuous
 62
     7
100
AcDbLine
 10
572.4759199367126
 20
617.2639610193145
 30
0.0
 11
572.4759199367126
 21
694.8093866686213
 31
0.0
  0
TEXT
  5
B90
330
315
100
AcDbEntity
  8
寸法線_1
  6
Continuous
 62
     7
100
AcDbText
 10
573.9481422648984
 20
696.3383218229003
 30
0.0
 40
7.055555343627929
  1
10
  7
STYLE1
100
AcDbText
  0
LINE
  5
B91
330
315
100
AcDbEntity
  8
寸法線_1
  6
Continuous
 62
     7
100
AcDbLine
 10
582.4759199367125
 20
694.3093866686212
 30
0.0
 11
585.4759199367125
 21
694.3093866686212
 31
0.0
  0
SOLID
  5
B92
330
315
100
AcDbEntity
  8
寸法線_1
  6
Continuous
 62
     7
100
AcDbTrace
 10
582.4759199367125
 20
694.3093866686212
 30
0.0
 11
586.9759199367125
 21
694.3093866686212
 31
0.0
 12
588.4759199367125
 22
695.8093866686213
 32
0.0
 13
588.4759199367125
 23
695.8093866686213
 33
0.0
  0
SOLID
  5
B93
330
315
100
AcDbEntity
  8
寸法線_1
  6
Continuous
 62
     7
100
AcDbTrace
 10
588.4759199367125
 20
692.8093866686213
 30
0.0
 11
588.4759199367125
 21
692.8093866686213
 31
0.0
 12
582.4759199367125
 22
694.3093866686212
 32
0.0
 13
586.9759199367125
 23
694.3093866686212
 33
0.0
  0
LINE
  5
B94
330
315
100
AcDbEntity
  8
寸法線_1
  6
Continuous
 62
     7
100
AcDbLine
 10
572.4759199367126
 20
694.3093866686212
 30
0.0
 11
569.4759199367125
 21
694.3093866686212
 31
0.0
  0
SOLID
  5
B95
330
315
100
AcDbEntity
  8
寸法線_1
  6
Continuous
 62
     7
100
AcDbTrace
 10
567.9759199367125
 20
694.3093866686212
 30
0.0
 11
572.4759199367126
 21
694.3093866686212
 31
0.0
 12
566.4759199367125
 22
695.8093866686213
 32
0.0
 13
566.4759199367125
 23
695.8093866686213
 33
0.0
  0
SOLID
  5
B96
330
315
100
AcDbEntity
  8
寸法線_1
  6
Continuous
 62
     7
100
AcDbTrace
 10
566.4759199367125
 20
692.8093866686213
 30
0.0
 11
566.4759199367125
 21
692.8093866686213
 31
0.0
 12
567.9759199367125
 22
694.3093866686212
 32
0.0
 13
572.4759199367126
 23
694.3093866686212
 33
0.0
  0
LINE
  5
B97
330
315
100
AcDbEntity
  8
寸法線_1
  6
Continuous
 62
     7
100
AcDbLine
 10
572.4759199367126
 20
617.2639610193145
 30
0.0
 11
572.4759199367126
 21
694.8093866686213
 31
0.0
  0
LINE
  5
B98
330
315
100
AcDbEntity
  8
寸法線_1
  6
Continuous
 62
     7
100
AcDbLine
 10
582.4759199367125
 20
659.7639610193145
 30
0.0
 11
582.4759199367125
 21
694.8093866686213
 31
0.0
  0
LINE
  5
B99
330
315
100
AcDbEntity
  8
寸法線_1
  6
Continuous
 62
     7
100
AcDbLine
 10
572.4759199367126
 20
694.3093866686212
 30
0.0
 11
582.4759199367125
 21
694.3093866686212
 31
0.0
  0
TEXT
  5
B9A
330
315
100
AcDbEntity
  8
寸法線_1
  6
Continuous
 62
     7
100
AcDbText
 10
533.9481422648985
 20
696.3383218229003
 30
0.0
 40
7.055555343627929
  1
10
  7
STYLE1
100
AcDbText
  0
LINE
  5
B9B
330
315
100
AcDbEntity
  8
寸法線_1
  6
Continuous
 62
     7
100
AcDbLine
 10
542.4759199367125
 20
694.3093866686212
 30
0.0
 11
545.4759199367125
 21
694.3093866686212
 31
0.0
  0
SOLID
  5
B9C
330
315
100
AcDbEntity
  8
寸法線_1
  6
Continuous
 62
     7
100
AcDbTrace
 10
542.4759199367125
 20
694.3093866686212
 30
0.0
 11
546.9759199367125
 21
694.3093866686212
 31
0.0
 12
548.4759199367125
 22
695.8093866686213
 32
0.0
 13
548.4759199367125
 23
695.8093866686213
 33
0.0
  0
SOLID
  5
B9D
330
315
100
AcDbEntity
  8
寸法線_1
  6
Continuous
 62
     7
100
AcDbTrace
 10
548.4759199367125
 20
692.8093866686213
 30
0.0
 11
548.4759199367125
 21
692.8093866686213
 31
0.0
 12
542.4759199367125
 22
694.3093866686212
 32
0.0
 13
546.9759199367125
 23
694.3093866686212
 33
0.0
  0
LINE
  5
B9E
330
315
100
AcDbEntity
  8
寸法線_1
  6
Continuous
 62
     7
100
AcDbLine
 10
532.4759199367125
 20
694.3093866686212
 30
0.0
 11
529.4759199367124
 21
694.3093866686212
 31
0.0
  0
SOLID
  5
B9F
330
315
100
AcDbEntity
  8
寸法線_1
  6
Continuous
 62
     7
100
AcDbTrace
 10
527.9759199367124
 20
694.3093866686212
 30
0.0
 11
532.4759199367125
 21
694.3093866686212
 31
0.0
 12
526.4759199367124
 22
695.8093866686213
 32
0.0
 13
526.4759199367124
 23
695.8093866686213
 33
0.0
  0
SOLID
  5
BA0
330
315
100
AcDbEntity
  8
寸法線_1
  6
Continuous
 62
     7
100
AcDbTrace
 10
526.4759199367124
 20
692.8093866686213
 30
0.0
 11
526.4759199367124
 21
692.8093866686213
 31
0.0
 12
527.9759199367124
 22
694.3093866686212
 32
0.0
 13
532.4759199367125
 23
694.3093866686212
 33
0.0
  0
LINE
  5
BA1
330
315
100
AcDbEntity
  8
寸法線_1
  6
Continuous
 62
     7
100
AcDbLine
 10
532.4759199367125
 20
659.7639610193145
 30
0.0
 11
532.4759199367125
 21
694.8093866686213
 31
0.0
  0
LINE
  5
BA2
330
315
100
AcDbEntity
  8
寸法線_1
  6
Continuous
 62
     7
100
AcDbLine
 10
542.4759199367125
 20
637.2639610193146
 30
0.0
 11
542.4759199367125
 21
694.8093866686213
 31
0.0
  0
LINE
  5
BA3
330
315
100
AcDbEntity
  8
寸法線_1
  6
Continuous
 62
     7
100
AcDbLine
 10
532.4759199367125
 20
694.3093866686212
 30
0.0
 11
542.4759199367125
 21
694.3093866686212
 31
0.0
  0
TEXT
  5
BA4
330
315
100
AcDbEntity
  8
寸法線_1
  6
Continuous
 62
     7
100
AcDbText
 10
600.4469847824337
 20
640.2361833475008
 30
0.0
 40
7.055555343627929
  1
30
 50
90.0
  7
STYLE1
100
AcDbText
  0
LINE
  5
BA5
330
315
100
AcDbEntity
  8
寸法線_1
  6
Continuous
 62
     7
100
AcDbLine
 10
602.4759199367127
 20
628.7639610193146
 30
0.0
 11
602.4759199367127
 21
643.7639610193148
 31
0.0
  0
SOLID
  5
BA6
330
315
100
AcDbEntity
  8
寸法線_1
  6
Continuous
 62
     7
100
AcDbTrace
 10
602.4759199367127
 20
633.2639610193146
 30
0.0
 11
603.6009199367128
 21
633.2639610193146
 31
0.0
 12
603.9759199367128
 22
634.7639610193145
 32
0.0
 13
603.9759199367128
 23
634.7639610193145
 33
0.0
  0
SOLID
  5
BA7
330
315
100
AcDbEntity
  8
寸法線_1
  6
Continuous
 62
     7
100
AcDbTrace
 10
601.3509199367128
 20
633.2639610193146
 30
0.0
 11
602.4759199367127
 21
633.2639610193146
 31
0.0
 12
600.9759199367127
 22
634.7639610193145
 32
0.0
 13
600.9759199367127
 23
634.7639610193145
 33
0.0
  0
SOLID
  5
BA8
330
315
100
AcDbEntity
  8
寸法線_1
  6
Continuous
 62
     7
100
AcDbTrace
 10
602.4759199367127
 20
628.7639610193146
 30
0.0
 11
602.4759199367127
 21
628.7639610193146
 31
0.0
 12
601.3509199367128
 22
633.2639610193146
 32
0.0
 13
603.6009199367128
 23
633.2639610193146
 33
0.0
  0
LINE
  5
BA9
330
315
100
AcDbEntity
  8
寸法線_1
  6
Continuous
 62
     7
100
AcDbLine
 10
602.4759199367127
 20
658.7639610193146
 30
0.0
 11
602.4759199367127
 21
643.7639610193148
 31
0.0
  0
SOLID
  5
BAA
330
315
100
AcDbEntity
  8
寸法線_1
  6
Continuous
 62
     7
100
AcDbTrace
 10
601.3509199367128
 20
654.2639610193146
 30
0.0
 11
603.6009199367128
 21
654.2639610193146
 31
0.0
 12
602.4759199367127
 22
658.7639610193146
 32
0.0
 13
602.4759199367127
 23
658.7639610193146
 33
0.0
  0
SOLID
  5
BAB
330
315
100
AcDbEntity
  8
寸法線_1
  6
Continuous
 62
     7
100
AcDbTrace
 10
603.9759199367128
 20
652.7639610193146
 30
0.0
 11
603.9759199367128
 21
652.7639610193146
 31
0.0
 12
602.4759199367127
 22
654.2639610193146
 32
0.0
 13
603.6009199367128
 23
654.2639610193146
 33
0.0
  0
SOLID
  5
BAC
330
315
100
AcDbEntity
  8
寸法線_1
  6
Continuous
 62
     7
100
AcDbTrace
 10
600.9759199367127
 20
652.7639610193146
 30
0.0
 11
600.9759199367127
 21
652.7639610193146
 31
0.0
 12
601.3509199367128
 22
654.2639610193146
 32
0.0
 13
602.4759199367127
 23
654.2639610193146
 33
0.0
  0
LINE
  5
BAD
330
315
100
AcDbEntity
  8
寸法線_1
  6
Continuous
 62
     7
100
AcDbLine
 10
583.4759199367128
 20
658.7639610193146
 30
0.0
 11
602.9759199367127
 21
658.7639610193146
 31
0.0
  0
LINE
  5
BAE
330
315
100
AcDbEntity
  8
寸法線_1
  6
Continuous
 62
     7
100
AcDbLine
 10
550.9759199367127
 20
628.7639610193146
 30
0.0
 11
602.9759199367127
 21
628.7639610193146
 31
0.0
  0
TEXT
  5
BAF
330
315
100
AcDbEntity
  8
寸法線_1
  6
Continuous
 62
     7
100
AcDbText
 10
552.1842534289917
 20
681.2433394414158
 30
0.0
 40
7.055555343627929
  1
4.5
  7
STYLE1
100
AcDbText
  0
LINE
  5
BB0
330
315
100
AcDbEntity
  8
寸法線_1
  6
Continuous
 62
     7
100
AcDbLine
 10
559.7259199367126
 20
679.2144042871369
 30
0.0
 11
562.7259199367126
 21
679.2144042871369
 31
0.0
  0
SOLID
  5
BB1
330
315
100
AcDbEntity
  8
寸法線_1
  6
Continuous
 62
     7
100
AcDbTrace
 10
559.7259199367126
 20
679.2144042871369
 30
0.0
 11
564.2259199367126
 21
679.2144042871369
 31
0.0
 12
565.7259199367127
 22
680.7144042871368
 32
0.0
 13
565.7259199367127
 23
680.7144042871368
 33
0.0
  0
SOLID
  5
BB2
330
315
100
AcDbEntity
  8
寸法線_1
  6
Continuous
 62
     7
100
AcDbTrace
 10
565.7259199367127
 20
677.7144042871368
 30
0.0
 11
565.7259199367127
 21
677.7144042871368
 31
0.0
 12
559.7259199367126
 22
679.2144042871369
 32
0.0
 13
564.2259199367126
 23
679.2144042871369
 33
0.0
  0
LINE
  5
BB3
330
315
100
AcDbEntity
  8
寸法線_1
  6
Continuous
 62
     7
100
AcDbLine
 10
555.2259199367126
 20
679.2144042871369
 30
0.0
 11
552.2259199367126
 21
679.2144042871369
 31
0.0
  0
SOLID
  5
BB4
330
315
100
AcDbEntity
  8
寸法線_1
  6
Continuous
 62
     7
100
AcDbTrace
 10
550.7259199367126
 20
679.2144042871369
 30
0.0
 11
555.2259199367126
 21
679.2144042871369
 31
0.0
 12
549.2259199367127
 22
680.7144042871368
 32
0.0
 13
549.2259199367127
 23
680.7144042871368
 33
0.0
  0
SOLID
  5
BB5
330
315
100
AcDbEntity
  8
寸法線_1
  6
Continuous
 62
     7
100
AcDbTrace
 10
549.2259199367127
 20
677.7144042871368
 30
0.0
 11
549.2259199367127
 21
677.7144042871368
 31
0.0
 12
550.7259199367126
 22
679.2144042871369
 32
0.0
 13
555.2259199367126
 23
679.2144042871369
 33
0.0
  0
LINE
  5
BB6
330
315
100
AcDbEntity
  8
寸法線_1
  6
Continuous
 62
     7
100
AcDbLine
 10
555.2259199367126
 20
655.2639610193145
 30
0.0
 11
555.2259199367126
 21
679.7144042871368
 31
0.0
  0
LINE
  5
BB7
330
315
100
AcDbEntity
  8
寸法線_1
  6
Continuous
 62
     7
100
AcDbLine
 10
559.7259199367126
 20
655.2639610193145
 30
0.0
 11
559.7259199367126
 21
679.7144042871368
 31
0.0
  0
LINE
  5
BB8
330
315
100
AcDbEntity
  8
寸法線_1
  6
Continuous
 62
     7
100
AcDbLine
 10
555.2259199367126
 20
679.2144042871369
 30
0.0
 11
559.7259199367126
 21
679.2144042871369
 31
0.0
  0
TEXT
  5
BB9
330
315
100
AcDbEntity
  8
寸法線_1
  6
Continuous
 62
     7
100
AcDbText
 10
600.4469847824337
 20
575.2361833475005
 30
0.0
 40
7.055555343627929
  1
20
 50
90.0
  7
STYLE1
100
AcDbText
  0
LINE
  5
BBA
330
315
100
AcDbEntity
  8
寸法線_1
  6
Continuous
 62
     7
100
AcDbLine
 10
602.4759199367127
 20
568.7639610193145
 30
0.0
 11
602.4759199367127
 21
565.7639610193146
 31
0.0
  0
SOLID
  5
BBB
330
315
100
AcDbEntity
  8
寸法線_1
  6
Continuous
 62
     7
100
AcDbTrace
 10
601.3509199367128
 20
564.2639610193145
 30
0.0
 11
603.6009199367128
 21
564.2639610193145
 31
0.0
 12
602.4759199367127
 22
568.7639610193145
 32
0.0
 13
602.4759199367127
 23
568.7639610193145
 33
0.0
  0
SOLID
  5
BBC
330
315
100
AcDbEntity
  8
寸法線_1
  6
Continuous
 62
     7
100
AcDbTrace
 10
603.9759199367128
 20
562.7639610193146
 30
0.0
 11
603.9759199367128
 21
562.7639610193146
 31
0.0
 12
602.4759199367127
 22
564.2639610193145
 32
0.0
 13
603.6009199367128
 23
564.2639610193145
 33
0.0
  0
SOLID
  5
BBD
330
315
100
AcDbEntity
  8
寸法線_1
  6
Continuous
 62
     7
100
AcDbTrace
 10
600.9759199367127
 20
562.7639610193146
 30
0.0
 11
600.9759199367127
 21
562.7639610193146
 31
0.0
 12
601.3509199367128
 22
564.2639610193145
 32
0.0
 13
602.4759199367127
 23
564.2639610193145
 33
0.0
  0
LINE
  5
BBE
330
315
100
AcDbEntity
  8
寸法線_1
  6
Continuous
 62
     7
100
AcDbLine
 10
602.4759199367127
 20
588.7639610193145
 30
0.0
 11
602.4759199367127
 21
591.7639610193145
 31
0.0
  0
SOLID
  5
BBF
330
315
100
AcDbEntity
  8
寸法線_1
  6
Continuous
 62
     7
100
AcDbTrace
 10
602.4759199367127
 20
593.2639610193144
 30
0.0
 11
603.6009199367128
 21
593.2639610193144
 31
0.0
 12
603.9759199367128
 22
594.7639610193144
 32
0.0
 13
603.9759199367128
 23
594.7639610193144
 33
0.0
  0
SOLID
  5
BC0
330
315
100
AcDbEntity
  8
寸法線_1
  6
Continuous
 62
     7
100
AcDbTrace
 10
601.3509199367128
 20
593.2639610193144
 30
0.0
 11
602.4759199367127
 21
593.2639610193144
 31
0.0
 12
600.9759199367127
 22
594.7639610193144
 32
0.0
 13
600.9759199367127
 23
594.7639610193144
 33
0.0
  0
SOLID
  5
BC1
330
315
100
AcDbEntity
  8
寸法線_1
  6
Continuous
 62
     7
100
AcDbTrace
 10
602.4759199367127
 20
588.7639610193145
 30
0.0
 11
602.4759199367127
 21
588.7639610193145
 31
0.0
 12
601.3509199367128
 22
593.2639610193144
 32
0.0
 13
603.6009199367128
 23
593.2639610193144
 33
0.0
  0
LINE
  5
BC2
330
315
100
AcDbEntity
  8
寸法線_1
  6
Continuous
 62
     7
100
AcDbLine
 10
550.9759199367127
 20
588.7639610193145
 30
0.0
 11
602.9759199367127
 21
588.7639610193145
 31
0.0
  0
LINE
  5
BC3
330
315
100
AcDbEntity
  8
寸法線_1
  6
Continuous
 62
     7
100
AcDbLine
 10
580.9759199367127
 20
568.7639610193145
 30
0.0
 11
602.9759199367127
 21
568.7639610193145
 31
0.0
  0
LINE
  5
BC4
330
315
100
AcDbEntity
  8
寸法線_1
  6
Continuous
 62
     7
100
AcDbLine
 10
602.4759199367127
 20
588.7639610193145
 30
0.0
 11
602.4759199367127
 21
568.7639610193145
 31
0.0
  0
TEXT
  5
BC5
330
315
100
AcDbEntity
  8
寸法線_1
  6
Continuous
 62
     7
100
AcDbText
 10
600.4469847824337
 20
615.2361833475005
 30
0.0
 40
7.055555343627929
  1
20
 50
90.0
  7
STYLE1
100
AcDbText
  0
LINE
  5
BC6
330
315
100
AcDbEntity
  8
寸法線_1
  6
Continuous
 62
     7
100
AcDbLine
 10
602.4759199367127
 20
608.7639610193145
 30
0.0
 11
602.4759199367127
 21
605.7639610193144
 31
0.0
  0
SOLID
  5
BC7
330
315
100
AcDbEntity
  8
寸法線_1
  6
Continuous
 62
     7
100
AcDbTrace
 10
601.3509199367128
 20
604.2639610193145
 30
0.0
 11
603.6009199367128
 21
604.2639610193145
 31
0.0
 12
602.4759199367127
 22
608.7639610193145
 32
0.0
 13
602.4759199367127
 23
608.7639610193145
 33
0.0
  0
SOLID
  5
BC8
330
315
100
AcDbEntity
  8
寸法線_1
  6
Continuous
 62
     7
100
AcDbTrace
 10
603.9759199367128
 20
602.7639610193144
 30
0.0
 11
603.9759199367128
 21
602.7639610193144
 31
0.0
 12
602.4759199367127
 22
604.2639610193145
 32
0.0
 13
603.6009199367128
 23
604.2639610193145
 33
0.0
  0
SOLID
  5
BC9
330
315
100
AcDbEntity
  8
寸法線_1
  6
Continuous
 62
     7
100
AcDbTrace
 10
600.9759199367127
 20
602.7639610193144
 30
0.0
 11
600.9759199367127
 21
602.7639610193144
 31
0.0
 12
601.3509199367128
 22
604.2639610193145
 32
0.0
 13
602.4759199367127
 23
604.2639610193145
 33
0.0
  0
LINE
  5
BCA
330
315
100
AcDbEntity
  8
寸法線_1
  6
Continuous
 62
     7
100
AcDbLine
 10
602.4759199367127
 20
628.7639610193146
 30
0.0
 11
602.4759199367127
 21
631.7639610193146
 31
0.0
  0
SOLID
  5
BCB
330
315
100
AcDbEntity
  8
寸法線_1
  6
Continuous
 62
     7
100
AcDbTrace
 10
602.4759199367127
 20
633.2639610193146
 30
0.0
 11
603.6009199367128
 21
633.2639610193146
 31
0.0
 12
603.9759199367128
 22
634.7639610193145
 32
0.0
 13
603.9759199367128
 23
634.7639610193145
 33
0.0
  0
SOLID
  5
BCC
330
315
100
AcDbEntity
  8
寸法線_1
  6
Continuous
 62
     7
100
AcDbTrace
 10
601.3509199367128
 20
633.2639610193146
 30
0.0
 11
602.4759199367127
 21
633.2639610193146
 31
0.0
 12
600.9759199367127
 22
634.7639610193145
 32
0.0
 13
600.9759199367127
 23
634.7639610193145
 33
0.0
  0
SOLID
  5
BCD
330
315
100
AcDbEntity
  8
寸法線_1
  6
Continuous
 62
     7
100
AcDbTrace
 10
602.4759199367127
 20
628.7639610193146
 30
0.0
 11
602.4759199367127
 21
628.7639610193146
 31
0.0
 12
601.3509199367128
 22
633.2639610193146
 32
0.0
 13
603.6009199367128
 23
633.2639610193146
 33
0.0
  0
LINE
  5
BCE
330
315
100
AcDbEntity
  8
寸法線_1
  6
Continuous
 62
     7
100
AcDbLine
 10
550.9759199367127
 20
628.7639610193146
 30
0.0
 11
602.9759199367127
 21
628.7639610193146
 31
0.0
  0
LINE
  5
BCF
330
315
100
AcDbEntity
  8
寸法線_1
  6
Continuous
 62
     7
100
AcDbLine
 10
580.9759199367127
 20
608.7639610193145
 30
0.0
 11
602.9759199367127
 21
608.7639610193145
 31
0.0
  0
LINE
  5
BD0
330
315
100
AcDbEntity
  8
寸法線_1
  6
Continuous
 62
     7
100
AcDbLine
 10
602.4759199367127
 20
628.7639610193146
 30
0.0
 11
602.4759199367127
 21
608.7639610193145
 31
0.0
  0
TEXT
  5
BD1
330
315
100
AcDbEntity
  8
寸法線_1
  6
Continuous
 62
     7
100
AcDbText
 10
600.4469847824337
 20
595.2361833475005
 30
0.0
 40
7.055555343627929
  1
20
 50
90.0
  7
STYLE1
100
AcDbText
  0
LINE
  5
BD2
330
315
100
AcDbEntity
  8
寸法線_1
  6
Continuous
 62
     7
100
AcDbLine
 10
602.4759199367127
 20
588.7639610193145
 30
0.0
 11
602.4759199367127
 21
585.7639610193145
 31
0.0
  0
SOLID
  5
BD3
330
315
100
AcDbEntity
  8
寸法線_1
  6
Continuous
 62
     7
100
AcDbTrace
 10
601.3509199367128
 20
584.2639610193145
 30
0.0
 11
603.6009199367128
 21
584.2639610193145
 31
0.0
 12
602.4759199367127
 22
588.7639610193145
 32
0.0
 13
602.4759199367127
 23
588.7639610193145
 33
0.0
  0
SOLID
  5
BD4
330
315
100
AcDbEntity
  8
寸法線_1
  6
Continuous
 62
     7
100
AcDbTrace
 10
603.9759199367128
 20
582.7639610193146
 30
0.0
 11
603.9759199367128
 21
582.7639610193146
 31
0.0
 12
602.4759199367127
 22
584.2639610193145
 32
0.0
 13
603.6009199367128
 23
584.2639610193145
 33
0.0
  0
SOLID
  5
BD5
330
315
100
AcDbEntity
  8
寸法線_1
  6
Continuous
 62
     7
100
AcDbTrace
 10
600.9759199367127
 20
582.7639610193146
 30
0.0
 11
600.9759199367127
 21
582.7639610193146
 31
0.0
 12
601.3509199367128
 22
584.2639610193145
 32
0.0
 13
602.4759199367127
 23
584.2639610193145
 33
0.0
  0
LINE
  5
BD6
330
315
100
AcDbEntity
  8
寸法線_1
  6
Continuous
 62
     7
100
AcDbLine
 10
602.4759199367127
 20
608.7639610193145
 30
0.0
 11
602.4759199367127
 21
611.7639610193144
 31
0.0
  0
SOLID
  5
BD7
330
315
100
AcDbEntity
  8
寸法線_1
  6
Continuous
 62
     7
100
AcDbTrace
 10
602.4759199367127
 20
613.2639610193145
 30
0.0
 11
603.6009199367128
 21
613.2639610193145
 31
0.0
 12
603.9759199367128
 22
614.7639610193144
 32
0.0
 13
603.9759199367128
 23
614.7639610193144
 33
0.0
  0
SOLID
  5
BD8
330
315
100
AcDbEntity
  8
寸法線_1
  6
Continuous
 62
     7
100
AcDbTrace
 10
601.3509199367128
 20
613.2639610193145
 30
0.0
 11
602.4759199367127
 21
613.2639610193145
 31
0.0
 12
600.9759199367127
 22
614.7639610193144
 32
0.0
 13
600.9759199367127
 23
614.7639610193144
 33
0.0
  0
SOLID
  5
BD9
330
315
100
AcDbEntity
  8
寸法線_1
  6
Continuous
 62
     7
100
AcDbTrace
 10
602.4759199367127
 20
608.7639610193145
 30
0.0
 11
602.4759199367127
 21
608.7639610193145
 31
0.0
 12
601.3509199367128
 22
613.2639610193145
 32
0.0
 13
603.6009199367128
 23
613.2639610193145
 33
0.0
  0
LINE
  5
BDA
330
315
100
AcDbEntity
  8
寸法線_1
  6
Continuous
 62
     7
100
AcDbLine
 10
580.9759199367127
 20
608.7639610193145
 30
0.0
 11
602.9759199367127
 21
608.7639610193145
 31
0.0
  0
LINE
  5
BDB
330
315
100
AcDbEntity
  8
寸法線_1
  6
Continuous
 62
     7
100
AcDbLine
 10
550.9759199367127
 20
588.7639610193145
 30
0.0
 11
602.9759199367127
 21
588.7639610193145
 31
0.0
  0
LINE
  5
BDC
330
315
100
AcDbEntity
  8
寸法線_1
  6
Continuous
 62
     7
100
AcDbLine
 10
602.4759199367127
 20
608.7639610193145
 30
0.0
 11
602.4759199367127
 21
588.7639610193145
 31
0.0
  0
TEXT
  5
BDD
330
315
100
AcDbEntity
  8
寸法線_1
  6
Continuous
 62
     7
100
AcDbText
 10
476.7826324487533
 20
489.5484979731049
 30
0.0
 40
7.055555343627929
  1
5－\U+03C66穴　皿\U+03C611
 50
325.0000000000034
  7
STYLE1
100
AcDbText
  0
LINE
  5
BDE
330
315
100
AcDbEntity
  8
寸法線_1
  6
Continuous
 62
     7
100
AcDbLine
 10
553.6688928308966
 20
432.7334124443328
 30
0.0
 11
475.3830794316304
 21
487.549729121371
 31
0.0
  0
SOLID
  5
BDF
330
315
100
AcDbEntity
  8
寸法線_1
  6
Continuous
 62
     7
100
AcDbTrace
 10
549.9827086315961
 20
435.3145064079122
 30
0.0
 11
551.428046999406
 21
435.3145064079122
 31
0.0
 12
549.614345219689
 22
437.4035991288724
 32
0.0
 13
549.614345219689
 23
437.4035991288724
 33
0.0
  0
SOLID
  5
BE0
330
315
100
AcDbEntity
  8
寸法線_1
  6
Continuous
 62
     7
100
AcDbTrace
 10
547.8936159106361
 20
434.9461429960053
 30
0.0
 11
551.7478515581292
 21
434.9461429960053
 31
0.0
 12
549.9827086315961
 22
435.3145064079122
 32
0.0
 13
551.428046999406
 23
435.3145064079122
 33
0.0
  0
SOLID
  5
BE1
330
315
100
AcDbEntity
  8
寸法線_1
  6
Continuous
 62
     7
100
AcDbTrace
 10
553.6688928308966
 20
432.7334124443328
 30
0.0
 11
553.6688928308966
 21
432.7334124443328
 31
0.0
 12
547.8936159106361
 22
434.9461429960053
 32
0.0
 13
551.7478515581292
 23
434.9461429960053
 33
0.0
  0
TEXT
  5
BE2
330
315
100
AcDbEntity
  8
寸法線_1
  6
Continuous
 62
     7
100
AcDbText
 10
600.4469847824337
 20
415.2361833475005
 30
0.0
 40
7.055555343627929
  1
20
 50
90.0
  7
STYLE1
100
AcDbText
  0
LINE
  5
BE3
330
315
100
AcDbEntity
  8
寸法線_1
  6
Continuous
 62
     7
100
AcDbLine
 10
602.4759199367127
 20
408.7639610193145
 30
0.0
 11
602.4759199367127
 21
405.7639610193144
 31
0.0
  0
SOLID
  5
BE4
330
315
100
AcDbEntity
  8
寸法線_1
  6
Continuous
 62
     7
100
AcDbTrace
 10
601.3509199367128
 20
404.2639610193145
 30
0.0
 11
603.6009199367128
 21
404.2639610193145
 31
0.0
 12
602.4759199367127
 22
408.7639610193145
 32
0.0
 13
602.4759199367127
 23
408.7639610193145
 33
0.0
  0
SOLID
  5
BE5
330
315
100
AcDbEntity
  8
寸法線_1
  6
Continuous
 62
     7
100
AcDbTrace
 10
603.9759199367128
 20
402.7639610193144
 30
0.0
 11
603.9759199367128
 21
402.7639610193144
 31
0.0
 12
602.4759199367127
 22
404.2639610193145
 32
0.0
 13
603.6009199367128
 23
404.2639610193145
 33
0.0
  0
SOLID
  5
BE6
330
315
100
AcDbEntity
  8
寸法線_1
  6
Continuous
 62
     7
100
AcDbTrace
 10
600.9759199367127
 20
402.7639610193144
 30
0.0
 11
600.9759199367127
 21
402.7639610193144
 31
0.0
 12
601.3509199367128
 22
404.2639610193145
 32
0.0
 13
602.4759199367127
 23
404.2639610193145
 33
0.0
  0
LINE
  5
BE7
330
315
100
AcDbEntity
  8
寸法線_1
  6
Continuous
 62
     7
100
AcDbLine
 10
602.4759199367127
 20
428.7639610193144
 30
0.0
 11
602.4759199367127
 21
431.7639610193144
 31
0.0
  0
SOLID
  5
BE8
330
315
100
AcDbEntity
  8
寸法線_1
  6
Continuous
 62
     7
100
AcDbTrace
 10
602.4759199367127
 20
433.2639610193144
 30
0.0
 11
603.6009199367128
 21
433.2639610193144
 31
0.0
 12
603.9759199367128
 22
434.7639610193144
 32
0.0
 13
603.9759199367128
 23
434.7639610193144
 33
0.0
  0
SOLID
  5
BE9
330
315
100
AcDbEntity
  8
寸法線_1
  6
Continuous
 62
     7
100
AcDbTrace
 10
601.3509199367128
 20
433.2639610193144
 30
0.0
 11
602.4759199367127
 21
433.2639610193144
 31
0.0
 12
600.9759199367127
 22
434.7639610193144
 32
0.0
 13
600.9759199367127
 23
434.7639610193144
 33
0.0
  0
SOLID
  5
BEA
330
315
100
AcDbEntity
  8
寸法線_1
  6
Continuous
 62
     7
100
AcDbTrace
 10
602.4759199367127
 20
428.7639610193144
 30
0.0
 11
602.4759199367127
 21
428.7639610193144
 31
0.0
 12
601.3509199367128
 22
433.2639610193144
 32
0.0
 13
603.6009199367128
 23
433.2639610193144
 33
0.0
  0
LINE
  5
BEB
330
315
100
AcDbEntity
  8
寸法線_1
  6
Continuous
 62
     7
100
AcDbLine
 10
565.9759199367128
 20
428.7639610193144
 30
0.0
 11
602.9759199367127
 21
428.7639610193144
 31
0.0
  0
LINE
  5
BEC
330
315
100
AcDbEntity
  8
寸法線_1
  6
Continuous
 62
     7
100
AcDbLine
 10
558.4759199367125
 20
408.7639610193145
 30
0.0
 11
602.9759199367127
 21
408.7639610193145
 31
0.0
  0
LINE
  5
BED
330
315
100
AcDbEntity
  8
寸法線_1
  6
Continuous
 62
     7
100
AcDbLine
 10
602.4759199367127
 20
428.7639610193144
 30
0.0
 11
602.4759199367127
 21
408.7639610193145
 31
0.0
  0
TEXT
  5
BEE
330
315
100
AcDbEntity
  8
寸法線_1
  6
Continuous
 62
     7
100
AcDbText
 10
525.0277445449651
 20
384.5710123804345
 30
0.0
 40
7.055555343627929
  1
R50
 50
54.99999999999982
  7
STYLE1
100
AcDbText
  0
LINE
  5
BEF
330
315
100
AcDbEntity
  8
寸法線_1
  6
Continuous
 62
     7
100
AcDbLine
 10
545.8981052854435
 20
410.1228857032727
 30
0.0
 11
527.0265133966989
 21
383.1714593633117
 31
0.0
  0
SOLID
  5
BF0
330
315
100
AcDbEntity
  8
寸法線_1
  6
Continuous
 62
     7
100
AcDbTrace
 10
541.6522140011116
 20
406.4367015039722
 30
0.0
 11
544.4857864461043
 21
406.4367015039722
 31
0.0
 12
545.8981052854435
 22
410.1228857032727
 32
0.0
 13
545.8981052854435
 23
410.1228857032727
 33
0.0
  0
SOLID
  5
BF1
330
315
100
AcDbEntity
  8
寸法線_1
  6
Continuous
 62
     7
100
AcDbTrace
 10
543.3819637300888
 20
406.0683380920653
 30
0.0
 11
544.3446522655448
 21
406.0683380920653
 31
0.0
 12
543.3170113218637
 22
406.4367015039722
 32
0.0
 13
544.4857864461043
 23
406.4367015039722
 33
0.0
  0
SOLID
  5
BF2
330
315
100
AcDbEntity
  8
寸法線_1
  6
Continuous
 62
     7
100
AcDbTrace
 10
541.2279186009037
 20
406.0683380920653
 30
0.0
 11
541.2279186009037
 21
406.0683380920653
 31
0.0
 12
541.6522140011116
 22
406.4367015039722
 32
0.0
 13
543.3170113218637
 23
406.4367015039722
 33
0.0
  0
SOLID
  5
BF3
330
315
100
AcDbEntity
  8
寸法線_1
  6
Continuous
 62
     7
100
AcDbTrace
 10
543.6853747337708
 20
404.3476087830121
 30
0.0
 11
543.6853747337708
 21
404.3476087830121
 31
0.0
 12
543.3819637300888
 22
406.0683380920653
 32
0.0
 13
544.3446522655448
 23
406.0683380920653
 33
0.0
  0
LINE
  5
BF4
330
315
100
AcDbEntity
  8
0
  6
CENTER
 62
     3
100
AcDbLine
 10
572.4759199367126
 20
616.2639610193145
 30
0.0
 11
572.4759199367126
 21
601.2639610193144
 31
0.0
  0
LINE
  5
BF5
330
315
100
AcDbEntity
  8
0
  6
Continuous
 62
     5
100
AcDbLine
 10
555.2259199367126
 20
654.2639610193146
 30
0.0
 11
555.2259199367126
 21
459.2639610193145
 31
0.0
  0
LINE
  5
BF6
330
315
100
AcDbEntity
  8
0
  6
Continuous
 62
     5
100
AcDbLine
 10
559.7259199367126
 20
654.2639610193146
 30
0.0
 11
559.7259199367126
 21
459.2639610193145
 31
0.0
  0
LINE
  5
BF7
330
315
100
AcDbEntity
  8
0
  6
Continuous
 62
     5
100
AcDbLine
 10
582.4759199367125
 20
658.7639610193146
 30
0.0
 11
582.4759199367125
 21
415.4626908300925
 31
0.0
  0
LINE
  5
BF8
330
315
100
AcDbEntity
  8
0
  6
CENTER
 62
     3
100
AcDbLine
 10
542.4759199367127
 20
636.2639610193146
 30
0.0
 11
542.4759199367127
 21
621.2639610193145
 31
0.0
  0
LINE
  5
BF9
330
315
100
AcDbEntity
  8
0
  6
CENTER
 62
     3
100
AcDbLine
 10
534.9759199367126
 20
588.7639610193145
 30
0.0
 11
549.9759199367126
 21
588.7639610193145
 31
0.0
  0
LINE
  5
BFA
330
315
100
AcDbEntity
  8
0
  6
CENTER
 62
     3
100
AcDbLine
 10
542.4759199367127
 20
581.2639610193145
 30
0.0
 11
542.4759199367127
 21
596.2639610193145
 31
0.0
  0
LINE
  5
BFB
330
315
100
AcDbEntity
  8
0
  6
Continuous
 62
     5
100
AcDbLine
 10
532.4759199367126
 20
658.7639610193146
 30
0.0
 11
532.4759199367126
 21
415.4626908300925
 31
0.0
  0
ARC
  5
BFC
330
315
100
AcDbEntity
  8
0
  6
Continuous
 62
     5
100
AcDbCircle
 10
557.4759199367126
 20
458.7639610193145
 30
0.0
 40
50.00000000000002
100
AcDbArc
 50
240.0
 51
300.0
  0
LINE
  5
BFD
330
315
100
AcDbEntity
  8
0
  6
Continuous
 62
     5
100
AcDbLine
 10
559.7259199367126
 20
459.2639610193145
 30
0.0
 11
555.2259199367126
 21
459.2639610193145
 31
0.0
  0
LINE
  5
BFE
330
315
100
AcDbEntity
  8
0
  6
Continuous
 62
     5
100
AcDbLine
 10
582.4759199367125
 20
654.2639610193146
 30
0.0
 11
532.4759199367126
 21
654.2639610193146
 31
0.0
  0
LINE
  5
BFF
330
315
100
AcDbEntity
  8
0
  6
Continuous
 62
     5
100
AcDbLine
 10
582.4759199367125
 20
658.7639610193146
 30
0.0
 11
532.4759199367126
 21
658.7639610193146
 31
0.0
  0
CIRCLE
  5
C00
330
315
100
AcDbEntity
  8
0
  6
Continuous
 62
     5
100
AcDbCircle
 10
542.4759199367127
 20
588.7639610193145
 30
0.0
 40
5.499999999999915
  0
CIRCLE
  5
C01
330
315
100
AcDbEntity
  8
0
  6
Continuous
 62
     5
100
AcDbCircle
 10
542.4759199367127
 20
588.7639610193145
 30
0.0
 40
3.000000000000064
  0
CIRCLE
  5
C02
330
315
100
AcDbEntity
  8
0
  6
Continuous
 62
     5
100
AcDbCircle
 10
542.4759199367127
 20
628.7639610193146
 30
0.0
 40
5.499999999999882
  0
CIRCLE
  5
C03
330
315
100
AcDbEntity
  8
0
  6
Continuous
 62
     5
100
AcDbCircle
 10
542.4759199367127
 20
628.7639610193146
 30
0.0
 40
3.000000000000024
  0
CIRCLE
  5
C04
330
315
100
AcDbEntity
  8
0
  6
Continuous
 62
     5
100
AcDbCircle
 10
572.4759199367126
 20
608.7639610193145
 30
0.0
 40
5.499999999999915
  0
CIRCLE
  5
C05
330
315
100
AcDbEntity
  8
0
  6
Continuous
 62
     5
100
AcDbCircle
 10
557.4759199367126
 20
428.7639610193144
 30
0.0
 40
5.499999999999915
  0
CIRCLE
  5
C06
330
315
100
AcDbEntity
  8
0
  6
Continuous
 62
     5
100
AcDbCircle
 10
557.4759199367126
 20
428.7639610193144
 30
0.0
 40
3.000000000000064
  0
LINE
  5
C07
330
315
100
AcDbEntity
  8
0
  6
CENTER
 62
     3
100
AcDbLine
 10
557.4759199367126
 20
436.2639610193144
 30
0.0
 11
557.4759199367126
 21
421.2639610193144
 31
0.0
  0
LINE
  5
C08
330
315
100
AcDbEntity
  8
0
  6
CENTER
 62
     3
100
AcDbLine
 10
549.9759199367126
 20
428.7639610193144
 30
0.0
 11
564.9759199367126
 21
428.7639610193144
 31
0.0
  0
LINE
  5
C09
330
315
100
AcDbEntity
  8
0
  6
CENTER
 62
     3
100
AcDbLine
 10
557.4759199367126
 20
664.2639610193145
 30
0.0
 11
557.4759199367126
 21
403.2639610193144
 31
0.0
  0
LINE
  5
C0A
330
315
100
AcDbEntity
  8
0
  6
CENTER
 62
     3
100
AcDbLine
 10
534.9759199367126
 20
628.7639610193146
 30
0.0
 11
549.9759199367126
 21
628.7639610193146
 31
0.0
  0
LINE
  5
C0B
330
315
100
AcDbEntity
  8
0
  6
CENTER
 62
     3
100
AcDbLine
 10
564.9759199367126
 20
568.7639610193145
 30
0.0
 11
579.9759199367127
 21
568.7639610193145
 31
0.0
  0
LINE
  5
C0C
330
315
100
AcDbEntity
  8
0
  6
CENTER
 62
     3
100
AcDbLine
 10
572.4759199367126
 20
576.2639610193145
 30
0.0
 11
572.4759199367126
 21
561.2639610193144
 31
0.0
  0
LINE
  5
C0D
330
315
100
AcDbEntity
  8
0
  6
CENTER
 62
     3
100
AcDbLine
 10
564.9759199367126
 20
608.7639610193145
 30
0.0
 11
579.9759199367127
 21
608.7639610193145
 31
0.0
  0
CIRCLE
  5
C0E
330
315
100
AcDbEntity
  8
0
  6
Continuous
 62
     5
100
AcDbCircle
 10
572.4759199367126
 20
608.7639610193145
 30
0.0
 40
3.000000000000064
  0
CIRCLE
  5
C0F
330
315
100
AcDbEntity
  8
0
  6
Continuous
 62
     5
100
AcDbCircle
 10
572.4759199367126
 20
568.7639610193145
 30
0.0
 40
5.499999999999915
  0
CIRCLE
  5
C10
330
315
100
AcDbEntity
  8
0
  6
Continuous
 62
     5
100
AcDbCircle
 10
572.4759199367126
 20
568.7639610193145
 30
0.0
 40
3.000000000000064
  0
TEXT
  5
C74
330
315
100
AcDbEntity
  8
____1
  6
Continuous
 62
     0
100
AcDbText
 10
1139.740875733549
 20
694.7228107397201
 30
0.0
 40
4.93888874053955
  1
ブラック色を追加
  7
STYLE1
100
AcDbText
  0
LINE
  5
C75
330
315
100
AcDbEntity
  8
____1
  6
Continuous
 62
     0
100
AcDbLine
 10
1075.075639770744
 20
692.2023737985202
 30
0.0
 11
1255.075639770743
 21
692.2023737985202
 31
0.0
  0
TEXT
  5
C76
330
315
100
AcDbEntity
  8
____1
  6
Continuous
 62
     0
100
AcDbText
 10
1098.853360795633
 20
694.7228107397201
 30
0.0
 40
4.93888874053955
  1
2020.03.10
  7
STYLE1
100
AcDbText
  0
TEXT
  5
C77
330
315
100
AcDbEntity
  8
____1
  6
Continuous
 62
     0
100
AcDbText
 10
1083.043747179425
 20
694.1639059286426
 30
0.0
 40
4.682630310058594
  1
4
  7
STYLE1
100
AcDbText
  0
LINE
  5
C78
330
315
100
AcDbEntity
  8
____1
  6
Continuous
 62
     0
100
AcDbLine
 10
1084.507068998659
 20
701.6376087979927
 30
0.0
 11
1089.457068998659
 21
693.0639573005266
 31
0.0
  0
LINE
  5
C79
330
315
100
AcDbEntity
  8
____1
  6
Continuous
 62
     0
100
AcDbLine
 10
1084.507068998659
 20
701.6376087979927
 30
0.0
 11
1079.557068998659
 21
693.0639573005266
 31
0.0
  0
LINE
  5
C7A
330
315
100
AcDbEntity
  8
____1
  6
Continuous
 62
     0
100
AcDbLine
 10
1079.557068998659
 20
693.0639573005266
 30
0.0
 11
1089.457068998659
 21
693.0639573005266
 31
0.0
  0
TEXT
  5
CB2
330
315
100
AcDbEntity
  8
____1
  6
Continuous
 62
     7
100
AcDbText
 10
962.0404037539703
 20
256.2173531584686
 30
0.0
 40
6.773332977294922
  1
表面処理：粉体塗装仕上げ
  7
STYLE1
100
AcDbText
  0
TEXT
  5
CB3
330
315
100
AcDbEntity
  8
____1
  6
Continuous
 62
     7
100
AcDbText
 10
1142.565289052741
 20
229.4762334681462
 30
0.0
 40
6.773332977294922
  1
ＬＹ-８３７／８３７Ｂ
  7
STYLE1
100
AcDbText
  0
LINE
  5
CB4
330
315
100
AcDbEntity
  8
____1
  6
Continuous
 62
     0
100
AcDbLine
 10
1178.044493574667
 20
247.0877563836242
 30
0.0
 11
1173.094493574666
 21
238.5141048861582
 31
0.0
  0
LINE
  5
CB5
330
315
100
AcDbEntity
  8
____1
  6
Continuous
 62
     0
100
AcDbLine
 10
1178.044493574667
 20
247.0877563836242
 30
0.0
 11
1182.994493574666
 21
238.5141048861582
 31
0.0
  0
LINE
  5
CB6
330
315
100
AcDbEntity
  8
____1
  6
Continuous
 62
     0
100
AcDbLine
 10
1173.094493574666
 20
238.5141048861582
 30
0.0
 11
1182.994493574666
 21
238.5141048861582
 31
0.0
  0
TEXT
  5
CB7
330
315
100
AcDbEntity
  8
____1
  6
Continuous
 62
     0
100
AcDbText
 10
1176.581171755433
 20
239.614053514274
 30
0.0
 40
4.682630310058594
  1
3
  7
STYLE1
100
AcDbText
  0
LINE
  5
CB8
330
315
100
AcDbEntity
  8
____1
  6
Continuous
 62
     0
100
AcDbLine
 10
1213.186908676737
 20
247.0877563836242
 30
0.0
 11
1208.236908676737
 21
238.5141048861582
 31
0.0
  0
LINE
  5
CB9
330
315
100
AcDbEntity
  8
____1
  6
Continuous
 62
     0
100
AcDbLine
 10
1213.186908676737
 20
247.0877563836242
 30
0.0
 11
1218.136908676737
 21
238.5141048861582
 31
0.0
  0
LINE
  5
CBA
330
315
100
AcDbEntity
  8
____1
  6
Continuous
 62
     0
100
AcDbLine
 10
1208.236908676737
 20
238.5141048861582
 30
0.0
 11
1218.136908676737
 21
238.5141048861582
 31
0.0
  0
TEXT
  5
CBB
330
315
100
AcDbEntity
  8
____1
  6
Continuous
 62
     0
100
AcDbText
 10
1211.723586857504
 20
239.614053514274
 30
0.0
 40
4.682630310058594
  1
4
  7
STYLE1
100
AcDbText
  0
TEXT
  5
CBC
330
315
100
AcDbEntity
  8
____1
  6
Continuous
 62
     7
100
AcDbText
 10
1156.470748894564
 20
188.1733272908458
 30
0.0
 40
6.773332977294922
  1
ＳＲＫ００００６
  7
STYLE1
100
AcDbText
  0
LINE
  5
CBD
330
315
100
AcDbEntity
  8
____1
  6
Continuous
 62
     7
100
AcDbLine
 10
911.2695235488978
 20
248.20237379852
 30
0.0
 11
626.4491128617571
 21
248.20237379852
 31
0.0
  0
LINE
  5
CBE
330
315
100
AcDbEntity
  8
____1
  6
Continuous
 62
     7
100
AcDbLine
 10
626.4491128617571
 20
248.20237379852
 30
0.0
 11
626.4491128617571
 21
205.639936550371
 31
0.0
  0
LINE
  5
CBF
330
315
100
AcDbEntity
  8
____1
  6
Continuous
 62
     7
100
AcDbLine
 10
682.7453594232531
 20
248.20237379852
 30
0.0
 11
682.745359423253
 21
205.639936550371
 31
0.0
  0
TEXT
  5
CC0
330
315
100
AcDbEntity
  8
____1
  6
Continuous
 62
     7
100
AcDbText
 10
637.0599317950616
 20
229.5158705190559
 30
0.0
 40
5.644444274902344
  1
 型　　番
  7
STYLE1
 72
     1
 11
653.5634845988369
 21
229.5158705190559
 31
0.0
100
AcDbText
  0
LINE
  5
CC1
330
315
100
AcDbEntity
  8
____1
  6
Continuous
 62
     7
100
AcDbLine
 10
626.4491128617571
 20
226.9211551744454
 30
0.0
 11
911.2695235488978
 21
226.9211551744454
 31
0.0
  0
LINE
  5
CC2
330
315
100
AcDbEntity
  8
____1
  6
Continuous
 62
     7
100
AcDbLine
 10
626.4491128617571
 20
216.2805458624082
 30
0.0
 11
753.0098729041085
 21
216.2805458624083
 31
0.0
  0
LINE
  5
CC3
330
315
100
AcDbEntity
  8
____1
  6
Continuous
 62
     7
100
AcDbLine
 10
870.4626618586784
 20
216.2805458624083
 30
0.0
 11
911.2695235488978
 21
216.2805458624082
 31
0.0
  0
TEXT
  5
CC4
330
315
100
AcDbEntity
  8
____1
  6
Continuous
 62
     7
100
AcDbText
 10
626.5677136538575
 20
218.8752612070187
 30
0.0
 40
5.644444274902344
  1
 ＬＹ-８３７
  7
STYLE1
100
AcDbText
  0
LINE
  5
CC5
330
315
100
AcDbEntity
  8
____1
  6
Continuous
 62
     7
100
AcDbLine
 10
626.4491128617571
 20
205.639936550371
 30
0.0
 11
911.2695235488978
 21
205.639936550371
 31
0.0
  0
TEXT
  5
CC6
330
315
100
AcDbEntity
  8
____1
  6
Continuous
 62
     7
100
AcDbText
 10
626.5677136538575
 20
208.2346518949815
 30
0.0
 40
5.644444274902344
  1
 ＬＹ-８３７Ｂ
  7
STYLE1
100
AcDbText
  0
LINE
  5
CC7
330
315
100
AcDbEntity
  8
____1
  6
Continuous
 62
     7
100
AcDbLine
 10
753.0098729041085
 20
248.2023737985199
 30
0.0
 11
753.0098729041084
 21
205.6399365503709
 31
0.0
  0
TEXT
  5
CC8
330
315
100
AcDbEntity
  8
____1
  6
Continuous
 62
     7
100
AcDbText
 10
695.6326661187784
 20
229.5158705190559
 30
0.0
 40
5.644444274902344
  1
 本体塗装色
  7
STYLE1
 72
     1
 11
715.8036751011705
 21
229.5158705190559
 31
0.0
100
AcDbText
  0
TEXT
  5
CC9
330
315
100
AcDbEntity
  8
____1
  6
Continuous
 62
     7
100
AcDbText
 10
684.6302975829281
 20
218.8752612070186
 30
0.0
 40
5.644444274902344
  1
 ホワイト(艶あり)
  7
STYLE1
 72
     1
 11
715.8036751011705
 21
218.8752612070186
 31
0.0
100
AcDbText
  0
TEXT
  5
CCA
330
315
100
AcDbEntity
  8
____1
  6
Continuous
 62
     7
100
AcDbText
 10
684.6302975829281
 20
208.2346518949814
 30
0.0
 40
5.644444274902344
  1
 ブラック(艶消し)
  7
STYLE1
 72
     1
 11
715.8036751011705
 21
208.2346518949814
 31
0.0
100
AcDbText
  0
TEXT
  5
CCB
330
315
100
AcDbEntity
  8
____1
  6
Continuous
 62
     7
100
AcDbText
 10
781.147081641135
 20
240.1564798310932
 30
0.0
 40
5.644444274902344
  1
 【付属品】取付ビスセット
  7
STYLE1
 72
     1
 11
826.9902838738444
 21
240.1564798310932
 31
0.0
100
AcDbText
  0
TEXT
  5
CCC
330
315
100
AcDbEntity
  8
____1
  6
Continuous
 62
     0
100
AcDbText
 10
615.0814282918712
 20
218.5342068396333
 30
0.0
 40
4.682630310058594
  1
1
  7
STYLE1
100
AcDbText
  0
LINE
  5
CCD
330
315
100
AcDbEntity
  8
____1
  6
Continuous
 62
     0
100
AcDbLine
 10
611.5947501111044
 20
217.4342582115174
 30
0.0
 11
621.4947501111045
 21
217.4342582115174
 31
0.0
  0
LINE
  5
CCE
330
315
100
AcDbEntity
  8
____1
  6
Continuous
 62
     0
100
AcDbLine
 10
616.5447501111042
 20
226.0079097089834
 30
0.0
 11
621.4947501111045
 21
217.4342582115174
 31
0.0
  0
LINE
  5
CCF
330
315
100
AcDbEntity
  8
____1
  6
Continuous
 62
     0
100
AcDbLine
 10
616.5447501111042
 20
226.0079097089834
 30
0.0
 11
611.5947501111044
 21
217.4342582115174
 31
0.0
  0
LINE
  5
CD0
330
315
100
AcDbEntity
  8
____1
  6
Continuous
 62
     0
100
AcDbLine
 10
616.1936024652004
 20
215.7530625608153
 30
0.0
 11
611.2436024652004
 21
207.1794110633493
 31
0.0
  0
LINE
  5
CD1
330
315
100
AcDbEntity
  8
____1
  6
Continuous
 62
     0
100
AcDbLine
 10
616.1936024652004
 20
215.7530625608153
 30
0.0
 11
621.1436024652
 21
207.1794110633493
 31
0.0
  0
LINE
  5
CD2
330
315
100
AcDbEntity
  8
____1
  6
Continuous
 62
     0
100
AcDbLine
 10
611.2436024652004
 20
207.1794110633493
 30
0.0
 11
621.1436024652
 21
207.1794110633493
 31
0.0
  0
TEXT
  5
CD3
330
315
100
AcDbEntity
  8
____1
  6
Continuous
 62
     0
100
AcDbText
 10
614.7302806459667
 20
208.2793596914651
 30
0.0
 40
4.682630310058594
  1
4
  7
STYLE1
100
AcDbText
  0
TEXT
  5
CD4
330
315
100
AcDbEntity
  8
____1
  6
Continuous
 62
     7
100
AcDbText
 10
759.33544332367
 20
229.5158705190559
 30
0.0
 40
5.644444274902344
  1
 仕　　様 ／ 頭部の塗装色(本体と同等色)
  7
STYLE1
 72
     1
 11
830.8508388066966
 21
229.5158705190559
 31
0.0
100
AcDbText
  0
TEXT
  5
CD5
330
315
100
AcDbEntity
  8
____1
  6
Continuous
 62
     7
100
AcDbText
 10
759.0285652134062
 20
218.8752612070187
 30
0.0
 40
5.644444274902344
  1
＜壁　側＞ 鉄 皿ﾀｯﾋﾟﾝﾈｼﾞ 5x45
  7
STYLE1
100
AcDbText
  0
TEXT
  5
CD6
330
315
100
AcDbEntity
  8
____1
  6
Continuous
 62
     7
100
AcDbText
 10
759.0285652134062
 20
208.2346518949814
 30
0.0
 40
5.644444274902344
  1
＜天板側＞ 鉄 皿ﾀｯﾋﾟﾝﾈｼﾞ 5x16
  7
STYLE1
100
AcDbText
  0
TEXT
  5
CD7
330
315
100
AcDbEntity
  8
____1
  6
Continuous
 62
     7
100
AcDbText
 10
876.4699203073305
 20
218.8752612070187
 30
0.0
 40
5.644444274902344
  1
ホワイト
  7
STYLE1
100
AcDbText
  0
TEXT
  5
CD8
330
315
100
AcDbEntity
  8
____1
  6
Continuous
 62
     7
100
AcDbText
 10
876.4699203073305
 20
208.2346518949814
 30
0.0
 40
5.644444274902344
  1
ブラック
  7
STYLE1
100
AcDbText
  0
LINE
  5
CD9
330
315
100
AcDbEntity
  8
____1
  6
Continuous
 62
     7
100
AcDbLine
 10
870.4626618586782
 20
226.9211551744454
 30
0.0
 11
870.4626618586782
 21
205.6399365503709
 31
0.0
  0
LINE
  5
CDA
330
315
100
AcDbEntity
  8
____1
  6
Continuous
 62
     7
100
AcDbLine
 10
911.2695235488979
 20
248.2023737985199
 30
0.0
 11
911.2695235488978
 21
205.6399365503709
 31
0.0
  0
TEXT
  5
CDB
330
315
100
AcDbEntity
  8
____1
  6
Continuous
 62
     0
100
AcDbText
 10
793.3978369718946
 20
253.4030872257942
 30
0.0
 40
4.682630310058594
  1
1
  7
STYLE1
100
AcDbText
  0
LINE
  5
CDC
330
315
100
AcDbEntity
  8
____1
  6
Continuous
 62
     0
100
AcDbLine
 10
789.9111587911276
 20
252.3031385976784
 30
0.0
 11
799.8111587911276
 21
252.3031385976784
 31
0.0
  0
LINE
  5
CDD
330
315
100
AcDbEntity
  8
____1
  6
Continuous
 62
     0
100
AcDbLine
 10
794.8611587911273
 20
260.8767900951445
 30
0.0
 11
799.8111587911276
 21
252.3031385976784
 31
0.0
  0
LINE
  5
CDE
330
315
100
AcDbEntity
  8
____1
  6
Continuous
 62
     0
100
AcDbLine
 10
794.8611587911273
 20
260.8767900951445
 30
0.0
 11
789.9111587911276
 21
252.3031385976784
 31
0.0
  0
LINE
  5
CDF
330
315
100
AcDbEntity
  8
____1
  6
Continuous
 62
     0
100
AcDbLine
 10
807.5827313285627
 20
260.8767900951445
 30
0.0
 11
802.632731328563
 21
252.3031385976784
 31
0.0
  0
LINE
  5
CE0
330
315
100
AcDbEntity
  8
____1
  6
Continuous
 62
     0
100
AcDbLine
 10
807.5827313285627
 20
260.8767900951445
 30
0.0
 11
812.532731328563
 21
252.3031385976784
 31
0.0
  0
LINE
  5
CE1
330
315
100
AcDbEntity
  8
____1
  6
Continuous
 62
     0
100
AcDbLine
 10
802.632731328563
 20
252.3031385976784
 30
0.0
 11
812.532731328563
 21
252.3031385976784
 31
0.0
  0
TEXT
  5
CE2
330
315
100
AcDbEntity
  8
____1
  6
Continuous
 62
     0
100
AcDbText
 10
806.11940950933
 20
253.4030872257942
 30
0.0
 40
4.682630310058594
  1
3
  7
STYLE1
100
AcDbText
  0
ENDSEC
  0
SECTION
  2
OBJECTS
  0
DICTIONARY
  5
301
330
0
100
AcDbDictionary
281
     1
  3
ACAD_CIP_PREVIOUS_PRODUCT_INFO
350
C65
  3
ACAD_COLOR
350
310
  3
ACAD_DETAILVIEWSTYLE
350
C5F
  3
ACAD_GROUP
350
302
  3
ACAD_LAYOUT
350
30E
  3
ACAD_MATERIAL
350
30F
  3
ACAD_MLEADERSTYLE
350
C5B
  3
ACAD_MLINESTYLE
350
30B
  3
ACAD_PLOTSETTINGS
350
30D
  3
ACAD_PLOTSTYLENAME
350
303
  3
ACAD_SCALELIST
350
C49
  3
ACAD_SECTIONVIEWSTYLE
350
C5D
  3
ACAD_TABLESTYLE
350
C47
  3
ACAD_VISUALSTYLE
350
C2E
  3
ACDB_RECOMPOSE_DATA
350
D31
  3
AcDbVariableDictionary
350
D1C
  3
AcDsDecomposeData
350
D38
  3
DWGPROPS
350
D32
  0
DICTIONARY
  5
4FF
330
2F7
100
AcDbDictionary
280
     1
281
     1
  3
ACAD_LAYERSTATES
360
500
  0
DICTIONARY
  5
CE6
330
305
100
AcDbDictionary
280
     1
281
     1
  3
ADSK_XREC_LAYER_RECONCILED
360
CE7
  0
DICTIONARY
  5
CE8
330
325
100
AcDbDictionary
280
     1
281
     1
  3
ADSK_XREC_LAYER_RECONCILED
360
CE9
  0
DICTIONARY
  5
CEA
330
326
100
AcDbDictionary
280
     1
281
     1
  3
ADSK_XREC_LAYER_RECONCILED
360
CEB
  0
DICTIONARY
  5
CEC
330
327
100
AcDbDictionary
280
     1
281
     1
  3
ADSK_XREC_LAYER_RECONCILED
360
CED
  0
DICTIONARY
  5
CEE
330
328
100
AcDbDictionary
280
     1
281
     1
  3
ADSK_XREC_LAYER_RECONCILED
360
CEF
  0
DICTIONARY
  5
CF0
330
329
100
AcDbDictionary
280
     1
281
     1
  3
ADSK_XREC_LAYER_RECONCILED
360
CF1
  0
DICTIONARY
  5
CF2
330
32A
100
AcDbDictionary
280
     1
281
     1
  3
ADSK_XREC_LAYER_RECONCILED
360
CF3
  0
DICTIONARY
  5
CF4
330
32B
100
AcDbDictionary
280
     1
281
     1
  3
ADSK_XREC_LAYER_RECONCILED
360
CF5
  0
DICTIONARY
  5
CF6
330
32C
100
AcDbDictionary
280
     1
281
     1
  3
ADSK_XREC_LAYER_RECONCILED
360
CF7
  0
DICTIONARY
  5
CF8
330
32D
100
AcDbDictionary
280
     1
281
     1
  3
ADSK_XREC_LAYER_RECONCILED
360
CF9
  0
XRECORD
  5
C65
102
{ACAD_REACTORS
330
301
102
}
330
301
100
AcDbXrecord
280
     1
300
ACDLT
300
2015
300
ACDLT_F_S
  0
DICTIONARY
  5
310
102
{ACAD_REACTORS
330
301
102
}
330
301
100
AcDbDictionary
281
     1
  0
DICTIONARY
  5
C5F
102
{ACAD_REACTORS
330
301
102
}
330
301
100
AcDbDictionary
281
     1
  3
Imperial24
350
C60
  0
DICTIONARY
  5
302
102
{ACAD_REACTORS
330
301
102
}
330
301
100
AcDbDictionary
281
     1
  0
DICTIONARY
  5
30E
102
{ACAD_REACTORS
330
301
102
}
330
301
100
AcDbDictionary
281
     1
  3
Model
350
318
  3
レイアウト1
350
314
  0
DICTIONARY
  5
30F
102
{ACAD_REACTORS
330
301
102
}
330
301
100
AcDbDictionary
281
     1
  3
ByBlock
350
C1E
  3
ByLayer
350
C16
  3
Global
350
C26
  0
DICTIONARY
  5
C5B
102
{ACAD_REACTORS
330
301
102
}
330
301
100
AcDbDictionary
281
     1
  3
Standard
350
C5C
  0
DICTIONARY
  5
30B
102
{ACAD_REACTORS
330
301
102
}
330
301
100
AcDbDictionary
281
     1
  3
Standard
350
30C
  0
DICTIONARY
  5
30D
102
{ACAD_REACTORS
330
301
102
}
330
301
100
AcDbDictionary
281
     1
  0
ACDBDICTIONARYWDFLT
  5
303
102
{ACAD_REACTORS
330
301
102
}
330
301
100
AcDbDictionary
281
     1
  3
Normal
350
304
100
AcDbDictionaryWithDefault
340
304
  0
DICTIONARY
  5
C49
102
{ACAD_REACTORS
330
301
102
}
330
301
100
AcDbDictionary
281
     1
  3
A0
350
C4A
  3
A1
350
C4B
  3
A2
350
C4C
  3
A3
350
C4D
  3
A4
350
C4E
  3
A5
350
C4F
  3
A6
350
C50
  3
A7
350
C51
  3
A8
350
C52
  3
A9
350
C53
  3
B0
350
C54
  3
B1
350
C55
  3
B2
350
C56
  3
B3
350
C57
  3
B4
350
C58
  3
B5
350
C59
  3
B6
350
C5A
  0
DICTIONARY
  5
C5D
102
{ACAD_REACTORS
330
301
102
}
330
301
100
AcDbDictionary
281
     1
  3
Imperial24
350
C5E
  0
DICTIONARY
  5
C47
102
{ACAD_REACTORS
330
301
102
}
330
301
100
AcDbDictionary
281
     1
  3
Standard
350
C48
  0
DICTIONARY
  5
C2E
102
{ACAD_REACTORS
330
301
102
}
330
301
100
AcDbDictionary
281
     1
  3
2dWireframe
350
C34
  3
Basic
350
C33
  3
Brighten
350
C3A
  3
ColorChange
350
C3E
  3
Conceptual
350
C37
  3
Dim
350
C39
  3
EdgeColorOff
350
C46
  3
Facepattern
350
C3D
  3
Flat
350
C2F
  3
FlatWithEdges
350
C30
  3
Gouraud
350
C31
  3
GouraudWithEdges
350
C32
  3
Hidden
350
C36
  3
JitterOff
350
C44
  3
Linepattern
350
C3C
  3
OverhangOff
350
C45
  3
Realistic
350
C38
  3
Shaded
350
C43
  3
Shaded with edges
350
C42
  3
Shades of Gray
350
C3F
  3
Sketchy
350
C40
  3
Thicken
350
C3B
  3
Wireframe
350
C35
  3
X-Ray
350
C41
  0
XRECORD
  5
D31
102
{ACAD_REACTORS
330
301
102
}
330
301
100
AcDbXrecord
280
     1
 90
        1
330
C48
  0
DICTIONARY
  5
D1C
102
{ACAD_REACTORS
330
301
102
}
330
301
100
AcDbDictionary
281
     1
  3
CANNOSCALE
350
D22
  3
CMLEADERSTYLE
350
D1E
  3
CTABLESTYLE
350
D1D
  3
CVIEWDETAILSTYLE
350
D1F
  3
CVIEWSECTIONSTYLE
350
D20
  3
DIMASSOC
350
D2E
  3
INDEXCTL
350
D2C
  3
LAYEREVAL
350
D24
  3
LAYERNOTIFY
350
D25
  3
LIGHTINGUNITS
350
D23
  3
MSLTSCALE
350
D21
  3
SORTENTS
350
D2B
  3
XCLIPFRAME
350
D2D
  0
DICTIONARY
  5
D38
102
{ACAD_REACTORS
330
301
102
}
330
301
100
AcDbDictionary
281
     1
  3
AcDsRecords
350
D3A
  3
AcDsSchemas
350
D39
1001
ACAD
1070
     2
  0
XRECORD
  5
D32
102
{ACAD_REACTORS
330
301
102
}
330
301
100
AcDbXrecord
280
     1
  1
DWGPROPS COOKIE
  2

  3

  4

  6

  7

  8
峰輝行
  9

300
=
301
=
302
=
303
=
304
=
305
=
306
=
307
=
308
=
309
=
 40
0.0091939930555556
 41
2455539.456481481
 42
2458918.465917744
  1

 90
        0
  0
DICTIONARY
  5
500
102
{ACAD_REACTORS
330
4FF
102
}
330
4FF
100
AcDbDictionary
281
     1
  0
XRECORD
  5
CE7
102
{ACAD_REACTORS
330
CE6
102
}
330
CE6
100
AcDbXrecord
280
     1
290
     1
  0
XRECORD
  5
CE9
102
{ACAD_REACTORS
330
CE8
102
}
330
CE8
100
AcDbXrecord
280
     1
290
     1
  0
XRECORD
  5
CEB
102
{ACAD_REACTORS
330
CEA
102
}
330
CEA
100
AcDbXrecord
280
     1
290
     1
  0
XRECORD
  5
CED
102
{ACAD_REACTORS
330
CEC
102
}
330
CEC
100
AcDbXrecord
280
     1
290
     1
  0
XRECORD
  5
CEF
102
{ACAD_REACTORS
330
CEE
102
}
330
CEE
100
AcDbXrecord
280
     1
290
     1
  0
XRECORD
  5
CF1
102
{ACAD_REACTORS
330
CF0
102
}
330
CF0
100
AcDbXrecord
280
     1
290
     1
  0
XRECORD
  5
CF3
102
{ACAD_REACTORS
330
CF2
102
}
330
CF2
100
AcDbXrecord
280
     1
290
     1
  0
XRECORD
  5
CF5
102
{ACAD_REACTORS
330
CF4
102
}
330
CF4
100
AcDbXrecord
280
     1
290
     1
  0
XRECORD
  5
CF7
102
{ACAD_REACTORS
330
CF6
102
}
330
CF6
100
AcDbXrecord
280
     1
290
     1
  0
XRECORD
  5
CF9
102
{ACAD_REACTORS
330
CF8
102
}
330
CF8
100
AcDbXrecord
280
     1
290
     1
  0
ACDBDETAILVIEWSTYLE
  5
C60
102
{ACAD_XDICTIONARY
360
D19
102
}
102
{ACAD_REACTORS
330
C5F
102
}
330
C5F
100
AcDbModelDocViewStyle
 70
     0
  3
Imperial24
290
     0
100
AcDbDetailViewStyle
 70
     0
 71
     0
 90
        3
 71
     1
340
306
 40
0.24
340
0
 40
0.24
300

 40
0.36
280
     3
 71
     2
340
30A
 90
       25
 71
     3
340
306
 40
0.24
 90
        1
 40
0.75
 90
        1
300
%<\AcVar ViewType \f "%tc1">% %<\AcVar ViewDetailId>%\PSCALE %<\AcVar ViewScale \f "%sn">%
 71
     4
340
30A
 90
       25
340
30A
 90
       25
280
     0
  0
LAYOUT
  5
318
102
{ACAD_XDICTIONARY
360
D3D
102
}
102
{ACAD_REACTORS
330
30E
102
}
330
30E
100
AcDbPlotSettings
  1

  2
クセロPDF2 (一時).pc3
  4
A3
  6

 40
3.174999952316284
 41
3.174999952316284
 42
3.17498779296875
 43
3.17498779296875
 44
419.9466552734374
 45
296.9259948730469
 46
0.0
 47
0.0
 48
435.0756397707435
 49
162.2023737985198
140
1277.070639770741
141
757.5523737985199
142
1.0
143
2.048861521241269
 70
 11952
 72
     1
 73
     0
 74
     4
  7
monochrome.ctb
 75
     0
147
0.4880759336991044
148
-435.0756397707435
149
-162.2023737985198
100
AcDbLayout
  1
Model
 70
     1
 71
     0
 10
0.0
 20
0.0
 11
12.0
 21
9.0
 12
0.0
 22
0.0
 32
0.0
 14
0.0
 24
0.0
 34
0.0
 15
0.0
 25
0.0
 35
0.0
146
0.0
 13
0.0
 23
0.0
 33
0.0
 16
1.0
 26
0.0
 36
0.0
 17
0.0
 27
1.0
 37
0.0
 76
     0
330
315
331
C14
  0
LAYOUT
  5
314
102
{ACAD_XDICTIONARY
360
D3B
102
}
102
{ACAD_REACTORS
330
30E
102
}
330
30E
100
AcDbPlotSettings
  1

  2
PX-1700F(ネットワーク)
  4

  6

 40
0.0
 41
0.0
 42
0.0
 43
0.0
 44
0.0
 45
0.0
 46
0.0
 47
0.0
 48
0.0
 49
0.0
140
0.0
141
0.0
142
1.0
143
1.0
 70
   688
 72
     0
 73
     0
 74
     5
  7
monochrome.ctb
 75
    16
147
1.0
148
0.0
149
0.0
100
AcDbLayout
  1
レイアウト1
 70
     1
 71
     1
 10
0.0
 20
0.0
 11
12.0
 21
9.0
 12
0.0
 22
0.0
 32
0.0
 14
1.000000000000000E+20
 24
1.000000000000000E+20
 34
1.000000000000000E+20
 15
-1.000000000000000E+20
 25
-1.000000000000000E+20
 35
-1.000000000000000E+20
146
0.0
 13
0.0
 23
0.0
 33
0.0
 16
1.0
 26
0.0
 36
0.0
 17
0.0
 27
1.0
 37
0.0
 76
     0
330
311
  0
MATERIAL
  5
C1E
102
{ACAD_XDICTIONARY
360
C1F
102
}
102
{ACAD_REACTORS
330
30F
102
}
330
30F
100
AcDbMaterial
  1
ByBlock
 72
     0
 43
0.0208333333333333
 43
0.0
 43
0.0
 43
0.0
 43
0.0
 43
0.0208333333333333
 43
0.0
 43
0.0
 43
0.0
 43
0.0
 43
1.0
 43
0.0
 43
0.0
 43
0.0
 43
0.0
 43
1.0
 77
     0
 47
0.0208333333333333
 47
0.0
 47
0.0
 47
0.0
 47
0.0
 47
0.0208333333333333
 47
0.0
 47
0.0
 47
0.0
 47
0.0
 47
1.0
 47
0.0
 47
0.0
 47
0.0
 47
0.0
 47
1.0
171
     0
 49
0.0208333333333333
 49
0.0
 49
0.0
 49
0.0
 49
0.0
 49
0.0208333333333333
 49
0.0
 49
0.0
 49
0.0
 49
0.0
 49
1.0
 49
0.0
 49
0.0
 49
0.0
 49
0.0
 49
1.0
175
     0
142
0.0208333333333333
142
0.0
142
0.0
142
0.0
142
0.0
142
0.0208333333333333
142
0.0
142
0.0
142
0.0
142
0.0
142
1.0
142
0.0
142
0.0
142
0.0
142
0.0
142
1.0
179
     0
144
0.0208333333333333
144
0.0
144
0.0
144
0.0
144
0.0
144
0.0208333333333333
144
0.0
144
0.0
144
0.0
144
0.0
144
1.0
144
0.0
144
0.0
144
0.0
144
0.0
144
1.0
147
0.0208333333333333
147
0.0
147
0.0
147
0.0
147
0.0
147
0.0208333333333333
147
0.0
147
0.0
147
0.0
147
0.0
147
1.0
147
0.0
147
0.0
147
0.0
147
0.0
147
1.0
  0
MATERIAL
  5
C16
102
{ACAD_XDICTIONARY
360
C17
102
}
102
{ACAD_REACTORS
330
30F
102
}
330
30F
100
AcDbMaterial
  1
ByLayer
 72
     0
 43
0.0208333333333333
 43
0.0
 43
0.0
 43
0.0
 43
0.0
 43
0.0208333333333333
 43
0.0
 43
0.0
 43
0.0
 43
0.0
 43
1.0
 43
0.0
 43
0.0
 43
0.0
 43
0.0
 43
1.0
 77
     0
 47
0.0208333333333333
 47
0.0
 47
0.0
 47
0.0
 47
0.0
 47
0.0208333333333333
 47
0.0
 47
0.0
 47
0.0
 47
0.0
 47
1.0
 47
0.0
 47
0.0
 47
0.0
 47
0.0
 47
1.0
171
     0
 49
0.0208333333333333
 49
0.0
 49
0.0
 49
0.0
 49
0.0
 49
0.0208333333333333
 49
0.0
 49
0.0
 49
0.0
 49
0.0
 49
1.0
 49
0.0
 49
0.0
 49
0.0
 49
0.0
 49
1.0
175
     0
142
0.0208333333333333
142
0.0
142
0.0
142
0.0
142
0.0
142
0.0208333333333333
142
0.0
142
0.0
142
0.0
142
0.0
142
1.0
142
0.0
142
0.0
142
0.0
142
0.0
142
1.0
179
     0
144
0.0208333333333333
144
0.0
144
0.0
144
0.0
144
0.0
144
0.0208333333333333
144
0.0
144
0.0
144
0.0
144
0.0
144
1.0
144
0.0
144
0.0
144
0.0
144
0.0
144
1.0
147
0.0208333333333333
147
0.0
147
0.0
147
0.0
147
0.0
147
0.0208333333333333
147
0.0
147
0.0
147
0.0
147
0.0
147
1.0
147
0.0
147
0.0
147
0.0
147
0.0
147
1.0
  0
MATERIAL
  5
C26
102
{ACAD_XDICTIONARY
360
C27
102
}
102
{ACAD_REACTORS
330
30F
102
}
330
30F
100
AcDbMaterial
  1
Global
 72
     0
 43
0.0208333333333333
 43
0.0
 43
0.0
 43
0.0
 43
0.0
 43
0.0208333333333333
 43
0.0
 43
0.0
 43
0.0
 43
0.0
 43
1.0
 43
0.0
 43
0.0
 43
0.0
 43
0.0
 43
1.0
 77
     0
 47
0.0208333333333333
 47
0.0
 47
0.0
 47
0.0
 47
0.0
 47
0.0208333333333333
 47
0.0
 47
0.0
 47
0.0
 47
0.0
 47
1.0
 47
0.0
 47
0.0
 47
0.0
 47
0.0
 47
1.0
171
     0
 49
0.0208333333333333
 49
0.0
 49
0.0
 49
0.0
 49
0.0
 49
0.0208333333333333
 49
0.0
 49
0.0
 49
0.0
 49
0.0
 49
1.0
 49
0.0
 49
0.0
 49
0.0
 49
0.0
 49
1.0
175
     0
142
0.0208333333333333
142
0.0
142
0.0
142
0.0
142
0.0
142
0.0208333333333333
142
0.0
142
0.0
142
0.0
142
0.0
142
1.0
142
0.0
142
0.0
142
0.0
142
0.0
142
1.0
179
     0
144
0.0208333333333333
144
0.0
144
0.0
144
0.0
144
0.0
144
0.0208333333333333
144
0.0
144
0.0
144
0.0
144
0.0
144
1.0
144
0.0
144
0.0
144
0.0
144
0.0
144
1.0
147
0.0208333333333333
147
0.0
147
0.0
147
0.0
147
0.0
147
0.0208333333333333
147
0.0
147
0.0
147
0.0
147
0.0
147
1.0
147
0.0
147
0.0
147
0.0
147
0.0
147
1.0
  0
MLEADERSTYLE
  5
C5C
102
{ACAD_XDICTIONARY
360
D74
102
}
102
{ACAD_REACTORS
330
C5B
102
}
330
C5B
100
AcDbMLeaderStyle
170
     2
171
     1
172
     0
 90
        2
 40
0.0
 41
0.0
173
     1
 91
-1056964608
340
308
 92
       -2
290
     1
 42
0.09
291
     1
 43
0.36
  3
Standard
 44
0.18
300

342
306
174
     1
178
     6
175
     1
176
     0
 93
-1056964608
 45
0.18
292
     0
297
     0
 46
0.18
 94
-1056964608
 47
1.0
 49
1.0
140
1.0
293
     1
141
0.0
294
     1
177
     0
142
1.0
295
     0
296
     0
143
0.125
1001
ACAD_MLEADERVER
1070
     2
  0
MLINESTYLE
  5
30C
102
{ACAD_REACTORS
330
30B
102
}
330
30B
100
AcDbMlineStyle
  2
STANDARD
 70
     0
  3

 62
   256
 51
90.0
 52
90.0
 71
     2
 49
0.5
 62
   256
  6
BYLAYER
 49
-0.5
 62
   256
  6
BYLAYER
  0
ACDBPLACEHOLDER
  5
304
102
{ACAD_REACTORS
330
303
102
}
330
303
  0
SCALE
  5
C4A
102
{ACAD_REACTORS
330
C49
102
}
330
C49
100
AcDbScale
 70
     0
300
1:1
140
1.0
141
1.0
290
     1
  0
SCALE
  5
C4B
102
{ACAD_REACTORS
330
C49
102
}
330
C49
100
AcDbScale
 70
     0
300
1/128" = 1'-0"
140
0.0078125
141
12.0
290
     0
  0
SCALE
  5
C4C
102
{ACAD_REACTORS
330
C49
102
}
330
C49
100
AcDbScale
 70
     0
300
1/64" = 1'-0"
140
0.015625
141
12.0
290
     0
  0
SCALE
  5
C4D
102
{ACAD_REACTORS
330
C49
102
}
330
C49
100
AcDbScale
 70
     0
300
1/32" = 1'-0"
140
0.03125
141
12.0
290
     0
  0
SCALE
  5
C4E
102
{ACAD_REACTORS
330
C49
102
}
330
C49
100
AcDbScale
 70
     0
300
1/16" = 1'-0"
140
0.0625
141
12.0
290
     0
  0
SCALE
  5
C4F
102
{ACAD_REACTORS
330
C49
102
}
330
C49
100
AcDbScale
 70
     0
300
3/32" = 1'-0"
140
0.09375
141
12.0
290
     0
  0
SCALE
  5
C50
102
{ACAD_REACTORS
330
C49
102
}
330
C49
100
AcDbScale
 70
     0
300
1/8" = 1'-0"
140
0.125
141
12.0
290
     0
  0
SCALE
  5
C51
102
{ACAD_REACTORS
330
C49
102
}
330
C49
100
AcDbScale
 70
     0
300
3/16" = 1'-0"
140
0.1875
141
12.0
290
     0
  0
SCALE
  5
C52
102
{ACAD_REACTORS
330
C49
102
}
330
C49
100
AcDbScale
 70
     0
300
1/4" = 1'-0"
140
0.25
141
12.0
290
     0
  0
SCALE
  5
C53
102
{ACAD_REACTORS
330
C49
102
}
330
C49
100
AcDbScale
 70
     0
300
3/8" = 1'-0"
140
0.375
141
12.0
290
     0
  0
SCALE
  5
C54
102
{ACAD_REACTORS
330
C49
102
}
330
C49
100
AcDbScale
 70
     0
300
1/2" = 1'-0"
140
0.5
141
12.0
290
     0
  0
SCALE
  5
C55
102
{ACAD_REACTORS
330
C49
102
}
330
C49
100
AcDbScale
 70
     0
300
3/4" = 1'-0"
140
0.75
141
12.0
290
     0
  0
SCALE
  5
C56
102
{ACAD_REACTORS
330
C49
102
}
330
C49
100
AcDbScale
 70
     0
300
1" = 1'-0"
140
1.0
141
12.0
290
     0
  0
SCALE
  5
C57
102
{ACAD_REACTORS
330
C49
102
}
330
C49
100
AcDbScale
 70
     0
300
1-1/2" = 1'-0"
140
1.5
141
12.0
290
     0
  0
SCALE
  5
C58
102
{ACAD_REACTORS
330
C49
102
}
330
C49
100
AcDbScale
 70
     0
300
3" = 1'-0"
140
3.0
141
12.0
290
     0
  0
SCALE
  5
C59
102
{ACAD_REACTORS
330
C49
102
}
330
C49
100
AcDbScale
 70
     0
300
6" = 1'-0"
140
6.0
141
12.0
290
     0
  0
SCALE
  5
C5A
102
{ACAD_REACTORS
330
C49
102
}
330
C49
100
AcDbScale
 70
     0
300
1'-0" = 1'-0"
140
12.0
141
12.0
290
     0
  0
ACDBSECTIONVIEWSTYLE
  5
C5E
102
{ACAD_XDICTIONARY
360
D17
102
}
102
{ACAD_REACTORS
330
C5D
102
}
330
C5D
100
AcDbModelDocViewStyle
 70
     0
  3
Imperial24
290
     0
100
AcDbSectionViewStyle
 70
     0
 71
     0
 90
       78
 71
     1
340
306
 40
0.24
340
0
340
0
 40
0.24
300
I, O, Q, S, X, Z
 40
0.48
 90
        3
 40
0.18
 90
        1
 71
     2
340
30A
 90
       25
340
30A
 90
       50
 40
0.24
 40
0.0
 40
0.24
 71
     3
340
306
 40
0.24
 90
        1
 40
0.75
 90
        1
300
%<\AcVar ViewType \f "%tc1">% %<\AcVar ViewSectionStartId>%-%<\AcVar ViewSectionEndId>%\PSCALE %<\AcVar ViewScale \f "%sn">%
 71
     4
300
ANSI31
 40
1.0
 90
        0
290
     0
290
     0
 90
        6
 40
0.0
 40
1.570796326794896
 40
0.2617993877991494
 40
1.308996938995747
 40
-0.2617993877991494
 40
1.832595714594046
  0
TABLESTYLE
  5
C48
102
{ACAD_XDICTIONARY
360
D2F
102
}
102
{ACAD_REACTORS
330
C47
102
}
330
C47
100
AcDbTableStyle
  3
Standard
 70
     0
 71
     0
 40
0.06
 41
0.06
280
     0
281
     0
  7
STANDARD
140
0.18
170
     2
 62
     0
 63
     7
283
     0
274
    -2
284
     1
 64
     0
275
    -2
285
     1
 65
     0
276
    -2
286
     1
 66
     0
277
    -2
287
     1
 67
     0
278
    -2
288
     1
 68
     0
279
    -2
289
     1
 69
     0
  7
STANDARD
140
0.25
170
     5
 62
     0
 63
     7
283
     0
274
    -2
284
     1
 64
     0
275
    -2
285
     1
 65
     0
276
    -2
286
     1
 66
     0
277
    -2
287
     1
 67
     0
278
    -2
288
     1
 68
     0
279
    -2
289
     1
 69
     0
  7
STANDARD
140
0.18
170
     5
 62
     0
 63
     7
283
     0
274
    -2
284
     1
 64
     0
275
    -2
285
     1
 65
     0
276
    -2
286
     1
 66
     0
277
    -2
287
     1
 67
     0
278
    -2
288
     1
 68
     0
279
    -2
289
     1
 69
     0
  0
VISUALSTYLE
  5
C34
102
{ACAD_XDICTIONARY
360
D4C
102
}
102
{ACAD_REACTORS
330
C2E
102
}
330
C2E
100
AcDbVisualStyle
  2
2dWireframe
 70
     4
 71
     0
 72
     2
 73
     0
 90
        0
 40
-0.6
 41
-30.0
 62
     5
 63
     7
 74
     1
 91
        4
 64
     7
 65
   257
 75
     1
175
     1
 42
1.0
 92
        0
 66
   257
 43
1.0
 76
     1
 77
     6
 78
     2
 67
     7
 79
     5
170
     0
171
     0
290
     0
174
     0
 93
        1
 44
0.0
173
     0
291
     0
 45
0.0
1001
ACAD
1000
AcDbSavedByObjectVersion
1070
     0
  0
VISUALSTYLE
  5
C33
102
{ACAD_XDICTIONARY
360
D4A
102
}
102
{ACAD_REACTORS
330
C2E
102
}
330
C2E
100
AcDbVisualStyle
  2
Basic
 70
     7
 71
     1
 72
     0
 73
     1
 90
        0
 40
-0.6
 41
-30.0
 62
     5
 63
     7
 74
     0
 91
        4
 64
     7
 65
   257
 75
     1
175
     1
 42
1.0
 92
        8
 66
     7
 43
1.0
 76
     1
 77
     6
 78
     2
 67
     7
 79
     5
170
     0
171
     0
290
     0
174
     0
 93
        1
 44
0.0
173
     0
291
     1
 45
0.0
1001
ACAD
1000
AcDbSavedByObjectVersion
1070
     0
  0
VISUALSTYLE
  5
C3A
102
{ACAD_XDICTIONARY
360
D58
102
}
102
{ACAD_REACTORS
330
C2E
102
}
330
C2E
100
AcDbVisualStyle
  2
Brighten
 70
    12
 71
     2
 72
     2
 73
     0
 90
        0
 40
-0.6
 41
-30.0
 62
     5
 63
     7
 74
     1
 91
        4
 64
     7
 65
   257
 75
     1
175
     1
 42
1.0
 92
        8
 66
     7
 43
1.0
 76
     1
 77
     6
 78
     2
 67
     7
 79
     5
170
     0
171
     0
290
     0
174
     0
 93
        1
 44
50.0
173
     0
291
     1
 45
0.0
1001
ACAD
1000
AcDbSavedByObjectVersion
1070
     0
  0
VISUALSTYLE
  5
C3E
102
{ACAD_XDICTIONARY
360
D60
102
}
102
{ACAD_REACTORS
330
C2E
102
}
330
C2E
100
AcDbVisualStyle
  2
ColorChange
 70
    16
 71
     2
 72
     2
 73
     3
 90
        0
 40
-0.6
 41
-30.0
 62
     5
 63
     8
 74
     1
 91
        4
 64
     7
 65
   257
 75
     1
175
     1
 42
1.0
 92
        8
 66
     8
 43
1.0
 76
     1
 77
     6
 78
     2
 67
     7
 79
     5
170
     0
171
     0
290
     0
174
     0
 93
        1
 44
0.0
173
     0
291
     1
 45
0.0
1001
ACAD
1000
AcDbSavedByObjectVersion
1070
     0
  0
VISUALSTYLE
  5
C37
102
{ACAD_XDICTIONARY
360
D52
102
}
102
{ACAD_REACTORS
330
C2E
102
}
330
C2E
100
AcDbVisualStyle
  2
Conceptual
 70
     9
 71
     3
 72
     2
 73
     0
 90
        0
 40
-0.6
 41
-30.0
 62
     5
 63
     7
 74
     2
 91
        2
 64
     7
 65
   257
 75
     1
175
     1
 42
179.0
 92
        8
 66
     7
 43
1.0
 76
     1
 77
     6
 78
     2
 67
     7
 79
     3
170
     0
171
     0
290
     0
174
     0
 93
        1
 44
0.0
173
     0
291
     0
 45
0.0
1001
ACAD
1000
AcDbSavedByObjectVersion
1070
     0
  0
VISUALSTYLE
  5
C39
102
{ACAD_XDICTIONARY
360
D56
102
}
102
{ACAD_REACTORS
330
C2E
102
}
330
C2E
100
AcDbVisualStyle
  2
Dim
 70
    11
 71
     2
 72
     2
 73
     0
 90
        0
 40
-0.6
 41
-30.0
 62
     5
 63
     7
 74
     1
 91
        4
 64
     7
 65
   257
 75
     1
175
     1
 42
1.0
 92
        8
 66
     7
 43
1.0
 76
     1
 77
     6
 78
     2
 67
     7
 79
     5
170
     0
171
     0
290
     0
174
     0
 93
        1
 44
-50.0
173
     0
291
     1
 45
0.0
1001
ACAD
1000
AcDbSavedByObjectVersion
1070
     0
  0
VISUALSTYLE
  5
C46
102
{ACAD_XDICTIONARY
360
D70
102
}
102
{ACAD_REACTORS
330
C2E
102
}
330
C2E
100
AcDbVisualStyle
  2
EdgeColorOff
 70
    22
 71
     2
 72
     2
 73
     0
 90
        0
 40
-0.6
 41
-30.0
 62
     5
 63
     7
 74
     1
 91
        4
 64
     7
 65
   257
 75
     1
175
     1
 42
1.0
 92
        8
 66
     7
 43
1.0
 76
     1
 77
     6
 78
     2
 67
     7
 79
     5
170
     0
171
     0
290
     0
174
     0
 93
        1
 44
0.0
173
     0
291
     1
 45
0.0
1001
ACAD
1000
AcDbSavedByObjectVersion
1070
     0
  0
VISUALSTYLE
  5
C3D
102
{ACAD_XDICTIONARY
360
D5E
102
}
102
{ACAD_REACTORS
330
C2E
102
}
330
C2E
100
AcDbVisualStyle
  2
Facepattern
 70
    15
 71
     2
 72
     2
 73
     0
 90
        0
 40
-0.6
 41
-30.0
 62
     5
 63
     7
 74
     1
 91
        4
 64
     7
 65
   257
 75
     1
175
     1
 42
1.0
 92
        8
 66
     7
 43
1.0
 76
     1
 77
     6
 78
     2
 67
     7
 79
     5
170
     0
171
     0
290
     0
174
     0
 93
        1
 44
0.0
173
     0
291
     1
 45
0.0
1001
ACAD
1000
AcDbSavedByObjectVersion
1070
     0
  0
VISUALSTYLE
  5
C2F
102
{ACAD_XDICTIONARY
360
D42
102
}
102
{ACAD_REACTORS
330
C2E
102
}
330
C2E
100
AcDbVisualStyle
  2
Flat
 70
     0
 71
     2
 72
     1
 73
     1
 90
        2
 40
-0.6
 41
30.0
 62
     5
 63
     7
 74
     0
 91
        0
 64
     7
 65
   257
 75
     1
175
     1
 42
1.0
 92
        8
 66
     7
 43
1.0
 76
     1
 77
     6
 78
     2
 67
     7
 79
     5
170
     0
171
     0
290
     0
174
     0
 93
       13
 44
0.0
173
     0
291
     1
 45
0.0
1001
ACAD
1000
AcDbSavedByObjectVersion
1070
     0
  0
VISUALSTYLE
  5
C30
102
{ACAD_XDICTIONARY
360
D44
102
}
102
{ACAD_REACTORS
330
C2E
102
}
330
C2E
100
AcDbVisualStyle
  2
FlatWithEdges
 70
     1
 71
     2
 72
     1
 73
     1
 90
        2
 40
-0.6
 41
30.0
 62
     5
 63
     7
 74
     1
 91
        0
 64
     7
 65
   257
 75
     1
175
     1
 42
1.0
 92
        0
 66
   257
 43
1.0
 76
     1
 77
     6
 78
     2
 67
     7
 79
     5
170
     0
171
     0
290
     0
174
     0
 93
       13
 44
0.0
173
     0
291
     1
 45
0.0
1001
ACAD
1000
AcDbSavedByObjectVersion
1070
     0
  0
VISUALSTYLE
  5
C31
102
{ACAD_XDICTIONARY
360
D46
102
}
102
{ACAD_REACTORS
330
C2E
102
}
330
C2E
100
AcDbVisualStyle
  2
Gouraud
 70
     2
 71
     2
 72
     2
 73
     1
 90
        2
 40
-0.6
 41
30.0
 62
     5
 63
     7
 74
     0
 91
        0
 64
     7
 65
   257
 75
     1
175
     1
 42
1.0
 92
        0
 66
     7
 43
1.0
 76
     1
 77
     6
 78
     2
 67
     7
 79
     5
170
     0
171
     0
290
     0
174
     0
 93
       13
 44
0.0
173
     0
291
     1
 45
0.0
1001
ACAD
1000
AcDbSavedByObjectVersion
1070
     0
  0
VISUALSTYLE
  5
C32
102
{ACAD_XDICTIONARY
360
D48
102
}
102
{ACAD_REACTORS
330
C2E
102
}
330
C2E
100
AcDbVisualStyle
  2
GouraudWithEdges
 70
     3
 71
     2
 72
     2
 73
     1
 90
        2
 40
-0.6
 41
30.0
 62
     5
 63
     7
 74
     1
 91
        0
 64
     7
 65
   257
 75
     1
175
     1
 42
1.0
 92
        0
 66
   257
 43
1.0
 76
     1
 77
     6
 78
     2
 67
     7
 79
     5
170
     0
171
     0
290
     0
174
     0
 93
       13
 44
0.0
173
     0
291
     1
 45
0.0
1001
ACAD
1000
AcDbSavedByObjectVersion
1070
     0
  0
VISUALSTYLE
  5
C36
102
{ACAD_XDICTIONARY
360
D50
102
}
102
{ACAD_REACTORS
330
C2E
102
}
330
C2E
100
AcDbVisualStyle
  2
Hidden
 70
     6
 71
     1
 72
     2
 73
     2
 90
        0
 40
-0.6
 41
-30.0
 62
     5
 63
     7
 74
     2
 91
        2
 64
     7
 65
   257
 75
     2
175
     1
 42
40.0
 92
        0
 66
   257
 43
1.0
 76
     1
 77
     6
 78
     2
 67
     7
 79
     3
170
     0
171
     0
290
     0
174
     0
 93
        1
 44
0.0
173
     0
291
     0
 45
0.0
1001
ACAD
1000
AcDbSavedByObjectVersion
1070
     0
  0
VISUALSTYLE
  5
C44
102
{ACAD_XDICTIONARY
360
D6C
102
}
102
{ACAD_REACTORS
330
C2E
102
}
330
C2E
100
AcDbVisualStyle
  2
JitterOff
 70
    20
 71
     2
 72
     2
 73
     0
 90
        0
 40
-0.6
 41
-30.0
 62
     5
 63
     7
 74
     1
 91
        4
 64
     7
 65
   257
 75
     1
175
     1
 42
1.0
 92
       10
 66
     7
 43
1.0
 76
     1
 77
     6
 78
     2
 67
     7
 79
     5
170
     0
171
     0
290
     0
174
     0
 93
        1
 44
0.0
173
     0
291
     1
 45
0.0
1001
ACAD
1000
AcDbSavedByObjectVersion
1070
     0
  0
VISUALSTYLE
  5
C3C
102
{ACAD_XDICTIONARY
360
D5C
102
}
102
{ACAD_REACTORS
330
C2E
102
}
330
C2E
100
AcDbVisualStyle
  2
Linepattern
 70
    14
 71
     2
 72
     2
 73
     0
 90
        0
 40
-0.6
 41
-30.0
 62
     5
 63
     7
 74
     1
 91
        4
 64
     7
 65
   257
 75
     7
175
     7
 42
1.0
 92
        8
 66
     7
 43
1.0
 76
     1
 77
     6
 78
     2
 67
     7
 79
     5
170
     0
171
     0
290
     0
174
     0
 93
        1
 44
0.0
173
     0
291
     1
 45
0.0
1001
ACAD
1000
AcDbSavedByObjectVersion
1070
     0
  0
VISUALSTYLE
  5
C45
102
{ACAD_XDICTIONARY
360
D6E
102
}
102
{ACAD_REACTORS
330
C2E
102
}
330
C2E
100
AcDbVisualStyle
  2
OverhangOff
 70
    21
 71
     2
 72
     2
 73
     0
 90
        0
 40
-0.6
 41
-30.0
 62
     5
 63
     7
 74
     1
 91
        4
 64
     7
 65
   257
 75
     1
175
     1
 42
1.0
 92
        9
 66
     7
 43
1.0
 76
     1
 77
     6
 78
     2
 67
     7
 79
     5
170
     0
171
     0
290
     0
174
     0
 93
        1
 44
0.0
173
     0
291
     1
 45
0.0
1001
ACAD
1000
AcDbSavedByObjectVersion
1070
     0
  0
VISUALSTYLE
  5
C38
102
{ACAD_XDICTIONARY
360
D54
102
}
102
{ACAD_REACTORS
330
C2E
102
}
330
C2E
100
AcDbVisualStyle
  2
Realistic
 70
     8
 71
     2
 72
     3
 73
     0
 90
        2
 40
-0.6
 41
30.0
 62
     5
 63
     7
 74
     0
 91
        0
 64
     7
 65
   257
 75
     1
175
     1
 42
1.0
 92
        8
 66
   257
 43
1.0
 76
     1
 77
     6
 78
     2
 67
     7
 79
     3
170
     0
171
     0
290
     0
174
     0
 93
       13
 44
0.0
173
     0
291
     0
 45
0.0
1001
ACAD
1000
AcDbSavedByObjectVersion
1070
     0
  0
VISUALSTYLE
  5
C43
102
{ACAD_XDICTIONARY
360
D6A
102
}
102
{ACAD_REACTORS
330
C2E
102
}
330
C2E
100
AcDbVisualStyle
  2
Shaded
 70
    27
 71
     2
 72
     2
 73
     1
 90
        2
 40
-0.6
 41
30.0
 62
     5
 63
     7
 74
     0
 91
        4
 64
     7
 65
   257
 75
     1
175
     1
 42
1.0
 92
        8
 66
   257
 43
1.0
 76
     1
 77
     6
 78
     2
 67
     8
 79
     3
170
     0
171
     0
290
     0
174
     0
 93
        5
 44
0.0
173
     0
291
     0
 45
0.0
1001
ACAD
1000
AcDbSavedByObjectVersion
1070
     0
  0
VISUALSTYLE
  5
C42
102
{ACAD_XDICTIONARY
360
D68
102
}
102
{ACAD_REACTORS
330
C2E
102
}
330
C2E
100
AcDbVisualStyle
  2
Shaded with edges
 70
    26
 71
     2
 72
     2
 73
     1
 90
        2
 40
-0.6
 41
30.0
 62
     5
 63
     7
 74
     1
 91
       10
 64
     7
 65
   257
 75
     2
175
     1
 42
1.0
 92
        8
 66
   257
 43
1.0
 76
     1
 77
     6
 78
     2
 67
     7
 79
     3
170
     0
171
     0
290
     0
174
     0
 93
        5
 44
0.0
173
     0
291
     0
 45
0.0
1001
ACAD
1000
AcDbSavedByObjectVersion
1070
     0
  0
VISUALSTYLE
  5
C3F
102
{ACAD_XDICTIONARY
360
D62
102
}
102
{ACAD_REACTORS
330
C2E
102
}
330
C2E
100
AcDbVisualStyle
  2
Shades of Gray
 70
    23
 71
     2
 72
     2
 73
     3
 90
        0
 40
-0.6
 41
-30.0
 62
     5
 63
     7
 74
     2
 91
        2
 64
     7
 65
     7
 75
     1
175
     1
 42
40.0
 92
        8
 66
     7
 43
1.0
 76
     1
 77
     6
 78
     2
 67
     7
 79
     3
170
     0
171
     0
290
     0
174
     0
 93
        1
 44
0.0
173
     0
291
     0
 45
0.0
1001
ACAD
1000
AcDbSavedByObjectVersion
1070
     0
  0
VISUALSTYLE
  5
C40
102
{ACAD_XDICTIONARY
360
D64
102
}
102
{ACAD_REACTORS
330
C2E
102
}
330
C2E
100
AcDbVisualStyle
  2
Sketchy
 70
    24
 71
     1
 72
     2
 73
     2
 90
        0
 40
-0.6
 41
-30.0
 62
     5
 63
     7
 74
     2
 91
        2
 64
     7
 65
     7
 75
     1
175
     1
 42
40.0
 92
       11
 66
     7
 43
1.0
 76
     1
 77
     6
 78
     2
 67
     7
 79
     6
170
     0
171
     0
290
     0
174
     0
 93
        1
 44
0.0
173
     0
291
     0
 45
0.0
1001
ACAD
1000
AcDbSavedByObjectVersion
1070
     0
  0
VISUALSTYLE
  5
C3B
102
{ACAD_XDICTIONARY
360
D5A
102
}
102
{ACAD_REACTORS
330
C2E
102
}
330
C2E
100
AcDbVisualStyle
  2
Thicken
 70
    13
 71
     2
 72
     2
 73
     0
 90
        0
 40
-0.6
 41
-30.0
 62
     5
 63
     7
 74
     1
 91
        4
 64
     7
 65
   257
 75
     1
175
     1
 42
1.0
 92
       12
 66
     7
 43
1.0
 76
     1
 77
     6
 78
     2
 67
     7
 79
     5
170
     0
171
     0
290
     0
174
     0
 93
        1
 44
0.0
173
     0
291
     1
 45
0.0
1001
ACAD
1000
AcDbSavedByObjectVersion
1070
     0
  0
VISUALSTYLE
  5
C35
102
{ACAD_XDICTIONARY
360
D4E
102
}
102
{ACAD_REACTORS
330
C2E
102
}
330
C2E
100
AcDbVisualStyle
  2
Wireframe
 70
     5
 71
     0
 72
     2
 73
     0
 90
        0
 40
-0.6
 41
-30.0
 62
     5
 63
     7
 74
     1
 91
        4
 64
     7
 65
   257
 75
     1
175
     1
 42
1.0
 92
        0
 66
   257
 43
1.0
 76
     1
 77
     6
 78
     2
 67
     7
 79
     3
170
     0
171
     0
290
     0
174
     0
 93
        1
 44
0.0
173
     0
291
     0
 45
0.0
1001
ACAD
1000
AcDbSavedByObjectVersion
1070
     0
  0
VISUALSTYLE
  5
C41
102
{ACAD_XDICTIONARY
360
D66
102
}
102
{ACAD_REACTORS
330
C2E
102
}
330
C2E
100
AcDbVisualStyle
  2
X-Ray
 70
    25
 71
     2
 72
     2
 73
     1
 90
        1
 40
0.5
 41
-30.0
 62
     5
 63
     7
 74
     1
 91
        0
 64
     7
 65
   257
 75
     1
175
     1
 42
1.0
 92
        8
 66
     7
 43
1.0
 76
     1
 77
     6
 78
     2
 67
     7
 79
     3
170
     0
171
     0
290
     0
174
     0
 93
       13
 44
0.0
173
     0
291
     0
 45
0.0
1001
ACAD
1000
AcDbSavedByObjectVersion
1070
     0
  0
DICTIONARYVAR
  5
D22
102
{ACAD_REACTORS
330
D1C
102
}
330
D1C
100
DictionaryVariables
280
     0
  1
1:1
  0
DICTIONARYVAR
  5
D1E
102
{ACAD_REACTORS
330
D1C
102
}
330
D1C
100
DictionaryVariables
280
     0
  1
STANDARD
  0
DICTIONARYVAR
  5
D1D
102
{ACAD_REACTORS
330
D1C
102
}
330
D1C
100
DictionaryVariables
280
     0
  1
STANDARD
  0
DICTIONARYVAR
  5
D1F
102
{ACAD_REACTORS
330
D1C
102
}
330
D1C
100
DictionaryVariables
280
     0
  1
Imperial24
  0
DICTIONARYVAR
  5
D20
102
{ACAD_REACTORS
330
D1C
102
}
330
D1C
100
DictionaryVariables
280
     0
  1
Imperial24
  0
DICTIONARYVAR
  5
D2E
102
{ACAD_REACTORS
330
D1C
102
}
330
D1C
100
DictionaryVariables
280
     0
  1
1
  0
DICTIONARYVAR
  5
D2C
102
{ACAD_REACTORS
330
D1C
102
}
330
D1C
100
DictionaryVariables
280
     0
  1
0
  0
DICTIONARYVAR
  5
D24
102
{ACAD_REACTORS
330
D1C
102
}
330
D1C
100
DictionaryVariables
280
     0
  1
1
  0
DICTIONARYVAR
  5
D25
102
{ACAD_REACTORS
330
D1C
102
}
330
D1C
100
DictionaryVariables
280
     0
  1
15
  0
DICTIONARYVAR
  5
D23
102
{ACAD_REACTORS
330
D1C
102
}
330
D1C
100
DictionaryVariables
280
     0
  1
0
  0
DICTIONARYVAR
  5
D21
102
{ACAD_REACTORS
330
D1C
102
}
330
D1C
100
DictionaryVariables
280
     0
  1
0
  0
DICTIONARYVAR
  5
D2B
102
{ACAD_REACTORS
330
D1C
102
}
330
D1C
100
DictionaryVariables
280
     0
  1
127
  0
DICTIONARYVAR
  5
D2D
102
{ACAD_REACTORS
330
D1C
102
}
330
D1C
100
DictionaryVariables
280
     0
  1
0
  0
DICTIONARY
  5
D3A
102
{ACAD_REACTORS
330
D38
102
}
330
D38
100
AcDbDictionary
281
     1
  0
DICTIONARY
  5
D39
102
{ACAD_REACTORS
330
D38
102
}
330
D38
100
AcDbDictionary
281
     1
  3
2129763032
350
D33
  3
2129763040
350
D34
  3
2129763048
350
D35
  3
2129763056
350
D36
  3
2129763064
350
D37
  0
DICTIONARY
  5
D19
330
C60
100
AcDbDictionary
280
     1
281
     1
  3
ACAD_XREC_ROUNDTRIP
360
D77
  0
DICTIONARY
  5
D3D
330
318
100
AcDbDictionary
280
     1
281
     1
  3
ACAD_XREC_ROUNDTRIP
360
D3E
  0
DICTIONARY
  5
D3B
330
314
100
AcDbDictionary
280
     1
281
     1
  3
ACAD_XREC_ROUNDTRIP
360
D3C
  0
DICTIONARY
  5
C1F
330
C1E
100
AcDbDictionary
280
     1
281
     1
  3
ACAD_XREC_ROUNDTRIP
360
D40
  3
BUMPTILE
360
C21
  3
DIFFUSETILE
360
C20
  3
OPACITYTILE
360
C24
  3
REFLECTIONTILE
360
C23
  3
REFRACTIONTILE
360
C25
  3
SPECULARTILE
360
C22
  0
DICTIONARY
  5
C17
330
C16
100
AcDbDictionary
280
     1
281
     1
  3
ACAD_XREC_ROUNDTRIP
360
D3F
  3
BUMPTILE
360
C19
  3
DIFFUSETILE
360
C18
  3
OPACITYTILE
360
C1C
  3
REFLECTIONTILE
360
C1B
  3
REFRACTIONTILE
360
C1D
  3
SPECULARTILE
360
C1A
  0
DICTIONARY
  5
C27
330
C26
100
AcDbDictionary
280
     1
281
     1
  3
ACAD_XREC_ROUNDTRIP
360
D41
  3
BUMPTILE
360
C29
  3
DIFFUSETILE
360
C28
  3
OPACITYTILE
360
C2C
  3
REFLECTIONTILE
360
C2B
  3
REFRACTIONTILE
360
C2D
  3
SPECULARTILE
360
C2A
  0
DICTIONARY
  5
D74
330
C5C
100
AcDbDictionary
280
     1
281
     1
  3
ACAD_XREC_ROUNDTRIP
360
D75
  0
DICTIONARY
  5
D17
330
C5E
100
AcDbDictionary
280
     1
281
     1
  3
ACAD_XREC_ROUNDTRIP
360
D76
  0
DICTIONARY
  5
D2F
330
C48
100
AcDbDictionary
280
     1
281
     1
  3
ACAD_ROUNDTRIP_2008_TABLESTYLE_CELLSTYLEMAP
360
D30
  3
ACAD_XREC_ROUNDTRIP
360
D72
  0
DICTIONARY
  5
D4C
330
C34
100
AcDbDictionary
280
     1
281
     1
  3
ACAD_XREC_ROUNDTRIP
360
D4D
  0
DICTIONARY
  5
D4A
330
C33
100
AcDbDictionary
280
     1
281
     1
  3
ACAD_XREC_ROUNDTRIP
360
D4B
  0
DICTIONARY
  5
D58
330
C3A
100
AcDbDictionary
280
     1
281
     1
  3
ACAD_XREC_ROUNDTRIP
360
D59
  0
DICTIONARY
  5
D60
330
C3E
100
AcDbDictionary
280
     1
281
     1
  3
ACAD_XREC_ROUNDTRIP
360
D61
  0
DICTIONARY
  5
D52
330
C37
100
AcDbDictionary
280
     1
281
     1
  3
ACAD_XREC_ROUNDTRIP
360
D53
  0
DICTIONARY
  5
D56
330
C39
100
AcDbDictionary
280
     1
281
     1
  3
ACAD_XREC_ROUNDTRIP
360
D57
  0
DICTIONARY
  5
D70
330
C46
100
AcDbDictionary
280
     1
281
     1
  3
ACAD_XREC_ROUNDTRIP
360
D71
  0
DICTIONARY
  5
D5E
330
C3D
100
AcDbDictionary
280
     1
281
     1
  3
ACAD_XREC_ROUNDTRIP
360
D5F
  0
DICTIONARY
  5
D42
330
C2F
100
AcDbDictionary
280
     1
281
     1
  3
ACAD_XREC_ROUNDTRIP
360
D43
  0
DICTIONARY
  5
D44
330
C30
100
AcDbDictionary
280
     1
281
     1
  3
ACAD_XREC_ROUNDTRIP
360
D45
  0
DICTIONARY
  5
D46
330
C31
100
AcDbDictionary
280
     1
281
     1
  3
ACAD_XREC_ROUNDTRIP
360
D47
  0
DICTIONARY
  5
D48
330
C32
100
AcDbDictionary
280
     1
281
     1
  3
ACAD_XREC_ROUNDTRIP
360
D49
  0
DICTIONARY
  5
D50
330
C36
100
AcDbDictionary
280
     1
281
     1
  3
ACAD_XREC_ROUNDTRIP
360
D51
  0
DICTIONARY
  5
D6C
330
C44
100
AcDbDictionary
280
     1
281
     1
  3
ACAD_XREC_ROUNDTRIP
360
D6D
  0
DICTIONARY
  5
D5C
330
C3C
100
AcDbDictionary
280
     1
281
     1
  3
ACAD_XREC_ROUNDTRIP
360
D5D
  0
DICTIONARY
  5
D6E
330
C45
100
AcDbDictionary
280
     1
281
     1
  3
ACAD_XREC_ROUNDTRIP
360
D6F
  0
DICTIONARY
  5
D54
330
C38
100
AcDbDictionary
280
     1
281
     1
  3
ACAD_XREC_ROUNDTRIP
360
D55
  0
DICTIONARY
  5
D6A
330
C43
100
AcDbDictionary
280
     1
281
     1
  3
ACAD_XREC_ROUNDTRIP
360
D6B
  0
DICTIONARY
  5
D68
330
C42
100
AcDbDictionary
280
     1
281
     1
  3
ACAD_XREC_ROUNDTRIP
360
D69
  0
DICTIONARY
  5
D62
330
C3F
100
AcDbDictionary
280
     1
281
     1
  3
ACAD_XREC_ROUNDTRIP
360
D63
  0
DICTIONARY
  5
D64
330
C40
100
AcDbDictionary
280
     1
281
     1
  3
ACAD_XREC_ROUNDTRIP
360
D65
  0
DICTIONARY
  5
D5A
330
C3B
100
AcDbDictionary
280
     1
281
     1
  3
ACAD_XREC_ROUNDTRIP
360
D5B
  0
DICTIONARY
  5
D4E
330
C35
100
AcDbDictionary
280
     1
281
     1
  3
ACAD_XREC_ROUNDTRIP
360
D4F
  0
DICTIONARY
  5
D66
330
C41
100
AcDbDictionary
280
     1
281
     1
  3
ACAD_XREC_ROUNDTRIP
360
D67
  0
XRECORD
  5
D33
102
{ACAD_REACTORS
330
D39
102
}
330
D39
100
AcDbXrecord
280
     1
  1
AcDb_Thumbnail_Schema
102
{ATTRRECORD
341
D34
  2
AcDbDs::TreatedAsObjectData
280
     1
291
     1
102
ATTRRECORD}
102
{ATTRRECORD
341
D35
  2
AcDbDs::Legacy
280
     1
291
     1
102
ATTRRECORD}
  2
AcDbDs::ID
280
    10
 91
        8
102
{ATTRRECORD
341
D36
  2
AcDs:Indexable
280
     1
291
     1
102
ATTRRECORD}
102
{ATTRRECORD
341
D37
  2
AcDbDs::HandleAttribute
280
     7
282
     1
102
ATTRRECORD}
  2
Thumbnail_Data
280
    15
 91
        0
  0
XRECORD
  5
D34
102
{ACAD_REACTORS
330
D39
102
}
330
D39
100
AcDbXrecord
280
     1
  1
AcDbDs::TreatedAsObjectDataSchema
  2
AcDbDs::TreatedAsObjectData
280
     1
 91
        0
  0
XRECORD
  5
D35
102
{ACAD_REACTORS
330
D39
102
}
330
D39
100
AcDbXrecord
280
     1
  1
AcDbDs::LegacySchema
  2
AcDbDs::Legacy
280
     1
 91
        0
  0
XRECORD
  5
D36
102
{ACAD_REACTORS
330
D39
102
}
330
D39
100
AcDbXrecord
280
     1
  1
AcDbDs::IndexedPropertySchema
  2
AcDs:Indexable
280
     1
 91
        0
  0
XRECORD
  5
D37
102
{ACAD_REACTORS
330
D39
102
}
330
D39
100
AcDbXrecord
280
     1
  1
AcDbDs::HandleAttributeSchema
  2
AcDbDs::HandleAttribute
280
     7
 91
        1
284
     1
  0
XRECORD
  5
D77
102
{ACAD_REACTORS
330
D19
102
}
330
D19
100
AcDbXrecord
280
     1
102
DISPLAYNAME
  1
Imperial24
102
FLAGS
 90
        0
  0
XRECORD
  5
D3E
102
{ACAD_REACTORS
330
D3D
102
}
330
D3D
100
AcDbXrecord
280
     1
102
SHADEPLOT
 70
     0
102
SHADEPLOTRESLEVEL
 70
     2
102
SHADEPLOTCUSTOMDPI
 70
   150
  0
XRECORD
  5
D3C
102
{ACAD_REACTORS
330
D3B
102
}
330
D3B
100
AcDbXrecord
280
     1
102
SHADEPLOT
 70
     0
102
SHADEPLOTRESLEVEL
 70
     2
102
SHADEPLOTCUSTOMDPI
 70
   300
  0
XRECORD
  5
D40
102
{ACAD_REACTORS
330
C1F
102
}
330
C1F
100
AcDbXrecord
280
     1
102
MATERIAL
148
0.0
149
0.0
149
0.0
 93
        0
 94
      127
282
     0
 72
     0
 77
     0
171
     0
175
     0
179
     0
273
     0
  0
XRECORD
  5
C21
102
{ACAD_REACTORS
330
C1F
102
}
330
C1F
100
AcDbXrecord
280
     1
270
     1
271
     1
  0
XRECORD
  5
C20
102
{ACAD_REACTORS
330
C1F
102
}
330
C1F
100
AcDbXrecord
280
     1
270
     1
271
     1
  0
XRECORD
  5
C24
102
{ACAD_REACTORS
330
C1F
102
}
330
C1F
100
AcDbXrecord
280
     1
270
     1
271
     1
  0
XRECORD
  5
C23
102
{ACAD_REACTORS
330
C1F
102
}
330
C1F
100
AcDbXrecord
280
     1
270
     1
271
     1
  0
XRECORD
  5
C25
102
{ACAD_REACTORS
330
C1F
102
}
330
C1F
100
AcDbXrecord
280
     1
270
     1
271
     1
  0
XRECORD
  5
C22
102
{ACAD_REACTORS
330
C1F
102
}
330
C1F
100
AcDbXrecord
280
     1
270
     1
271
     1
  0
XRECORD
  5
D3F
102
{ACAD_REACTORS
330
C17
102
}
330
C17
100
AcDbXrecord
280
     1
102
MATERIAL
148
0.0
149
0.0
149
0.0
 93
        0
 94
      127
282
     0
 72
     0
 77
     0
171
     0
175
     0
179
     0
273
     0
  0
XRECORD
  5
C19
102
{ACAD_REACTORS
330
C17
102
}
330
C17
100
AcDbXrecord
280
     1
270
     1
271
     1
  0
XRECORD
  5
C18
102
{ACAD_REACTORS
330
C17
102
}
330
C17
100
AcDbXrecord
280
     1
270
     1
271
     1
  0
XRECORD
  5
C1C
102
{ACAD_REACTORS
330
C17
102
}
330
C17
100
AcDbXrecord
280
     1
270
     1
271
     1
  0
XRECORD
  5
C1B
102
{ACAD_REACTORS
330
C17
102
}
330
C17
100
AcDbXrecord
280
     1
270
     1
271
     1
  0
XRECORD
  5
C1D
102
{ACAD_REACTORS
330
C17
102
}
330
C17
100
AcDbXrecord
280
     1
270
     1
271
     1
  0
XRECORD
  5
C1A
102
{ACAD_REACTORS
330
C17
102
}
330
C17
100
AcDbXrecord
280
     1
270
     1
271
     1
  0
XRECORD
  5
D41
102
{ACAD_REACTORS
330
C27
102
}
330
C27
100
AcDbXrecord
280
     1
102
MATERIAL
148
0.0
149
0.0
149
0.0
 93
        0
 94
      127
282
     0
 72
     0
 77
     0
171
     0
175
     0
179
     0
273
     0
  0
XRECORD
  5
C29
102
{ACAD_REACTORS
330
C27
102
}
330
C27
100
AcDbXrecord
280
     1
270
     1
271
     1
  0
XRECORD
  5
C28
102
{ACAD_REACTORS
330
C27
102
}
330
C27
100
AcDbXrecord
280
     1
270
     1
271
     1
  0
XRECORD
  5
C2C
102
{ACAD_REACTORS
330
C27
102
}
330
C27
100
AcDbXrecord
280
     1
270
     1
271
     1
  0
XRECORD
  5
C2B
102
{ACAD_REACTORS
330
C27
102
}
330
C27
100
AcDbXrecord
280
     1
270
     1
271
     1
  0
XRECORD
  5
C2D
102
{ACAD_REACTORS
330
C27
102
}
330
C27
100
AcDbXrecord
280
     1
270
     1
271
     1
  0
XRECORD
  5
C2A
102
{ACAD_REACTORS
330
C27
102
}
330
C27
100
AcDbXrecord
280
     1
270
     1
271
     1
  0
XRECORD
  5
D75
102
{ACAD_REACTORS
330
D74
102
}
330
D74
100
AcDbXrecord
280
     1
102
ACAD_ROUNDTRIP_2012_MLEADER_STYLE
298
     1
  0
XRECORD
  5
D76
102
{ACAD_REACTORS
330
D17
102
}
330
D17
100
AcDbXrecord
280
     1
102
DISPLAYNAME
  1
Imperial24
102
FLAGS
 90
        0
  0
CELLSTYLEMAP
  5
D30
102
{ACAD_REACTORS
330
D2F
102
}
330
D2F
100
AcDbCellStyleMap
 90
        3
300
CELLSTYLE
  1
TABLEFORMAT_BEGIN
 90
        5
170
     1
 91
        0
 92
    32768
 62
   257
 93
        1
300
CONTENTFORMAT
  1
CONTENTFORMAT_BEGIN
 90
        0
 91
        0
 92
      512
 93
        0
300

 40
0.0
140
1.0
 94
        5
 62
     0
340
306
144
0.25
309
CONTENTFORMAT_END
171
     0
 94
        0
309
TABLEFORMAT_END
  1
CELLSTYLE_BEGIN
 90
        1
 91
        1
300
_TITLE
309
CELLSTYLE_END
300
CELLSTYLE
  1
TABLEFORMAT_BEGIN
 90
        5
170
     1
 91
        0
 92
        0
 62
   257
 93
        1
300
CONTENTFORMAT
  1
CONTENTFORMAT_BEGIN
 90
        0
 91
        0
 92
      512
 93
        0
300

 40
0.0
140
1.0
 94
        5
 62
     0
340
306
144
0.18
309
CONTENTFORMAT_END
171
     0
 94
        0
309
TABLEFORMAT_END
  1
CELLSTYLE_BEGIN
 90
        2
 91
        1
300
_HEADER
309
CELLSTYLE_END
300
CELLSTYLE
  1
TABLEFORMAT_BEGIN
 90
        5
170
     1
 91
        0
 92
        0
 62
   257
 93
        1
300
CONTENTFORMAT
  1
CONTENTFORMAT_BEGIN
 90
        0
 91
        0
 92
      512
 93
        0
300

 40
0.0
140
1.0
 94
        2
 62
     0
340
306
144
0.18
309
CONTENTFORMAT_END
171
     0
 94
        0
309
TABLEFORMAT_END
  1
CELLSTYLE_BEGIN
 90
        3
 91
        2
300
_DATA
309
CELLSTYLE_END
  0
XRECORD
  5
D72
102
{ACAD_REACTORS
330
D2F
102
}
330
D2F
100
AcDbXrecord
280
     1
102
ACAD_ROUNDTRIP_PRE2007_TABLESTYLE
 90
      512
 91
        0
  1

 92
      512
 93
        0
  2

 94
      512
 95
        0
  3

  0
XRECORD
  5
D4D
102
{ACAD_REACTORS
330
D4C
102
}
330
D4C
100
AcDbXrecord
280
     1
102
RTVSPost2010Prop28
280
     1
102
RTVSPost2010PropOp28
 70
     1
102
RTVSPost2010Prop29
280
     1
102
RTVSPost2010PropOp29
 70
     1
102
RTVSPost2010Prop30
280
     0
102
RTVSPost2010PropOp30
 70
     1
102
RTVSPost2010Prop31
280
     0
102
RTVSPost2010PropOp31
 70
     1
102
RTVSPost2010Prop32
280
     0
102
RTVSPost2010PropOp32
 70
     1
102
RTVSPost2010Prop33
280
     0
102
RTVSPost2010PropOp33
 70
     1
102
RTVSPost2010Prop34
280
     0
102
RTVSPost2010PropOp34
 70
     1
102
RTVSPost2010Prop35
280
     0
102
RTVSPost2010PropOp35
 70
     1
102
RTVSPost2010Prop36
280
     0
102
RTVSPost2010PropOp36
 70
     1
102
RTVSPost2010Prop37
 90
       50
102
RTVSPost2010PropOp37
 70
     1
102
RTVSPost2010Prop38
140
0.0
102
RTVSPost2010PropOp38
 70
     1
102
RTVSPost2010Prop39
140
1.0
102
RTVSPost2010PropOp39
 70
     1
102
RTVSPost2010Prop40
 90
        0
102
RTVSPost2010PropOp40
 70
     1
102
RTVSPost2010Prop41ColorIndex
 90
       18
102
RTVSPost2010Prop41ColorRGB
 90
        0
102
RTVSPost2010PropOp41
 70
     1
102
RTVSPost2010Prop42
 90
       50
102
RTVSPost2010PropOp42
 70
     1
102
RTVSPost2010Prop43
 90
        3
102
RTVSPost2010PropOp43
 70
     1
102
RTVSPost2010Prop44ColorIndex
 90
        5
102
RTVSPost2010Prop44ColorRGB
 90
      255
102
RTVSPost2010PropOp44
 70
     1
102
RTVSPost2010Prop45
280
     0
102
RTVSPost2010PropOp45
 70
     1
102
RTVSPost2010Prop46
 90
       50
102
RTVSPost2010PropOp46
 70
     1
102
RTVSPost2010Prop47
 90
       50
102
RTVSPost2010PropOp47
 70
     1
102
RTVSPost2010Prop48
 90
       50
102
RTVSPost2010PropOp48
 70
     1
102
RTVSPost2010Prop49
280
     0
102
RTVSPost2010PropOp49
 70
     1
102
RTVSPost2010Prop50
 90
       50
102
RTVSPost2010PropOp50
 70
     1
102
RTVSPost2010Prop51ColorIndex
 90
      256
102
RTVSPost2010Prop51ColorRGB
 90
-16777216
102
RTVSPost2010PropOp51
 70
     0
102
RTVSPost2010Prop52
140
1.0
102
RTVSPost2010PropOp52
 70
     0
102
RTVSPost2010Prop53
 90
        2
102
RTVSPost2010PropOp53
 70
     1
102
RTVSPost2010Prop54
  1
strokes_ogs.tif
102
RTVSPost2010PropOp54
 70
     1
102
RTVSPost2010Prop55
280
     0
102
RTVSPost2010PropOp55
 70
     1
102
RTVSPost2010Prop56
140
1.0
102
RTVSPost2010PropOp56
 70
     1
102
RTVSPost2010Prop57
140
1.0
102
RTVSPost2010PropOp57
 70
     1
102
RTVSPropertyOp0
 70
     1
102
RTVSPropertyOp1
 70
     1
102
RTVSPropertyOp2
 70
     1
102
RTVSPropertyOp3
 70
     1
102
RTVSPropertyOp4
 70
     1
102
RTVSPropertyOp5
 70
     1
102
RTVSPropertyOp6
 70
     1
102
RTVSPropertyOp7
 70
     1
102
RTVSPropertyOp8
 70
     1
102
RTVSPropertyOp9
 70
     1
102
RTVSPropertyOp10
 70
     1
102
RTVSPropertyOp11
 70
     1
102
RTVSPropertyOp12
 70
     1
102
RTVSPropertyOp13
 70
     1
102
RTVSPropertyOp14
 70
     1
102
RTVSPropertyOp15
 70
     1
102
RTVSPropertyOp16
 70
     1
102
RTVSPropertyOp17
 70
     1
102
RTVSPropertyOp18
 70
     1
102
RTVSPropertyOp19
 70
     1
102
RTVSPropertyOp20
 70
     1
102
RTVSPropertyOp21
 70
     1
102
RTVSPropertyOp22
 70
     1
102
RTVSPropertyOp23
 70
     1
102
RTVSPropertyOp24
 70
     1
102
RTVSPropertyOp25
 70
     1
102
RTVSPropertyOp26
 70
     1
102
RTVSPropertyOp27
 70
     1
102
RTVSPropertyOp28
 70
     1
102
RTVSPropertyOp29
 70
     1
102
RTVSPropertyOp30
 70
     1
102
RTVSPropertyOp31
 70
     1
102
RTVSPropertyOp32
 70
     1
102
RTVSPropertyOp33
 70
     1
102
RTVSPropertyOp34
 70
     1
102
RTVSPropertyOp35
 70
     1
102
RTVSPropertyOp36
 70
     1
102
RTVSPropertyOp37
 70
     1
102
RTVSPropertyOp38
 70
     1
102
RTVSPropertyOp39
 70
     1
102
RTVSPropertyOp40
 70
     1
102
RTVSPropertyOp41
 70
     1
102
RTVSPropertyOp42
 70
     1
102
RTVSPropertyOp43
 70
     1
102
RTVSPropertyOp44
 70
     1
102
RTVSPropertyOp45
 70
     1
102
RTVSPropertyOp46
 70
     1
102
RTVSPropertyOp47
 70
     1
102
RTVSPropertyOp48
 70
     1
102
RTVSPropertyOp49
 70
     1
102
RTVSPropertyOp50
 70
     1
102
RTVSPropertyOp51
 70
     0
102
RTVSPropertyOp52
 70
     0
102
RTVSPropertyOp53
 70
     1
102
RTVSPropertyOp54
 70
     1
102
RTVSPropertyOp55
 70
     1
102
RTVSPropertyOp56
 70
     1
102
RTVSPropertyOp57
 70
     1
102
RTVSPropertyOp58
 70
     1
102
RTVSPropertyOp59
 70
     1
102
RTVSPropertyOp60
 70
     1
102
RTVSPropertyOp61
 70
     1
102
RTVSPropertyOp62
 70
     1
  0
XRECORD
  5
D4B
102
{ACAD_REACTORS
330
D4A
102
}
330
D4A
100
AcDbXrecord
280
     1
102
RTVSPost2010Prop28
280
     0
102
RTVSPost2010PropOp28
 70
     1
102
RTVSPost2010Prop29
280
     1
102
RTVSPost2010PropOp29
 70
     1
102
RTVSPost2010Prop30
280
     1
102
RTVSPost2010PropOp30
 70
     1
102
RTVSPost2010Prop31
280
     0
102
RTVSPost2010PropOp31
 70
     1
102
RTVSPost2010Prop32
280
     0
102
RTVSPost2010PropOp32
 70
     1
102
RTVSPost2010Prop33
280
     0
102
RTVSPost2010PropOp33
 70
     1
102
RTVSPost2010Prop34
280
     0
102
RTVSPost2010PropOp34
 70
     1
102
RTVSPost2010Prop35
280
     0
102
RTVSPost2010PropOp35
 70
     1
102
RTVSPost2010Prop36
280
     0
102
RTVSPost2010PropOp36
 70
     1
102
RTVSPost2010Prop37
 90
       50
102
RTVSPost2010PropOp37
 70
     1
102
RTVSPost2010Prop38
140
0.0
102
RTVSPost2010PropOp38
 70
     1
102
RTVSPost2010Prop39
140
1.0
102
RTVSPost2010PropOp39
 70
     1
102
RTVSPost2010Prop40
 90
        0
102
RTVSPost2010PropOp40
 70
     1
102
RTVSPost2010Prop41ColorIndex
 90
       18
102
RTVSPost2010Prop41ColorRGB
 90
        0
102
RTVSPost2010PropOp41
 70
     1
102
RTVSPost2010Prop42
 90
       50
102
RTVSPost2010PropOp42
 70
     1
102
RTVSPost2010Prop43
 90
        3
102
RTVSPost2010PropOp43
 70
     1
102
RTVSPost2010Prop44ColorIndex
 90
        5
102
RTVSPost2010Prop44ColorRGB
 90
      255
102
RTVSPost2010PropOp44
 70
     1
102
RTVSPost2010Prop45
280
     0
102
RTVSPost2010PropOp45
 70
     1
102
RTVSPost2010Prop46
 90
       50
102
RTVSPost2010PropOp46
 70
     1
102
RTVSPost2010Prop47
 90
       50
102
RTVSPost2010PropOp47
 70
     1
102
RTVSPost2010Prop48
 90
       50
102
RTVSPost2010PropOp48
 70
     1
102
RTVSPost2010Prop49
280
     0
102
RTVSPost2010PropOp49
 70
     1
102
RTVSPost2010Prop50
 90
       50
102
RTVSPost2010PropOp50
 70
     1
102
RTVSPost2010Prop51ColorIndex
 90
      256
102
RTVSPost2010Prop51ColorRGB
 90
-16777216
102
RTVSPost2010PropOp51
 70
     0
102
RTVSPost2010Prop52
140
1.0
102
RTVSPost2010PropOp52
 70
     0
102
RTVSPost2010Prop53
 90
        2
102
RTVSPost2010PropOp53
 70
     1
102
RTVSPost2010Prop54
  1
strokes_ogs.tif
102
RTVSPost2010PropOp54
 70
     1
102
RTVSPost2010Prop55
280
     0
102
RTVSPost2010PropOp55
 70
     1
102
RTVSPost2010Prop56
140
1.0
102
RTVSPost2010PropOp56
 70
     1
102
RTVSPost2010Prop57
140
1.0
102
RTVSPost2010PropOp57
 70
     1
102
RTVSPropertyOp0
 70
     1
102
RTVSPropertyOp1
 70
     1
102
RTVSPropertyOp2
 70
     1
102
RTVSPropertyOp3
 70
     1
102
RTVSPropertyOp4
 70
     1
102
RTVSPropertyOp5
 70
     1
102
RTVSPropertyOp6
 70
     1
102
RTVSPropertyOp7
 70
     1
102
RTVSPropertyOp8
 70
     1
102
RTVSPropertyOp9
 70
     1
102
RTVSPropertyOp10
 70
     1
102
RTVSPropertyOp11
 70
     1
102
RTVSPropertyOp12
 70
     1
102
RTVSPropertyOp13
 70
     1
102
RTVSPropertyOp14
 70
     1
102
RTVSPropertyOp15
 70
     1
102
RTVSPropertyOp16
 70
     1
102
RTVSPropertyOp17
 70
     1
102
RTVSPropertyOp18
 70
     1
102
RTVSPropertyOp19
 70
     1
102
RTVSPropertyOp20
 70
     1
102
RTVSPropertyOp21
 70
     1
102
RTVSPropertyOp22
 70
     1
102
RTVSPropertyOp23
 70
     1
102
RTVSPropertyOp24
 70
     1
102
RTVSPropertyOp25
 70
     1
102
RTVSPropertyOp26
 70
     1
102
RTVSPropertyOp27
 70
     1
102
RTVSPropertyOp28
 70
     1
102
RTVSPropertyOp29
 70
     1
102
RTVSPropertyOp30
 70
     1
102
RTVSPropertyOp31
 70
     1
102
RTVSPropertyOp32
 70
     1
102
RTVSPropertyOp33
 70
     1
102
RTVSPropertyOp34
 70
     1
102
RTVSPropertyOp35
 70
     1
102
RTVSPropertyOp36
 70
     1
102
RTVSPropertyOp37
 70
     1
102
RTVSPropertyOp38
 70
     1
102
RTVSPropertyOp39
 70
     1
102
RTVSPropertyOp40
 70
     1
102
RTVSPropertyOp41
 70
     1
102
RTVSPropertyOp42
 70
     1
102
RTVSPropertyOp43
 70
     1
102
RTVSPropertyOp44
 70
     1
102
RTVSPropertyOp45
 70
     1
102
RTVSPropertyOp46
 70
     1
102
RTVSPropertyOp47
 70
     1
102
RTVSPropertyOp48
 70
     1
102
RTVSPropertyOp49
 70
     1
102
RTVSPropertyOp50
 70
     1
102
RTVSPropertyOp51
 70
     0
102
RTVSPropertyOp52
 70
     0
102
RTVSPropertyOp53
 70
     1
102
RTVSPropertyOp54
 70
     1
102
RTVSPropertyOp55
 70
     1
102
RTVSPropertyOp56
 70
     1
102
RTVSPropertyOp57
 70
     1
102
RTVSPropertyOp58
 70
     1
102
RTVSPropertyOp59
 70
     1
102
RTVSPropertyOp60
 70
     1
102
RTVSPropertyOp61
 70
     1
102
RTVSPropertyOp62
 70
     1
  0
XRECORD
  5
D59
102
{ACAD_REACTORS
330
D58
102
}
330
D58
100
AcDbXrecord
280
     1
102
RTVSPost2010Prop28
280
     0
102
RTVSPost2010PropOp28
 70
     1
102
RTVSPost2010Prop29
280
     1
102
RTVSPost2010PropOp29
 70
     1
102
RTVSPost2010Prop30
280
     1
102
RTVSPost2010PropOp30
 70
     1
102
RTVSPost2010Prop31
280
     0
102
RTVSPost2010PropOp31
 70
     1
102
RTVSPost2010Prop32
280
     0
102
RTVSPost2010PropOp32
 70
     1
102
RTVSPost2010Prop33
280
     0
102
RTVSPost2010PropOp33
 70
     1
102
RTVSPost2010Prop34
280
     0
102
RTVSPost2010PropOp34
 70
     1
102
RTVSPost2010Prop35
280
     0
102
RTVSPost2010PropOp35
 70
     1
102
RTVSPost2010Prop36
280
     0
102
RTVSPost2010PropOp36
 70
     1
102
RTVSPost2010Prop37
 90
       50
102
RTVSPost2010PropOp37
 70
     1
102
RTVSPost2010Prop38
140
0.0
102
RTVSPost2010PropOp38
 70
     1
102
RTVSPost2010Prop39
140
1.0
102
RTVSPost2010PropOp39
 70
     1
102
RTVSPost2010Prop40
 90
        0
102
RTVSPost2010PropOp40
 70
     1
102
RTVSPost2010Prop41ColorIndex
 90
       18
102
RTVSPost2010Prop41ColorRGB
 90
        0
102
RTVSPost2010PropOp41
 70
     1
102
RTVSPost2010Prop42
 90
       50
102
RTVSPost2010PropOp42
 70
     1
102
RTVSPost2010Prop43
 90
        3
102
RTVSPost2010PropOp43
 70
     1
102
RTVSPost2010Prop44ColorIndex
 90
        5
102
RTVSPost2010Prop44ColorRGB
 90
      255
102
RTVSPost2010PropOp44
 70
     1
102
RTVSPost2010Prop45
280
     0
102
RTVSPost2010PropOp45
 70
     1
102
RTVSPost2010Prop46
 90
       50
102
RTVSPost2010PropOp46
 70
     1
102
RTVSPost2010Prop47
 90
       50
102
RTVSPost2010PropOp47
 70
     1
102
RTVSPost2010Prop48
 90
       50
102
RTVSPost2010PropOp48
 70
     1
102
RTVSPost2010Prop49
280
     0
102
RTVSPost2010PropOp49
 70
     1
102
RTVSPost2010Prop50
 90
       50
102
RTVSPost2010PropOp50
 70
     1
102
RTVSPost2010Prop51ColorIndex
 90
      256
102
RTVSPost2010Prop51ColorRGB
 90
-16777216
102
RTVSPost2010PropOp51
 70
     0
102
RTVSPost2010Prop52
140
1.0
102
RTVSPost2010PropOp52
 70
     0
102
RTVSPost2010Prop53
 90
        2
102
RTVSPost2010PropOp53
 70
     1
102
RTVSPost2010Prop54
  1
strokes_ogs.tif
102
RTVSPost2010PropOp54
 70
     1
102
RTVSPost2010Prop55
280
     0
102
RTVSPost2010PropOp55
 70
     1
102
RTVSPost2010Prop56
140
1.0
102
RTVSPost2010PropOp56
 70
     1
102
RTVSPost2010Prop57
140
1.0
102
RTVSPost2010PropOp57
 70
     1
102
RTVSPropertyOp0
 70
     1
102
RTVSPropertyOp1
 70
     1
102
RTVSPropertyOp2
 70
     1
102
RTVSPropertyOp3
 70
     1
102
RTVSPropertyOp4
 70
     1
102
RTVSPropertyOp5
 70
     1
102
RTVSPropertyOp6
 70
     1
102
RTVSPropertyOp7
 70
     1
102
RTVSPropertyOp8
 70
     1
102
RTVSPropertyOp9
 70
     1
102
RTVSPropertyOp10
 70
     1
102
RTVSPropertyOp11
 70
     1
102
RTVSPropertyOp12
 70
     1
102
RTVSPropertyOp13
 70
     1
102
RTVSPropertyOp14
 70
     1
102
RTVSPropertyOp15
 70
     1
102
RTVSPropertyOp16
 70
     1
102
RTVSPropertyOp17
 70
     1
102
RTVSPropertyOp18
 70
     1
102
RTVSPropertyOp19
 70
     1
102
RTVSPropertyOp20
 70
     1
102
RTVSPropertyOp21
 70
     1
102
RTVSPropertyOp22
 70
     1
102
RTVSPropertyOp23
 70
     1
102
RTVSPropertyOp24
 70
     1
102
RTVSPropertyOp25
 70
     1
102
RTVSPropertyOp26
 70
     1
102
RTVSPropertyOp27
 70
     1
102
RTVSPropertyOp28
 70
     1
102
RTVSPropertyOp29
 70
     1
102
RTVSPropertyOp30
 70
     1
102
RTVSPropertyOp31
 70
     1
102
RTVSPropertyOp32
 70
     1
102
RTVSPropertyOp33
 70
     1
102
RTVSPropertyOp34
 70
     1
102
RTVSPropertyOp35
 70
     1
102
RTVSPropertyOp36
 70
     1
102
RTVSPropertyOp37
 70
     1
102
RTVSPropertyOp38
 70
     1
102
RTVSPropertyOp39
 70
     1
102
RTVSPropertyOp40
 70
     1
102
RTVSPropertyOp41
 70
     1
102
RTVSPropertyOp42
 70
     1
102
RTVSPropertyOp43
 70
     1
102
RTVSPropertyOp44
 70
     1
102
RTVSPropertyOp45
 70
     1
102
RTVSPropertyOp46
 70
     1
102
RTVSPropertyOp47
 70
     1
102
RTVSPropertyOp48
 70
     1
102
RTVSPropertyOp49
 70
     1
102
RTVSPropertyOp50
 70
     1
102
RTVSPropertyOp51
 70
     0
102
RTVSPropertyOp52
 70
     0
102
RTVSPropertyOp53
 70
     1
102
RTVSPropertyOp54
 70
     1
102
RTVSPropertyOp55
 70
     1
102
RTVSPropertyOp56
 70
     1
102
RTVSPropertyOp57
 70
     1
102
RTVSPropertyOp58
 70
     1
102
RTVSPropertyOp59
 70
     1
102
RTVSPropertyOp60
 70
     1
102
RTVSPropertyOp61
 70
     1
102
RTVSPropertyOp62
 70
     1
  0
XRECORD
  5
D61
102
{ACAD_REACTORS
330
D60
102
}
330
D60
100
AcDbXrecord
280
     1
102
RTVSPost2010Prop28
280
     0
102
RTVSPost2010PropOp28
 70
     1
102
RTVSPost2010Prop29
280
     1
102
RTVSPost2010PropOp29
 70
     1
102
RTVSPost2010Prop30
280
     1
102
RTVSPost2010PropOp30
 70
     1
102
RTVSPost2010Prop31
280
     0
102
RTVSPost2010PropOp31
 70
     1
102
RTVSPost2010Prop32
280
     0
102
RTVSPost2010PropOp32
 70
     1
102
RTVSPost2010Prop33
280
     0
102
RTVSPost2010PropOp33
 70
     1
102
RTVSPost2010Prop34
280
     0
102
RTVSPost2010PropOp34
 70
     1
102
RTVSPost2010Prop35
280
     0
102
RTVSPost2010PropOp35
 70
     1
102
RTVSPost2010Prop36
280
     0
102
RTVSPost2010PropOp36
 70
     1
102
RTVSPost2010Prop37
 90
       50
102
RTVSPost2010PropOp37
 70
     1
102
RTVSPost2010Prop38
140
0.0
102
RTVSPost2010PropOp38
 70
     1
102
RTVSPost2010Prop39
140
1.0
102
RTVSPost2010PropOp39
 70
     1
102
RTVSPost2010Prop40
 90
        0
102
RTVSPost2010PropOp40
 70
     1
102
RTVSPost2010Prop41ColorIndex
 90
       18
102
RTVSPost2010Prop41ColorRGB
 90
        0
102
RTVSPost2010PropOp41
 70
     1
102
RTVSPost2010Prop42
 90
       50
102
RTVSPost2010PropOp42
 70
     1
102
RTVSPost2010Prop43
 90
        3
102
RTVSPost2010PropOp43
 70
     1
102
RTVSPost2010Prop44ColorIndex
 90
        5
102
RTVSPost2010Prop44ColorRGB
 90
      255
102
RTVSPost2010PropOp44
 70
     1
102
RTVSPost2010Prop45
280
     0
102
RTVSPost2010PropOp45
 70
     1
102
RTVSPost2010Prop46
 90
       50
102
RTVSPost2010PropOp46
 70
     1
102
RTVSPost2010Prop47
 90
       50
102
RTVSPost2010PropOp47
 70
     1
102
RTVSPost2010Prop48
 90
       50
102
RTVSPost2010PropOp48
 70
     1
102
RTVSPost2010Prop49
280
     0
102
RTVSPost2010PropOp49
 70
     1
102
RTVSPost2010Prop50
 90
       50
102
RTVSPost2010PropOp50
 70
     1
102
RTVSPost2010Prop51ColorIndex
 90
      256
102
RTVSPost2010Prop51ColorRGB
 90
-16777216
102
RTVSPost2010PropOp51
 70
     0
102
RTVSPost2010Prop52
140
1.0
102
RTVSPost2010PropOp52
 70
     0
102
RTVSPost2010Prop53
 90
        2
102
RTVSPost2010PropOp53
 70
     1
102
RTVSPost2010Prop54
  1
strokes_ogs.tif
102
RTVSPost2010PropOp54
 70
     1
102
RTVSPost2010Prop55
280
     0
102
RTVSPost2010PropOp55
 70
     1
102
RTVSPost2010Prop56
140
1.0
102
RTVSPost2010PropOp56
 70
     1
102
RTVSPost2010Prop57
140
1.0
102
RTVSPost2010PropOp57
 70
     1
102
RTVSPropertyOp0
 70
     1
102
RTVSPropertyOp1
 70
     1
102
RTVSPropertyOp2
 70
     1
102
RTVSPropertyOp3
 70
     1
102
RTVSPropertyOp4
 70
     1
102
RTVSPropertyOp5
 70
     1
102
RTVSPropertyOp6
 70
     1
102
RTVSPropertyOp7
 70
     1
102
RTVSPropertyOp8
 70
     1
102
RTVSPropertyOp9
 70
     1
102
RTVSPropertyOp10
 70
     1
102
RTVSPropertyOp11
 70
     1
102
RTVSPropertyOp12
 70
     1
102
RTVSPropertyOp13
 70
     1
102
RTVSPropertyOp14
 70
     1
102
RTVSPropertyOp15
 70
     1
102
RTVSPropertyOp16
 70
     1
102
RTVSPropertyOp17
 70
     1
102
RTVSPropertyOp18
 70
     1
102
RTVSPropertyOp19
 70
     1
102
RTVSPropertyOp20
 70
     1
102
RTVSPropertyOp21
 70
     1
102
RTVSPropertyOp22
 70
     1
102
RTVSPropertyOp23
 70
     1
102
RTVSPropertyOp24
 70
     1
102
RTVSPropertyOp25
 70
     1
102
RTVSPropertyOp26
 70
     1
102
RTVSPropertyOp27
 70
     1
102
RTVSPropertyOp28
 70
     1
102
RTVSPropertyOp29
 70
     1
102
RTVSPropertyOp30
 70
     1
102
RTVSPropertyOp31
 70
     1
102
RTVSPropertyOp32
 70
     1
102
RTVSPropertyOp33
 70
     1
102
RTVSPropertyOp34
 70
     1
102
RTVSPropertyOp35
 70
     1
102
RTVSPropertyOp36
 70
     1
102
RTVSPropertyOp37
 70
     1
102
RTVSPropertyOp38
 70
     1
102
RTVSPropertyOp39
 70
     1
102
RTVSPropertyOp40
 70
     1
102
RTVSPropertyOp41
 70
     1
102
RTVSPropertyOp42
 70
     1
102
RTVSPropertyOp43
 70
     1
102
RTVSPropertyOp44
 70
     1
102
RTVSPropertyOp45
 70
     1
102
RTVSPropertyOp46
 70
     1
102
RTVSPropertyOp47
 70
     1
102
RTVSPropertyOp48
 70
     1
102
RTVSPropertyOp49
 70
     1
102
RTVSPropertyOp50
 70
     1
102
RTVSPropertyOp51
 70
     0
102
RTVSPropertyOp52
 70
     0
102
RTVSPropertyOp53
 70
     1
102
RTVSPropertyOp54
 70
     1
102
RTVSPropertyOp55
 70
     1
102
RTVSPropertyOp56
 70
     1
102
RTVSPropertyOp57
 70
     1
102
RTVSPropertyOp58
 70
     1
102
RTVSPropertyOp59
 70
     1
102
RTVSPropertyOp60
 70
     1
102
RTVSPropertyOp61
 70
     1
102
RTVSPropertyOp62
 70
     1
  0
XRECORD
  5
D53
102
{ACAD_REACTORS
330
D52
102
}
330
D52
100
AcDbXrecord
280
     1
102
RTVSPost2010Prop28
280
     0
102
RTVSPost2010PropOp28
 70
     1
102
RTVSPost2010Prop29
280
     1
102
RTVSPost2010PropOp29
 70
     1
102
RTVSPost2010Prop30
280
     1
102
RTVSPost2010PropOp30
 70
     1
102
RTVSPost2010Prop31
280
     0
102
RTVSPost2010PropOp31
 70
     1
102
RTVSPost2010Prop32
280
     0
102
RTVSPost2010PropOp32
 70
     1
102
RTVSPost2010Prop33
280
     0
102
RTVSPost2010PropOp33
 70
     1
102
RTVSPost2010Prop34
280
     0
102
RTVSPost2010PropOp34
 70
     1
102
RTVSPost2010Prop35
280
     0
102
RTVSPost2010PropOp35
 70
     1
102
RTVSPost2010Prop36
280
     0
102
RTVSPost2010PropOp36
 70
     1
102
RTVSPost2010Prop37
 90
       50
102
RTVSPost2010PropOp37
 70
     1
102
RTVSPost2010Prop38
140
0.0
102
RTVSPost2010PropOp38
 70
     1
102
RTVSPost2010Prop39
140
1.0
102
RTVSPost2010PropOp39
 70
     1
102
RTVSPost2010Prop40
 90
        0
102
RTVSPost2010PropOp40
 70
     1
102
RTVSPost2010Prop41ColorIndex
 90
       18
102
RTVSPost2010Prop41ColorRGB
 90
        0
102
RTVSPost2010PropOp41
 70
     1
102
RTVSPost2010Prop42
 90
       50
102
RTVSPost2010PropOp42
 70
     1
102
RTVSPost2010Prop43
 90
        3
102
RTVSPost2010PropOp43
 70
     1
102
RTVSPost2010Prop44ColorIndex
 90
        5
102
RTVSPost2010Prop44ColorRGB
 90
      255
102
RTVSPost2010PropOp44
 70
     1
102
RTVSPost2010Prop45
280
     0
102
RTVSPost2010PropOp45
 70
     1
102
RTVSPost2010Prop46
 90
       50
102
RTVSPost2010PropOp46
 70
     1
102
RTVSPost2010Prop47
 90
       50
102
RTVSPost2010PropOp47
 70
     1
102
RTVSPost2010Prop48
 90
       50
102
RTVSPost2010PropOp48
 70
     1
102
RTVSPost2010Prop49
280
     0
102
RTVSPost2010PropOp49
 70
     1
102
RTVSPost2010Prop50
 90
       50
102
RTVSPost2010PropOp50
 70
     1
102
RTVSPost2010Prop51ColorIndex
 90
      256
102
RTVSPost2010Prop51ColorRGB
 90
-16777216
102
RTVSPost2010PropOp51
 70
     0
102
RTVSPost2010Prop52
140
1.0
102
RTVSPost2010PropOp52
 70
     0
102
RTVSPost2010Prop53
 90
        2
102
RTVSPost2010PropOp53
 70
     1
102
RTVSPost2010Prop54
  1
strokes_ogs.tif
102
RTVSPost2010PropOp54
 70
     1
102
RTVSPost2010Prop55
280
     0
102
RTVSPost2010PropOp55
 70
     1
102
RTVSPost2010Prop56
140
1.0
102
RTVSPost2010PropOp56
 70
     1
102
RTVSPost2010Prop57
140
1.0
102
RTVSPost2010PropOp57
 70
     1
102
RTVSPropertyOp0
 70
     1
102
RTVSPropertyOp1
 70
     1
102
RTVSPropertyOp2
 70
     1
102
RTVSPropertyOp3
 70
     1
102
RTVSPropertyOp4
 70
     1
102
RTVSPropertyOp5
 70
     1
102
RTVSPropertyOp6
 70
     1
102
RTVSPropertyOp7
 70
     1
102
RTVSPropertyOp8
 70
     1
102
RTVSPropertyOp9
 70
     1
102
RTVSPropertyOp10
 70
     1
102
RTVSPropertyOp11
 70
     1
102
RTVSPropertyOp12
 70
     1
102
RTVSPropertyOp13
 70
     1
102
RTVSPropertyOp14
 70
     1
102
RTVSPropertyOp15
 70
     1
102
RTVSPropertyOp16
 70
     1
102
RTVSPropertyOp17
 70
     1
102
RTVSPropertyOp18
 70
     1
102
RTVSPropertyOp19
 70
     1
102
RTVSPropertyOp20
 70
     1
102
RTVSPropertyOp21
 70
     1
102
RTVSPropertyOp22
 70
     1
102
RTVSPropertyOp23
 70
     1
102
RTVSPropertyOp24
 70
     1
102
RTVSPropertyOp25
 70
     1
102
RTVSPropertyOp26
 70
     1
102
RTVSPropertyOp27
 70
     1
102
RTVSPropertyOp28
 70
     1
102
RTVSPropertyOp29
 70
     1
102
RTVSPropertyOp30
 70
     1
102
RTVSPropertyOp31
 70
     1
102
RTVSPropertyOp32
 70
     1
102
RTVSPropertyOp33
 70
     1
102
RTVSPropertyOp34
 70
     1
102
RTVSPropertyOp35
 70
     1
102
RTVSPropertyOp36
 70
     1
102
RTVSPropertyOp37
 70
     1
102
RTVSPropertyOp38
 70
     1
102
RTVSPropertyOp39
 70
     1
102
RTVSPropertyOp40
 70
     1
102
RTVSPropertyOp41
 70
     1
102
RTVSPropertyOp42
 70
     1
102
RTVSPropertyOp43
 70
     1
102
RTVSPropertyOp44
 70
     1
102
RTVSPropertyOp45
 70
     1
102
RTVSPropertyOp46
 70
     1
102
RTVSPropertyOp47
 70
     1
102
RTVSPropertyOp48
 70
     1
102
RTVSPropertyOp49
 70
     1
102
RTVSPropertyOp50
 70
     1
102
RTVSPropertyOp51
 70
     0
102
RTVSPropertyOp52
 70
     0
102
RTVSPropertyOp53
 70
     1
102
RTVSPropertyOp54
 70
     1
102
RTVSPropertyOp55
 70
     1
102
RTVSPropertyOp56
 70
     1
102
RTVSPropertyOp57
 70
     1
102
RTVSPropertyOp58
 70
     1
102
RTVSPropertyOp59
 70
     1
102
RTVSPropertyOp60
 70
     1
102
RTVSPropertyOp61
 70
     1
102
RTVSPropertyOp62
 70
     1
  0
XRECORD
  5
D57
102
{ACAD_REACTORS
330
D56
102
}
330
D56
100
AcDbXrecord
280
     1
102
RTVSPost2010Prop28
280
     0
102
RTVSPost2010PropOp28
 70
     1
102
RTVSPost2010Prop29
280
     1
102
RTVSPost2010PropOp29
 70
     1
102
RTVSPost2010Prop30
280
     1
102
RTVSPost2010PropOp30
 70
     1
102
RTVSPost2010Prop31
280
     0
102
RTVSPost2010PropOp31
 70
     1
102
RTVSPost2010Prop32
280
     0
102
RTVSPost2010PropOp32
 70
     1
102
RTVSPost2010Prop33
280
     0
102
RTVSPost2010PropOp33
 70
     1
102
RTVSPost2010Prop34
280
     0
102
RTVSPost2010PropOp34
 70
     1
102
RTVSPost2010Prop35
280
     0
102
RTVSPost2010PropOp35
 70
     1
102
RTVSPost2010Prop36
280
     0
102
RTVSPost2010PropOp36
 70
     1
102
RTVSPost2010Prop37
 90
       50
102
RTVSPost2010PropOp37
 70
     1
102
RTVSPost2010Prop38
140
0.0
102
RTVSPost2010PropOp38
 70
     1
102
RTVSPost2010Prop39
140
1.0
102
RTVSPost2010PropOp39
 70
     1
102
RTVSPost2010Prop40
 90
        0
102
RTVSPost2010PropOp40
 70
     1
102
RTVSPost2010Prop41ColorIndex
 90
       18
102
RTVSPost2010Prop41ColorRGB
 90
        0
102
RTVSPost2010PropOp41
 70
     1
102
RTVSPost2010Prop42
 90
       50
102
RTVSPost2010PropOp42
 70
     1
102
RTVSPost2010Prop43
 90
        3
102
RTVSPost2010PropOp43
 70
     1
102
RTVSPost2010Prop44ColorIndex
 90
        5
102
RTVSPost2010Prop44ColorRGB
 90
      255
102
RTVSPost2010PropOp44
 70
     1
102
RTVSPost2010Prop45
280
     0
102
RTVSPost2010PropOp45
 70
     1
102
RTVSPost2010Prop46
 90
       50
102
RTVSPost2010PropOp46
 70
     1
102
RTVSPost2010Prop47
 90
       50
102
RTVSPost2010PropOp47
 70
     1
102
RTVSPost2010Prop48
 90
       50
102
RTVSPost2010PropOp48
 70
     1
102
RTVSPost2010Prop49
280
     0
102
RTVSPost2010PropOp49
 70
     1
102
RTVSPost2010Prop50
 90
       50
102
RTVSPost2010PropOp50
 70
     1
102
RTVSPost2010Prop51ColorIndex
 90
      256
102
RTVSPost2010Prop51ColorRGB
 90
-16777216
102
RTVSPost2010PropOp51
 70
     0
102
RTVSPost2010Prop52
140
1.0
102
RTVSPost2010PropOp52
 70
     0
102
RTVSPost2010Prop53
 90
        2
102
RTVSPost2010PropOp53
 70
     1
102
RTVSPost2010Prop54
  1
strokes_ogs.tif
102
RTVSPost2010PropOp54
 70
     1
102
RTVSPost2010Prop55
280
     0
102
RTVSPost2010PropOp55
 70
     1
102
RTVSPost2010Prop56
140
1.0
102
RTVSPost2010PropOp56
 70
     1
102
RTVSPost2010Prop57
140
1.0
102
RTVSPost2010PropOp57
 70
     1
102
RTVSPropertyOp0
 70
     1
102
RTVSPropertyOp1
 70
     1
102
RTVSPropertyOp2
 70
     1
102
RTVSPropertyOp3
 70
     1
102
RTVSPropertyOp4
 70
     1
102
RTVSPropertyOp5
 70
     1
102
RTVSPropertyOp6
 70
     1
102
RTVSPropertyOp7
 70
     1
102
RTVSPropertyOp8
 70
     1
102
RTVSPropertyOp9
 70
     1
102
RTVSPropertyOp10
 70
     1
102
RTVSPropertyOp11
 70
     1
102
RTVSPropertyOp12
 70
     1
102
RTVSPropertyOp13
 70
     1
102
RTVSPropertyOp14
 70
     1
102
RTVSPropertyOp15
 70
     1
102
RTVSPropertyOp16
 70
     1
102
RTVSPropertyOp17
 70
     1
102
RTVSPropertyOp18
 70
     1
102
RTVSPropertyOp19
 70
     1
102
RTVSPropertyOp20
 70
     1
102
RTVSPropertyOp21
 70
     1
102
RTVSPropertyOp22
 70
     1
102
RTVSPropertyOp23
 70
     1
102
RTVSPropertyOp24
 70
     1
102
RTVSPropertyOp25
 70
     1
102
RTVSPropertyOp26
 70
     1
102
RTVSPropertyOp27
 70
     1
102
RTVSPropertyOp28
 70
     1
102
RTVSPropertyOp29
 70
     1
102
RTVSPropertyOp30
 70
     1
102
RTVSPropertyOp31
 70
     1
102
RTVSPropertyOp32
 70
     1
102
RTVSPropertyOp33
 70
     1
102
RTVSPropertyOp34
 70
     1
102
RTVSPropertyOp35
 70
     1
102
RTVSPropertyOp36
 70
     1
102
RTVSPropertyOp37
 70
     1
102
RTVSPropertyOp38
 70
     1
102
RTVSPropertyOp39
 70
     1
102
RTVSPropertyOp40
 70
     1
102
RTVSPropertyOp41
 70
     1
102
RTVSPropertyOp42
 70
     1
102
RTVSPropertyOp43
 70
     1
102
RTVSPropertyOp44
 70
     1
102
RTVSPropertyOp45
 70
     1
102
RTVSPropertyOp46
 70
     1
102
RTVSPropertyOp47
 70
     1
102
RTVSPropertyOp48
 70
     1
102
RTVSPropertyOp49
 70
     1
102
RTVSPropertyOp50
 70
     1
102
RTVSPropertyOp51
 70
     0
102
RTVSPropertyOp52
 70
     0
102
RTVSPropertyOp53
 70
     1
102
RTVSPropertyOp54
 70
     1
102
RTVSPropertyOp55
 70
     1
102
RTVSPropertyOp56
 70
     1
102
RTVSPropertyOp57
 70
     1
102
RTVSPropertyOp58
 70
     1
102
RTVSPropertyOp59
 70
     1
102
RTVSPropertyOp60
 70
     1
102
RTVSPropertyOp61
 70
     1
102
RTVSPropertyOp62
 70
     1
  0
XRECORD
  5
D71
102
{ACAD_REACTORS
330
D70
102
}
330
D70
100
AcDbXrecord
280
     1
102
RTVSPost2010Prop28
280
     0
102
RTVSPost2010PropOp28
 70
     0
102
RTVSPost2010Prop29
280
     1
102
RTVSPost2010PropOp29
 70
     0
102
RTVSPost2010Prop30
280
     1
102
RTVSPost2010PropOp30
 70
     0
102
RTVSPost2010Prop31
280
     0
102
RTVSPost2010PropOp31
 70
     0
102
RTVSPost2010Prop32
280
     0
102
RTVSPost2010PropOp32
 70
     0
102
RTVSPost2010Prop33
280
     0
102
RTVSPost2010PropOp33
 70
     0
102
RTVSPost2010Prop34
280
     0
102
RTVSPost2010PropOp34
 70
     0
102
RTVSPost2010Prop35
280
     0
102
RTVSPost2010PropOp35
 70
     0
102
RTVSPost2010Prop36
280
     0
102
RTVSPost2010PropOp36
 70
     0
102
RTVSPost2010Prop37
 90
       50
102
RTVSPost2010PropOp37
 70
     0
102
RTVSPost2010Prop38
140
0.0
102
RTVSPost2010PropOp38
 70
     0
102
RTVSPost2010Prop39
140
1.0
102
RTVSPost2010PropOp39
 70
     0
102
RTVSPost2010Prop40
 90
        0
102
RTVSPost2010PropOp40
 70
     0
102
RTVSPost2010Prop41ColorIndex
 90
       18
102
RTVSPost2010Prop41ColorRGB
 90
        0
102
RTVSPost2010PropOp41
 70
     0
102
RTVSPost2010Prop42
 90
       50
102
RTVSPost2010PropOp42
 70
     0
102
RTVSPost2010Prop43
 90
        3
102
RTVSPost2010PropOp43
 70
     0
102
RTVSPost2010Prop44ColorIndex
 90
        5
102
RTVSPost2010Prop44ColorRGB
 90
      255
102
RTVSPost2010PropOp44
 70
     0
102
RTVSPost2010Prop45
280
     0
102
RTVSPost2010PropOp45
 70
     0
102
RTVSPost2010Prop46
 90
       50
102
RTVSPost2010PropOp46
 70
     0
102
RTVSPost2010Prop47
 90
       50
102
RTVSPost2010PropOp47
 70
     0
102
RTVSPost2010Prop48
 90
       50
102
RTVSPost2010PropOp48
 70
     0
102
RTVSPost2010Prop49
280
     0
102
RTVSPost2010PropOp49
 70
     0
102
RTVSPost2010Prop50
 90
       50
102
RTVSPost2010PropOp50
 70
     0
102
RTVSPost2010Prop51ColorIndex
 90
      256
102
RTVSPost2010Prop51ColorRGB
 90
-16777216
102
RTVSPost2010PropOp51
 70
     0
102
RTVSPost2010Prop52
140
1.0
102
RTVSPost2010PropOp52
 70
     0
102
RTVSPost2010Prop53
 90
        2
102
RTVSPost2010PropOp53
 70
     0
102
RTVSPost2010Prop54
  1
strokes_ogs.tif
102
RTVSPost2010PropOp54
 70
     0
102
RTVSPost2010Prop55
280
     0
102
RTVSPost2010PropOp55
 70
     0
102
RTVSPost2010Prop56
140
1.0
102
RTVSPost2010PropOp56
 70
     0
102
RTVSPost2010Prop57
140
1.0
102
RTVSPost2010PropOp57
 70
     0
102
RTVSPropertyOp0
 70
     0
102
RTVSPropertyOp1
 70
     0
102
RTVSPropertyOp2
 70
     0
102
RTVSPropertyOp3
 70
     0
102
RTVSPropertyOp4
 70
     0
102
RTVSPropertyOp5
 70
     0
102
RTVSPropertyOp6
 70
     0
102
RTVSPropertyOp7
 70
     0
102
RTVSPropertyOp8
 70
     0
102
RTVSPropertyOp9
 70
     0
102
RTVSPropertyOp10
 70
     0
102
RTVSPropertyOp11
 70
     0
102
RTVSPropertyOp12
 70
     0
102
RTVSPropertyOp13
 70
     0
102
RTVSPropertyOp14
 70
     2
102
RTVSPropertyOp15
 70
     0
102
RTVSPropertyOp16
 70
     0
102
RTVSPropertyOp17
 70
     0
102
RTVSPropertyOp18
 70
     0
102
RTVSPropertyOp19
 70
     0
102
RTVSPropertyOp20
 70
     0
102
RTVSPropertyOp21
 70
     0
102
RTVSPropertyOp22
 70
     0
102
RTVSPropertyOp23
 70
     0
102
RTVSPropertyOp24
 70
     0
102
RTVSPropertyOp25
 70
     0
102
RTVSPropertyOp26
 70
     0
102
RTVSPropertyOp27
 70
     0
102
RTVSPropertyOp28
 70
     0
102
RTVSPropertyOp29
 70
     0
102
RTVSPropertyOp30
 70
     0
102
RTVSPropertyOp31
 70
     0
102
RTVSPropertyOp32
 70
     0
102
RTVSPropertyOp33
 70
     0
102
RTVSPropertyOp34
 70
     0
102
RTVSPropertyOp35
 70
     0
102
RTVSPropertyOp36
 70
     0
102
RTVSPropertyOp37
 70
     0
102
RTVSPropertyOp38
 70
     0
102
RTVSPropertyOp39
 70
     0
102
RTVSPropertyOp40
 70
     0
102
RTVSPropertyOp41
 70
     0
102
RTVSPropertyOp42
 70
     0
102
RTVSPropertyOp43
 70
     0
102
RTVSPropertyOp44
 70
     0
102
RTVSPropertyOp45
 70
     0
102
RTVSPropertyOp46
 70
     0
102
RTVSPropertyOp47
 70
     0
102
RTVSPropertyOp48
 70
     0
102
RTVSPropertyOp49
 70
     0
102
RTVSPropertyOp50
 70
     0
102
RTVSPropertyOp51
 70
     0
102
RTVSPropertyOp52
 70
     0
102
RTVSPropertyOp53
 70
     0
102
RTVSPropertyOp54
 70
     0
102
RTVSPropertyOp55
 70
     0
102
RTVSPropertyOp56
 70
     0
102
RTVSPropertyOp57
 70
     0
102
RTVSPropertyOp58
 70
     1
102
RTVSPropertyOp59
 70
     1
102
RTVSPropertyOp60
 70
     1
102
RTVSPropertyOp61
 70
     1
102
RTVSPropertyOp62
 70
     1
  0
XRECORD
  5
D5F
102
{ACAD_REACTORS
330
D5E
102
}
330
D5E
100
AcDbXrecord
280
     1
102
RTVSPost2010Prop28
280
     0
102
RTVSPost2010PropOp28
 70
     1
102
RTVSPost2010Prop29
280
     1
102
RTVSPost2010PropOp29
 70
     1
102
RTVSPost2010Prop30
280
     1
102
RTVSPost2010PropOp30
 70
     1
102
RTVSPost2010Prop31
280
     0
102
RTVSPost2010PropOp31
 70
     1
102
RTVSPost2010Prop32
280
     0
102
RTVSPost2010PropOp32
 70
     1
102
RTVSPost2010Prop33
280
     0
102
RTVSPost2010PropOp33
 70
     1
102
RTVSPost2010Prop34
280
     0
102
RTVSPost2010PropOp34
 70
     1
102
RTVSPost2010Prop35
280
     0
102
RTVSPost2010PropOp35
 70
     1
102
RTVSPost2010Prop36
280
     0
102
RTVSPost2010PropOp36
 70
     1
102
RTVSPost2010Prop37
 90
       50
102
RTVSPost2010PropOp37
 70
     1
102
RTVSPost2010Prop38
140
0.0
102
RTVSPost2010PropOp38
 70
     1
102
RTVSPost2010Prop39
140
1.0
102
RTVSPost2010PropOp39
 70
     1
102
RTVSPost2010Prop40
 90
        0
102
RTVSPost2010PropOp40
 70
     1
102
RTVSPost2010Prop41ColorIndex
 90
       18
102
RTVSPost2010Prop41ColorRGB
 90
        0
102
RTVSPost2010PropOp41
 70
     1
102
RTVSPost2010Prop42
 90
       50
102
RTVSPost2010PropOp42
 70
     1
102
RTVSPost2010Prop43
 90
        3
102
RTVSPost2010PropOp43
 70
     1
102
RTVSPost2010Prop44ColorIndex
 90
        5
102
RTVSPost2010Prop44ColorRGB
 90
      255
102
RTVSPost2010PropOp44
 70
     1
102
RTVSPost2010Prop45
280
     0
102
RTVSPost2010PropOp45
 70
     1
102
RTVSPost2010Prop46
 90
       50
102
RTVSPost2010PropOp46
 70
     1
102
RTVSPost2010Prop47
 90
       50
102
RTVSPost2010PropOp47
 70
     1
102
RTVSPost2010Prop48
 90
       50
102
RTVSPost2010PropOp48
 70
     1
102
RTVSPost2010Prop49
280
     0
102
RTVSPost2010PropOp49
 70
     1
102
RTVSPost2010Prop50
 90
       50
102
RTVSPost2010PropOp50
 70
     1
102
RTVSPost2010Prop51ColorIndex
 90
      256
102
RTVSPost2010Prop51ColorRGB
 90
-16777216
102
RTVSPost2010PropOp51
 70
     0
102
RTVSPost2010Prop52
140
1.0
102
RTVSPost2010PropOp52
 70
     0
102
RTVSPost2010Prop53
 90
        2
102
RTVSPost2010PropOp53
 70
     1
102
RTVSPost2010Prop54
  1
strokes_ogs.tif
102
RTVSPost2010PropOp54
 70
     1
102
RTVSPost2010Prop55
280
     0
102
RTVSPost2010PropOp55
 70
     1
102
RTVSPost2010Prop56
140
1.0
102
RTVSPost2010PropOp56
 70
     1
102
RTVSPost2010Prop57
140
1.0
102
RTVSPost2010PropOp57
 70
     1
102
RTVSPropertyOp0
 70
     1
102
RTVSPropertyOp1
 70
     1
102
RTVSPropertyOp2
 70
     1
102
RTVSPropertyOp3
 70
     1
102
RTVSPropertyOp4
 70
     1
102
RTVSPropertyOp5
 70
     1
102
RTVSPropertyOp6
 70
     1
102
RTVSPropertyOp7
 70
     1
102
RTVSPropertyOp8
 70
     1
102
RTVSPropertyOp9
 70
     1
102
RTVSPropertyOp10
 70
     1
102
RTVSPropertyOp11
 70
     1
102
RTVSPropertyOp12
 70
     1
102
RTVSPropertyOp13
 70
     1
102
RTVSPropertyOp14
 70
     1
102
RTVSPropertyOp15
 70
     1
102
RTVSPropertyOp16
 70
     1
102
RTVSPropertyOp17
 70
     1
102
RTVSPropertyOp18
 70
     1
102
RTVSPropertyOp19
 70
     1
102
RTVSPropertyOp20
 70
     1
102
RTVSPropertyOp21
 70
     1
102
RTVSPropertyOp22
 70
     1
102
RTVSPropertyOp23
 70
     1
102
RTVSPropertyOp24
 70
     1
102
RTVSPropertyOp25
 70
     1
102
RTVSPropertyOp26
 70
     1
102
RTVSPropertyOp27
 70
     1
102
RTVSPropertyOp28
 70
     1
102
RTVSPropertyOp29
 70
     1
102
RTVSPropertyOp30
 70
     1
102
RTVSPropertyOp31
 70
     1
102
RTVSPropertyOp32
 70
     1
102
RTVSPropertyOp33
 70
     1
102
RTVSPropertyOp34
 70
     1
102
RTVSPropertyOp35
 70
     1
102
RTVSPropertyOp36
 70
     1
102
RTVSPropertyOp37
 70
     1
102
RTVSPropertyOp38
 70
     1
102
RTVSPropertyOp39
 70
     1
102
RTVSPropertyOp40
 70
     1
102
RTVSPropertyOp41
 70
     1
102
RTVSPropertyOp42
 70
     1
102
RTVSPropertyOp43
 70
     1
102
RTVSPropertyOp44
 70
     1
102
RTVSPropertyOp45
 70
     1
102
RTVSPropertyOp46
 70
     1
102
RTVSPropertyOp47
 70
     1
102
RTVSPropertyOp48
 70
     1
102
RTVSPropertyOp49
 70
     1
102
RTVSPropertyOp50
 70
     1
102
RTVSPropertyOp51
 70
     0
102
RTVSPropertyOp52
 70
     0
102
RTVSPropertyOp53
 70
     1
102
RTVSPropertyOp54
 70
     1
102
RTVSPropertyOp55
 70
     1
102
RTVSPropertyOp56
 70
     1
102
RTVSPropertyOp57
 70
     1
102
RTVSPropertyOp58
 70
     1
102
RTVSPropertyOp59
 70
     1
102
RTVSPropertyOp60
 70
     1
102
RTVSPropertyOp61
 70
     1
102
RTVSPropertyOp62
 70
     1
  0
XRECORD
  5
D43
102
{ACAD_REACTORS
330
D42
102
}
330
D42
100
AcDbXrecord
280
     1
102
RTVSPost2010Prop28
280
     0
102
RTVSPost2010PropOp28
 70
     1
102
RTVSPost2010Prop29
280
     1
102
RTVSPost2010PropOp29
 70
     1
102
RTVSPost2010Prop30
280
     1
102
RTVSPost2010PropOp30
 70
     1
102
RTVSPost2010Prop31
280
     0
102
RTVSPost2010PropOp31
 70
     1
102
RTVSPost2010Prop32
280
     0
102
RTVSPost2010PropOp32
 70
     1
102
RTVSPost2010Prop33
280
     0
102
RTVSPost2010PropOp33
 70
     1
102
RTVSPost2010Prop34
280
     0
102
RTVSPost2010PropOp34
 70
     1
102
RTVSPost2010Prop35
280
     0
102
RTVSPost2010PropOp35
 70
     1
102
RTVSPost2010Prop36
280
     0
102
RTVSPost2010PropOp36
 70
     1
102
RTVSPost2010Prop37
 90
       50
102
RTVSPost2010PropOp37
 70
     1
102
RTVSPost2010Prop38
140
0.0
102
RTVSPost2010PropOp38
 70
     1
102
RTVSPost2010Prop39
140
1.0
102
RTVSPost2010PropOp39
 70
     1
102
RTVSPost2010Prop40
 90
        0
102
RTVSPost2010PropOp40
 70
     1
102
RTVSPost2010Prop41ColorIndex
 90
       18
102
RTVSPost2010Prop41ColorRGB
 90
        0
102
RTVSPost2010PropOp41
 70
     1
102
RTVSPost2010Prop42
 90
       50
102
RTVSPost2010PropOp42
 70
     1
102
RTVSPost2010Prop43
 90
        3
102
RTVSPost2010PropOp43
 70
     1
102
RTVSPost2010Prop44ColorIndex
 90
        5
102
RTVSPost2010Prop44ColorRGB
 90
      255
102
RTVSPost2010PropOp44
 70
     1
102
RTVSPost2010Prop45
280
     0
102
RTVSPost2010PropOp45
 70
     1
102
RTVSPost2010Prop46
 90
       50
102
RTVSPost2010PropOp46
 70
     1
102
RTVSPost2010Prop47
 90
       50
102
RTVSPost2010PropOp47
 70
     1
102
RTVSPost2010Prop48
 90
       50
102
RTVSPost2010PropOp48
 70
     1
102
RTVSPost2010Prop49
280
     0
102
RTVSPost2010PropOp49
 70
     1
102
RTVSPost2010Prop50
 90
       50
102
RTVSPost2010PropOp50
 70
     1
102
RTVSPost2010Prop51ColorIndex
 90
      256
102
RTVSPost2010Prop51ColorRGB
 90
-16777216
102
RTVSPost2010PropOp51
 70
     0
102
RTVSPost2010Prop52
140
1.0
102
RTVSPost2010PropOp52
 70
     0
102
RTVSPost2010Prop53
 90
        2
102
RTVSPost2010PropOp53
 70
     1
102
RTVSPost2010Prop54
  1
strokes_ogs.tif
102
RTVSPost2010PropOp54
 70
     1
102
RTVSPost2010Prop55
280
     0
102
RTVSPost2010PropOp55
 70
     1
102
RTVSPost2010Prop56
140
1.0
102
RTVSPost2010PropOp56
 70
     1
102
RTVSPost2010Prop57
140
1.0
102
RTVSPost2010PropOp57
 70
     1
102
RTVSPropertyOp0
 70
     1
102
RTVSPropertyOp1
 70
     1
102
RTVSPropertyOp2
 70
     1
102
RTVSPropertyOp3
 70
     1
102
RTVSPropertyOp4
 70
     1
102
RTVSPropertyOp5
 70
     1
102
RTVSPropertyOp6
 70
     1
102
RTVSPropertyOp7
 70
     1
102
RTVSPropertyOp8
 70
     1
102
RTVSPropertyOp9
 70
     1
102
RTVSPropertyOp10
 70
     1
102
RTVSPropertyOp11
 70
     1
102
RTVSPropertyOp12
 70
     1
102
RTVSPropertyOp13
 70
     1
102
RTVSPropertyOp14
 70
     1
102
RTVSPropertyOp15
 70
     1
102
RTVSPropertyOp16
 70
     1
102
RTVSPropertyOp17
 70
     1
102
RTVSPropertyOp18
 70
     1
102
RTVSPropertyOp19
 70
     1
102
RTVSPropertyOp20
 70
     1
102
RTVSPropertyOp21
 70
     1
102
RTVSPropertyOp22
 70
     1
102
RTVSPropertyOp23
 70
     1
102
RTVSPropertyOp24
 70
     1
102
RTVSPropertyOp25
 70
     1
102
RTVSPropertyOp26
 70
     1
102
RTVSPropertyOp27
 70
     1
102
RTVSPropertyOp28
 70
     1
102
RTVSPropertyOp29
 70
     1
102
RTVSPropertyOp30
 70
     1
102
RTVSPropertyOp31
 70
     1
102
RTVSPropertyOp32
 70
     1
102
RTVSPropertyOp33
 70
     1
102
RTVSPropertyOp34
 70
     1
102
RTVSPropertyOp35
 70
     1
102
RTVSPropertyOp36
 70
     1
102
RTVSPropertyOp37
 70
     1
102
RTVSPropertyOp38
 70
     1
102
RTVSPropertyOp39
 70
     1
102
RTVSPropertyOp40
 70
     1
102
RTVSPropertyOp41
 70
     1
102
RTVSPropertyOp42
 70
     1
102
RTVSPropertyOp43
 70
     1
102
RTVSPropertyOp44
 70
     1
102
RTVSPropertyOp45
 70
     1
102
RTVSPropertyOp46
 70
     1
102
RTVSPropertyOp47
 70
     1
102
RTVSPropertyOp48
 70
     1
102
RTVSPropertyOp49
 70
     1
102
RTVSPropertyOp50
 70
     1
102
RTVSPropertyOp51
 70
     0
102
RTVSPropertyOp52
 70
     0
102
RTVSPropertyOp53
 70
     1
102
RTVSPropertyOp54
 70
     1
102
RTVSPropertyOp55
 70
     1
102
RTVSPropertyOp56
 70
     1
102
RTVSPropertyOp57
 70
     1
102
RTVSPropertyOp58
 70
     1
102
RTVSPropertyOp59
 70
     1
102
RTVSPropertyOp60
 70
     1
102
RTVSPropertyOp61
 70
     1
102
RTVSPropertyOp62
 70
     1
  0
XRECORD
  5
D45
102
{ACAD_REACTORS
330
D44
102
}
330
D44
100
AcDbXrecord
280
     1
102
RTVSPost2010Prop28
280
     0
102
RTVSPost2010PropOp28
 70
     1
102
RTVSPost2010Prop29
280
     1
102
RTVSPost2010PropOp29
 70
     1
102
RTVSPost2010Prop30
280
     1
102
RTVSPost2010PropOp30
 70
     1
102
RTVSPost2010Prop31
280
     0
102
RTVSPost2010PropOp31
 70
     1
102
RTVSPost2010Prop32
280
     0
102
RTVSPost2010PropOp32
 70
     1
102
RTVSPost2010Prop33
280
     0
102
RTVSPost2010PropOp33
 70
     1
102
RTVSPost2010Prop34
280
     0
102
RTVSPost2010PropOp34
 70
     1
102
RTVSPost2010Prop35
280
     0
102
RTVSPost2010PropOp35
 70
     1
102
RTVSPost2010Prop36
280
     0
102
RTVSPost2010PropOp36
 70
     1
102
RTVSPost2010Prop37
 90
       50
102
RTVSPost2010PropOp37
 70
     1
102
RTVSPost2010Prop38
140
0.0
102
RTVSPost2010PropOp38
 70
     1
102
RTVSPost2010Prop39
140
1.0
102
RTVSPost2010PropOp39
 70
     1
102
RTVSPost2010Prop40
 90
        0
102
RTVSPost2010PropOp40
 70
     1
102
RTVSPost2010Prop41ColorIndex
 90
       18
102
RTVSPost2010Prop41ColorRGB
 90
        0
102
RTVSPost2010PropOp41
 70
     1
102
RTVSPost2010Prop42
 90
       50
102
RTVSPost2010PropOp42
 70
     1
102
RTVSPost2010Prop43
 90
        3
102
RTVSPost2010PropOp43
 70
     1
102
RTVSPost2010Prop44ColorIndex
 90
        5
102
RTVSPost2010Prop44ColorRGB
 90
      255
102
RTVSPost2010PropOp44
 70
     1
102
RTVSPost2010Prop45
280
     0
102
RTVSPost2010PropOp45
 70
     1
102
RTVSPost2010Prop46
 90
       50
102
RTVSPost2010PropOp46
 70
     1
102
RTVSPost2010Prop47
 90
       50
102
RTVSPost2010PropOp47
 70
     1
102
RTVSPost2010Prop48
 90
       50
102
RTVSPost2010PropOp48
 70
     1
102
RTVSPost2010Prop49
280
     0
102
RTVSPost2010PropOp49
 70
     1
102
RTVSPost2010Prop50
 90
       50
102
RTVSPost2010PropOp50
 70
     1
102
RTVSPost2010Prop51ColorIndex
 90
      256
102
RTVSPost2010Prop51ColorRGB
 90
-16777216
102
RTVSPost2010PropOp51
 70
     0
102
RTVSPost2010Prop52
140
1.0
102
RTVSPost2010PropOp52
 70
     0
102
RTVSPost2010Prop53
 90
        2
102
RTVSPost2010PropOp53
 70
     1
102
RTVSPost2010Prop54
  1
strokes_ogs.tif
102
RTVSPost2010PropOp54
 70
     1
102
RTVSPost2010Prop55
280
     0
102
RTVSPost2010PropOp55
 70
     1
102
RTVSPost2010Prop56
140
1.0
102
RTVSPost2010PropOp56
 70
     1
102
RTVSPost2010Prop57
140
1.0
102
RTVSPost2010PropOp57
 70
     1
102
RTVSPropertyOp0
 70
     1
102
RTVSPropertyOp1
 70
     1
102
RTVSPropertyOp2
 70
     1
102
RTVSPropertyOp3
 70
     1
102
RTVSPropertyOp4
 70
     1
102
RTVSPropertyOp5
 70
     1
102
RTVSPropertyOp6
 70
     1
102
RTVSPropertyOp7
 70
     1
102
RTVSPropertyOp8
 70
     1
102
RTVSPropertyOp9
 70
     1
102
RTVSPropertyOp10
 70
     1
102
RTVSPropertyOp11
 70
     1
102
RTVSPropertyOp12
 70
     1
102
RTVSPropertyOp13
 70
     1
102
RTVSPropertyOp14
 70
     1
102
RTVSPropertyOp15
 70
     1
102
RTVSPropertyOp16
 70
     1
102
RTVSPropertyOp17
 70
     1
102
RTVSPropertyOp18
 70
     1
102
RTVSPropertyOp19
 70
     1
102
RTVSPropertyOp20
 70
     1
102
RTVSPropertyOp21
 70
     1
102
RTVSPropertyOp22
 70
     1
102
RTVSPropertyOp23
 70
     1
102
RTVSPropertyOp24
 70
     1
102
RTVSPropertyOp25
 70
     1
102
RTVSPropertyOp26
 70
     1
102
RTVSPropertyOp27
 70
     1
102
RTVSPropertyOp28
 70
     1
102
RTVSPropertyOp29
 70
     1
102
RTVSPropertyOp30
 70
     1
102
RTVSPropertyOp31
 70
     1
102
RTVSPropertyOp32
 70
     1
102
RTVSPropertyOp33
 70
     1
102
RTVSPropertyOp34
 70
     1
102
RTVSPropertyOp35
 70
     1
102
RTVSPropertyOp36
 70
     1
102
RTVSPropertyOp37
 70
     1
102
RTVSPropertyOp38
 70
     1
102
RTVSPropertyOp39
 70
     1
102
RTVSPropertyOp40
 70
     1
102
RTVSPropertyOp41
 70
     1
102
RTVSPropertyOp42
 70
     1
102
RTVSPropertyOp43
 70
     1
102
RTVSPropertyOp44
 70
     1
102
RTVSPropertyOp45
 70
     1
102
RTVSPropertyOp46
 70
     1
102
RTVSPropertyOp47
 70
     1
102
RTVSPropertyOp48
 70
     1
102
RTVSPropertyOp49
 70
     1
102
RTVSPropertyOp50
 70
     1
102
RTVSPropertyOp51
 70
     0
102
RTVSPropertyOp52
 70
     0
102
RTVSPropertyOp53
 70
     1
102
RTVSPropertyOp54
 70
     1
102
RTVSPropertyOp55
 70
     1
102
RTVSPropertyOp56
 70
     1
102
RTVSPropertyOp57
 70
     1
102
RTVSPropertyOp58
 70
     1
102
RTVSPropertyOp59
 70
     1
102
RTVSPropertyOp60
 70
     1
102
RTVSPropertyOp61
 70
     1
102
RTVSPropertyOp62
 70
     1
  0
XRECORD
  5
D47
102
{ACAD_REACTORS
330
D46
102
}
330
D46
100
AcDbXrecord
280
     1
102
RTVSPost2010Prop28
280
     0
102
RTVSPost2010PropOp28
 70
     1
102
RTVSPost2010Prop29
280
     1
102
RTVSPost2010PropOp29
 70
     1
102
RTVSPost2010Prop30
280
     1
102
RTVSPost2010PropOp30
 70
     1
102
RTVSPost2010Prop31
280
     0
102
RTVSPost2010PropOp31
 70
     1
102
RTVSPost2010Prop32
280
     0
102
RTVSPost2010PropOp32
 70
     1
102
RTVSPost2010Prop33
280
     0
102
RTVSPost2010PropOp33
 70
     1
102
RTVSPost2010Prop34
280
     0
102
RTVSPost2010PropOp34
 70
     1
102
RTVSPost2010Prop35
280
     0
102
RTVSPost2010PropOp35
 70
     1
102
RTVSPost2010Prop36
280
     0
102
RTVSPost2010PropOp36
 70
     1
102
RTVSPost2010Prop37
 90
       50
102
RTVSPost2010PropOp37
 70
     1
102
RTVSPost2010Prop38
140
0.0
102
RTVSPost2010PropOp38
 70
     1
102
RTVSPost2010Prop39
140
1.0
102
RTVSPost2010PropOp39
 70
     1
102
RTVSPost2010Prop40
 90
        0
102
RTVSPost2010PropOp40
 70
     1
102
RTVSPost2010Prop41ColorIndex
 90
       18
102
RTVSPost2010Prop41ColorRGB
 90
        0
102
RTVSPost2010PropOp41
 70
     1
102
RTVSPost2010Prop42
 90
       50
102
RTVSPost2010PropOp42
 70
     1
102
RTVSPost2010Prop43
 90
        3
102
RTVSPost2010PropOp43
 70
     1
102
RTVSPost2010Prop44ColorIndex
 90
        5
102
RTVSPost2010Prop44ColorRGB
 90
      255
102
RTVSPost2010PropOp44
 70
     1
102
RTVSPost2010Prop45
280
     0
102
RTVSPost2010PropOp45
 70
     1
102
RTVSPost2010Prop46
 90
       50
102
RTVSPost2010PropOp46
 70
     1
102
RTVSPost2010Prop47
 90
       50
102
RTVSPost2010PropOp47
 70
     1
102
RTVSPost2010Prop48
 90
       50
102
RTVSPost2010PropOp48
 70
     1
102
RTVSPost2010Prop49
280
     0
102
RTVSPost2010PropOp49
 70
     1
102
RTVSPost2010Prop50
 90
       50
102
RTVSPost2010PropOp50
 70
     1
102
RTVSPost2010Prop51ColorIndex
 90
      256
102
RTVSPost2010Prop51ColorRGB
 90
-16777216
102
RTVSPost2010PropOp51
 70
     0
102
RTVSPost2010Prop52
140
1.0
102
RTVSPost2010PropOp52
 70
     0
102
RTVSPost2010Prop53
 90
        2
102
RTVSPost2010PropOp53
 70
     1
102
RTVSPost2010Prop54
  1
strokes_ogs.tif
102
RTVSPost2010PropOp54
 70
     1
102
RTVSPost2010Prop55
280
     0
102
RTVSPost2010PropOp55
 70
     1
102
RTVSPost2010Prop56
140
1.0
102
RTVSPost2010PropOp56
 70
     1
102
RTVSPost2010Prop57
140
1.0
102
RTVSPost2010PropOp57
 70
     1
102
RTVSPropertyOp0
 70
     1
102
RTVSPropertyOp1
 70
     1
102
RTVSPropertyOp2
 70
     1
102
RTVSPropertyOp3
 70
     1
102
RTVSPropertyOp4
 70
     1
102
RTVSPropertyOp5
 70
     1
102
RTVSPropertyOp6
 70
     1
102
RTVSPropertyOp7
 70
     1
102
RTVSPropertyOp8
 70
     1
102
RTVSPropertyOp9
 70
     1
102
RTVSPropertyOp10
 70
     1
102
RTVSPropertyOp11
 70
     1
102
RTVSPropertyOp12
 70
     1
102
RTVSPropertyOp13
 70
     1
102
RTVSPropertyOp14
 70
     1
102
RTVSPropertyOp15
 70
     1
102
RTVSPropertyOp16
 70
     1
102
RTVSPropertyOp17
 70
     1
102
RTVSPropertyOp18
 70
     1
102
RTVSPropertyOp19
 70
     1
102
RTVSPropertyOp20
 70
     1
102
RTVSPropertyOp21
 70
     1
102
RTVSPropertyOp22
 70
     1
102
RTVSPropertyOp23
 70
     1
102
RTVSPropertyOp24
 70
     1
102
RTVSPropertyOp25
 70
     1
102
RTVSPropertyOp26
 70
     1
102
RTVSPropertyOp27
 70
     1
102
RTVSPropertyOp28
 70
     1
102
RTVSPropertyOp29
 70
     1
102
RTVSPropertyOp30
 70
     1
102
RTVSPropertyOp31
 70
     1
102
RTVSPropertyOp32
 70
     1
102
RTVSPropertyOp33
 70
     1
102
RTVSPropertyOp34
 70
     1
102
RTVSPropertyOp35
 70
     1
102
RTVSPropertyOp36
 70
     1
102
RTVSPropertyOp37
 70
     1
102
RTVSPropertyOp38
 70
     1
102
RTVSPropertyOp39
 70
     1
102
RTVSPropertyOp40
 70
     1
102
RTVSPropertyOp41
 70
     1
102
RTVSPropertyOp42
 70
     1
102
RTVSPropertyOp43
 70
     1
102
RTVSPropertyOp44
 70
     1
102
RTVSPropertyOp45
 70
     1
102
RTVSPropertyOp46
 70
     1
102
RTVSPropertyOp47
 70
     1
102
RTVSPropertyOp48
 70
     1
102
RTVSPropertyOp49
 70
     1
102
RTVSPropertyOp50
 70
     1
102
RTVSPropertyOp51
 70
     0
102
RTVSPropertyOp52
 70
     0
102
RTVSPropertyOp53
 70
     1
102
RTVSPropertyOp54
 70
     1
102
RTVSPropertyOp55
 70
     1
102
RTVSPropertyOp56
 70
     1
102
RTVSPropertyOp57
 70
     1
102
RTVSPropertyOp58
 70
     1
102
RTVSPropertyOp59
 70
     1
102
RTVSPropertyOp60
 70
     1
102
RTVSPropertyOp61
 70
     1
102
RTVSPropertyOp62
 70
     1
  0
XRECORD
  5
D49
102
{ACAD_REACTORS
330
D48
102
}
330
D48
100
AcDbXrecord
280
     1
102
RTVSPost2010Prop28
280
     0
102
RTVSPost2010PropOp28
 70
     1
102
RTVSPost2010Prop29
280
     1
102
RTVSPost2010PropOp29
 70
     1
102
RTVSPost2010Prop30
280
     1
102
RTVSPost2010PropOp30
 70
     1
102
RTVSPost2010Prop31
280
     0
102
RTVSPost2010PropOp31
 70
     1
102
RTVSPost2010Prop32
280
     0
102
RTVSPost2010PropOp32
 70
     1
102
RTVSPost2010Prop33
280
     0
102
RTVSPost2010PropOp33
 70
     1
102
RTVSPost2010Prop34
280
     0
102
RTVSPost2010PropOp34
 70
     1
102
RTVSPost2010Prop35
280
     0
102
RTVSPost2010PropOp35
 70
     1
102
RTVSPost2010Prop36
280
     0
102
RTVSPost2010PropOp36
 70
     1
102
RTVSPost2010Prop37
 90
       50
102
RTVSPost2010PropOp37
 70
     1
102
RTVSPost2010Prop38
140
0.0
102
RTVSPost2010PropOp38
 70
     1
102
RTVSPost2010Prop39
140
1.0
102
RTVSPost2010PropOp39
 70
     1
102
RTVSPost2010Prop40
 90
        0
102
RTVSPost2010PropOp40
 70
     1
102
RTVSPost2010Prop41ColorIndex
 90
       18
102
RTVSPost2010Prop41ColorRGB
 90
        0
102
RTVSPost2010PropOp41
 70
     1
102
RTVSPost2010Prop42
 90
       50
102
RTVSPost2010PropOp42
 70
     1
102
RTVSPost2010Prop43
 90
        3
102
RTVSPost2010PropOp43
 70
     1
102
RTVSPost2010Prop44ColorIndex
 90
        5
102
RTVSPost2010Prop44ColorRGB
 90
      255
102
RTVSPost2010PropOp44
 70
     1
102
RTVSPost2010Prop45
280
     0
102
RTVSPost2010PropOp45
 70
     1
102
RTVSPost2010Prop46
 90
       50
102
RTVSPost2010PropOp46
 70
     1
102
RTVSPost2010Prop47
 90
       50
102
RTVSPost2010PropOp47
 70
     1
102
RTVSPost2010Prop48
 90
       50
102
RTVSPost2010PropOp48
 70
     1
102
RTVSPost2010Prop49
280
     0
102
RTVSPost2010PropOp49
 70
     1
102
RTVSPost2010Prop50
 90
       50
102
RTVSPost2010PropOp50
 70
     1
102
RTVSPost2010Prop51ColorIndex
 90
      256
102
RTVSPost2010Prop51ColorRGB
 90
-16777216
102
RTVSPost2010PropOp51
 70
     0
102
RTVSPost2010Prop52
140
1.0
102
RTVSPost2010PropOp52
 70
     0
102
RTVSPost2010Prop53
 90
        2
102
RTVSPost2010PropOp53
 70
     1
102
RTVSPost2010Prop54
  1
strokes_ogs.tif
102
RTVSPost2010PropOp54
 70
     1
102
RTVSPost2010Prop55
280
     0
102
RTVSPost2010PropOp55
 70
     1
102
RTVSPost2010Prop56
140
1.0
102
RTVSPost2010PropOp56
 70
     1
102
RTVSPost2010Prop57
140
1.0
102
RTVSPost2010PropOp57
 70
     1
102
RTVSPropertyOp0
 70
     1
102
RTVSPropertyOp1
 70
     1
102
RTVSPropertyOp2
 70
     1
102
RTVSPropertyOp3
 70
     1
102
RTVSPropertyOp4
 70
     1
102
RTVSPropertyOp5
 70
     1
102
RTVSPropertyOp6
 70
     1
102
RTVSPropertyOp7
 70
     1
102
RTVSPropertyOp8
 70
     1
102
RTVSPropertyOp9
 70
     1
102
RTVSPropertyOp10
 70
     1
102
RTVSPropertyOp11
 70
     1
102
RTVSPropertyOp12
 70
     1
102
RTVSPropertyOp13
 70
     1
102
RTVSPropertyOp14
 70
     1
102
RTVSPropertyOp15
 70
     1
102
RTVSPropertyOp16
 70
     1
102
RTVSPropertyOp17
 70
     1
102
RTVSPropertyOp18
 70
     1
102
RTVSPropertyOp19
 70
     1
102
RTVSPropertyOp20
 70
     1
102
RTVSPropertyOp21
 70
     1
102
RTVSPropertyOp22
 70
     1
102
RTVSPropertyOp23
 70
     1
102
RTVSPropertyOp24
 70
     1
102
RTVSPropertyOp25
 70
     1
102
RTVSPropertyOp26
 70
     1
102
RTVSPropertyOp27
 70
     1
102
RTVSPropertyOp28
 70
     1
102
RTVSPropertyOp29
 70
     1
102
RTVSPropertyOp30
 70
     1
102
RTVSPropertyOp31
 70
     1
102
RTVSPropertyOp32
 70
     1
102
RTVSPropertyOp33
 70
     1
102
RTVSPropertyOp34
 70
     1
102
RTVSPropertyOp35
 70
     1
102
RTVSPropertyOp36
 70
     1
102
RTVSPropertyOp37
 70
     1
102
RTVSPropertyOp38
 70
     1
102
RTVSPropertyOp39
 70
     1
102
RTVSPropertyOp40
 70
     1
102
RTVSPropertyOp41
 70
     1
102
RTVSPropertyOp42
 70
     1
102
RTVSPropertyOp43
 70
     1
102
RTVSPropertyOp44
 70
     1
102
RTVSPropertyOp45
 70
     1
102
RTVSPropertyOp46
 70
     1
102
RTVSPropertyOp47
 70
     1
102
RTVSPropertyOp48
 70
     1
102
RTVSPropertyOp49
 70
     1
102
RTVSPropertyOp50
 70
     1
102
RTVSPropertyOp51
 70
     0
102
RTVSPropertyOp52
 70
     0
102
RTVSPropertyOp53
 70
     1
102
RTVSPropertyOp54
 70
     1
102
RTVSPropertyOp55
 70
     1
102
RTVSPropertyOp56
 70
     1
102
RTVSPropertyOp57
 70
     1
102
RTVSPropertyOp58
 70
     1
102
RTVSPropertyOp59
 70
     1
102
RTVSPropertyOp60
 70
     1
102
RTVSPropertyOp61
 70
     1
102
RTVSPropertyOp62
 70
     1
  0
XRECORD
  5
D51
102
{ACAD_REACTORS
330
D50
102
}
330
D50
100
AcDbXrecord
280
     1
102
RTVSPost2010Prop28
280
     0
102
RTVSPost2010PropOp28
 70
     1
102
RTVSPost2010Prop29
280
     1
102
RTVSPost2010PropOp29
 70
     1
102
RTVSPost2010Prop30
280
     1
102
RTVSPost2010PropOp30
 70
     1
102
RTVSPost2010Prop31
280
     0
102
RTVSPost2010PropOp31
 70
     1
102
RTVSPost2010Prop32
280
     0
102
RTVSPost2010PropOp32
 70
     1
102
RTVSPost2010Prop33
280
     0
102
RTVSPost2010PropOp33
 70
     1
102
RTVSPost2010Prop34
280
     0
102
RTVSPost2010PropOp34
 70
     1
102
RTVSPost2010Prop35
280
     0
102
RTVSPost2010PropOp35
 70
     1
102
RTVSPost2010Prop36
280
     0
102
RTVSPost2010PropOp36
 70
     1
102
RTVSPost2010Prop37
 90
       50
102
RTVSPost2010PropOp37
 70
     1
102
RTVSPost2010Prop38
140
0.0
102
RTVSPost2010PropOp38
 70
     1
102
RTVSPost2010Prop39
140
1.0
102
RTVSPost2010PropOp39
 70
     1
102
RTVSPost2010Prop40
 90
        0
102
RTVSPost2010PropOp40
 70
     1
102
RTVSPost2010Prop41ColorIndex
 90
       18
102
RTVSPost2010Prop41ColorRGB
 90
        0
102
RTVSPost2010PropOp41
 70
     1
102
RTVSPost2010Prop42
 90
       50
102
RTVSPost2010PropOp42
 70
     1
102
RTVSPost2010Prop43
 90
        3
102
RTVSPost2010PropOp43
 70
     1
102
RTVSPost2010Prop44ColorIndex
 90
        5
102
RTVSPost2010Prop44ColorRGB
 90
      255
102
RTVSPost2010PropOp44
 70
     1
102
RTVSPost2010Prop45
280
     0
102
RTVSPost2010PropOp45
 70
     1
102
RTVSPost2010Prop46
 90
       50
102
RTVSPost2010PropOp46
 70
     1
102
RTVSPost2010Prop47
 90
       50
102
RTVSPost2010PropOp47
 70
     1
102
RTVSPost2010Prop48
 90
       50
102
RTVSPost2010PropOp48
 70
     1
102
RTVSPost2010Prop49
280
     0
102
RTVSPost2010PropOp49
 70
     1
102
RTVSPost2010Prop50
 90
       50
102
RTVSPost2010PropOp50
 70
     1
102
RTVSPost2010Prop51ColorIndex
 90
      256
102
RTVSPost2010Prop51ColorRGB
 90
-16777216
102
RTVSPost2010PropOp51
 70
     0
102
RTVSPost2010Prop52
140
1.0
102
RTVSPost2010PropOp52
 70
     0
102
RTVSPost2010Prop53
 90
        2
102
RTVSPost2010PropOp53
 70
     1
102
RTVSPost2010Prop54
  1
strokes_ogs.tif
102
RTVSPost2010PropOp54
 70
     1
102
RTVSPost2010Prop55
280
     0
102
RTVSPost2010PropOp55
 70
     1
102
RTVSPost2010Prop56
140
1.0
102
RTVSPost2010PropOp56
 70
     1
102
RTVSPost2010Prop57
140
1.0
102
RTVSPost2010PropOp57
 70
     1
102
RTVSPropertyOp0
 70
     1
102
RTVSPropertyOp1
 70
     1
102
RTVSPropertyOp2
 70
     1
102
RTVSPropertyOp3
 70
     1
102
RTVSPropertyOp4
 70
     1
102
RTVSPropertyOp5
 70
     1
102
RTVSPropertyOp6
 70
     1
102
RTVSPropertyOp7
 70
     1
102
RTVSPropertyOp8
 70
     1
102
RTVSPropertyOp9
 70
     1
102
RTVSPropertyOp10
 70
     1
102
RTVSPropertyOp11
 70
     1
102
RTVSPropertyOp12
 70
     1
102
RTVSPropertyOp13
 70
     1
102
RTVSPropertyOp14
 70
     1
102
RTVSPropertyOp15
 70
     1
102
RTVSPropertyOp16
 70
     1
102
RTVSPropertyOp17
 70
     1
102
RTVSPropertyOp18
 70
     1
102
RTVSPropertyOp19
 70
     1
102
RTVSPropertyOp20
 70
     1
102
RTVSPropertyOp21
 70
     1
102
RTVSPropertyOp22
 70
     1
102
RTVSPropertyOp23
 70
     1
102
RTVSPropertyOp24
 70
     1
102
RTVSPropertyOp25
 70
     1
102
RTVSPropertyOp26
 70
     1
102
RTVSPropertyOp27
 70
     1
102
RTVSPropertyOp28
 70
     1
102
RTVSPropertyOp29
 70
     1
102
RTVSPropertyOp30
 70
     1
102
RTVSPropertyOp31
 70
     1
102
RTVSPropertyOp32
 70
     1
102
RTVSPropertyOp33
 70
     1
102
RTVSPropertyOp34
 70
     1
102
RTVSPropertyOp35
 70
     1
102
RTVSPropertyOp36
 70
     1
102
RTVSPropertyOp37
 70
     1
102
RTVSPropertyOp38
 70
     1
102
RTVSPropertyOp39
 70
     1
102
RTVSPropertyOp40
 70
     1
102
RTVSPropertyOp41
 70
     1
102
RTVSPropertyOp42
 70
     1
102
RTVSPropertyOp43
 70
     1
102
RTVSPropertyOp44
 70
     1
102
RTVSPropertyOp45
 70
     1
102
RTVSPropertyOp46
 70
     1
102
RTVSPropertyOp47
 70
     1
102
RTVSPropertyOp48
 70
     1
102
RTVSPropertyOp49
 70
     1
102
RTVSPropertyOp50
 70
     1
102
RTVSPropertyOp51
 70
     0
102
RTVSPropertyOp52
 70
     0
102
RTVSPropertyOp53
 70
     1
102
RTVSPropertyOp54
 70
     1
102
RTVSPropertyOp55
 70
     1
102
RTVSPropertyOp56
 70
     1
102
RTVSPropertyOp57
 70
     1
102
RTVSPropertyOp58
 70
     1
102
RTVSPropertyOp59
 70
     1
102
RTVSPropertyOp60
 70
     1
102
RTVSPropertyOp61
 70
     1
102
RTVSPropertyOp62
 70
     1
  0
XRECORD
  5
D6D
102
{ACAD_REACTORS
330
D6C
102
}
330
D6C
100
AcDbXrecord
280
     1
102
RTVSPost2010Prop28
280
     0
102
RTVSPost2010PropOp28
 70
     0
102
RTVSPost2010Prop29
280
     1
102
RTVSPost2010PropOp29
 70
     0
102
RTVSPost2010Prop30
280
     1
102
RTVSPost2010PropOp30
 70
     0
102
RTVSPost2010Prop31
280
     0
102
RTVSPost2010PropOp31
 70
     0
102
RTVSPost2010Prop32
280
     0
102
RTVSPost2010PropOp32
 70
     0
102
RTVSPost2010Prop33
280
     0
102
RTVSPost2010PropOp33
 70
     0
102
RTVSPost2010Prop34
280
     0
102
RTVSPost2010PropOp34
 70
     0
102
RTVSPost2010Prop35
280
     0
102
RTVSPost2010PropOp35
 70
     0
102
RTVSPost2010Prop36
280
     0
102
RTVSPost2010PropOp36
 70
     0
102
RTVSPost2010Prop37
 90
       50
102
RTVSPost2010PropOp37
 70
     0
102
RTVSPost2010Prop38
140
0.0
102
RTVSPost2010PropOp38
 70
     0
102
RTVSPost2010Prop39
140
1.0
102
RTVSPost2010PropOp39
 70
     0
102
RTVSPost2010Prop40
 90
        0
102
RTVSPost2010PropOp40
 70
     0
102
RTVSPost2010Prop41ColorIndex
 90
       18
102
RTVSPost2010Prop41ColorRGB
 90
        0
102
RTVSPost2010PropOp41
 70
     0
102
RTVSPost2010Prop42
 90
       50
102
RTVSPost2010PropOp42
 70
     0
102
RTVSPost2010Prop43
 90
        3
102
RTVSPost2010PropOp43
 70
     0
102
RTVSPost2010Prop44ColorIndex
 90
        5
102
RTVSPost2010Prop44ColorRGB
 90
      255
102
RTVSPost2010PropOp44
 70
     0
102
RTVSPost2010Prop45
280
     0
102
RTVSPost2010PropOp45
 70
     0
102
RTVSPost2010Prop46
 90
       50
102
RTVSPost2010PropOp46
 70
     0
102
RTVSPost2010Prop47
 90
       50
102
RTVSPost2010PropOp47
 70
     0
102
RTVSPost2010Prop48
 90
       50
102
RTVSPost2010PropOp48
 70
     0
102
RTVSPost2010Prop49
280
     0
102
RTVSPost2010PropOp49
 70
     0
102
RTVSPost2010Prop50
 90
       50
102
RTVSPost2010PropOp50
 70
     0
102
RTVSPost2010Prop51ColorIndex
 90
      256
102
RTVSPost2010Prop51ColorRGB
 90
-16777216
102
RTVSPost2010PropOp51
 70
     0
102
RTVSPost2010Prop52
140
1.0
102
RTVSPost2010PropOp52
 70
     0
102
RTVSPost2010Prop53
 90
        2
102
RTVSPost2010PropOp53
 70
     0
102
RTVSPost2010Prop54
  1
strokes_ogs.tif
102
RTVSPost2010PropOp54
 70
     0
102
RTVSPost2010Prop55
280
     0
102
RTVSPost2010PropOp55
 70
     0
102
RTVSPost2010Prop56
140
1.0
102
RTVSPost2010PropOp56
 70
     0
102
RTVSPost2010Prop57
140
1.0
102
RTVSPost2010PropOp57
 70
     0
102
RTVSPropertyOp0
 70
     0
102
RTVSPropertyOp1
 70
     0
102
RTVSPropertyOp2
 70
     0
102
RTVSPropertyOp3
 70
     0
102
RTVSPropertyOp4
 70
     0
102
RTVSPropertyOp5
 70
     0
102
RTVSPropertyOp6
 70
     0
102
RTVSPropertyOp7
 70
     0
102
RTVSPropertyOp8
 70
     0
102
RTVSPropertyOp9
 70
     0
102
RTVSPropertyOp10
 70
     0
102
RTVSPropertyOp11
 70
     0
102
RTVSPropertyOp12
 70
     0
102
RTVSPropertyOp13
 70
     0
102
RTVSPropertyOp14
 70
     2
102
RTVSPropertyOp15
 70
     0
102
RTVSPropertyOp16
 70
     0
102
RTVSPropertyOp17
 70
     0
102
RTVSPropertyOp18
 70
     0
102
RTVSPropertyOp19
 70
     0
102
RTVSPropertyOp20
 70
     0
102
RTVSPropertyOp21
 70
     0
102
RTVSPropertyOp22
 70
     0
102
RTVSPropertyOp23
 70
     0
102
RTVSPropertyOp24
 70
     0
102
RTVSPropertyOp25
 70
     0
102
RTVSPropertyOp26
 70
     0
102
RTVSPropertyOp27
 70
     0
102
RTVSPropertyOp28
 70
     0
102
RTVSPropertyOp29
 70
     0
102
RTVSPropertyOp30
 70
     0
102
RTVSPropertyOp31
 70
     0
102
RTVSPropertyOp32
 70
     0
102
RTVSPropertyOp33
 70
     0
102
RTVSPropertyOp34
 70
     0
102
RTVSPropertyOp35
 70
     0
102
RTVSPropertyOp36
 70
     0
102
RTVSPropertyOp37
 70
     0
102
RTVSPropertyOp38
 70
     0
102
RTVSPropertyOp39
 70
     0
102
RTVSPropertyOp40
 70
     0
102
RTVSPropertyOp41
 70
     0
102
RTVSPropertyOp42
 70
     0
102
RTVSPropertyOp43
 70
     0
102
RTVSPropertyOp44
 70
     0
102
RTVSPropertyOp45
 70
     0
102
RTVSPropertyOp46
 70
     0
102
RTVSPropertyOp47
 70
     0
102
RTVSPropertyOp48
 70
     0
102
RTVSPropertyOp49
 70
     0
102
RTVSPropertyOp50
 70
     0
102
RTVSPropertyOp51
 70
     0
102
RTVSPropertyOp52
 70
     0
102
RTVSPropertyOp53
 70
     0
102
RTVSPropertyOp54
 70
     0
102
RTVSPropertyOp55
 70
     0
102
RTVSPropertyOp56
 70
     0
102
RTVSPropertyOp57
 70
     0
102
RTVSPropertyOp58
 70
     1
102
RTVSPropertyOp59
 70
     1
102
RTVSPropertyOp60
 70
     1
102
RTVSPropertyOp61
 70
     1
102
RTVSPropertyOp62
 70
     1
  0
XRECORD
  5
D5D
102
{ACAD_REACTORS
330
D5C
102
}
330
D5C
100
AcDbXrecord
280
     1
102
RTVSPost2010Prop28
280
     0
102
RTVSPost2010PropOp28
 70
     1
102
RTVSPost2010Prop29
280
     1
102
RTVSPost2010PropOp29
 70
     1
102
RTVSPost2010Prop30
280
     1
102
RTVSPost2010PropOp30
 70
     1
102
RTVSPost2010Prop31
280
     0
102
RTVSPost2010PropOp31
 70
     1
102
RTVSPost2010Prop32
280
     0
102
RTVSPost2010PropOp32
 70
     1
102
RTVSPost2010Prop33
280
     0
102
RTVSPost2010PropOp33
 70
     1
102
RTVSPost2010Prop34
280
     0
102
RTVSPost2010PropOp34
 70
     1
102
RTVSPost2010Prop35
280
     0
102
RTVSPost2010PropOp35
 70
     1
102
RTVSPost2010Prop36
280
     0
102
RTVSPost2010PropOp36
 70
     1
102
RTVSPost2010Prop37
 90
       50
102
RTVSPost2010PropOp37
 70
     1
102
RTVSPost2010Prop38
140
0.0
102
RTVSPost2010PropOp38
 70
     1
102
RTVSPost2010Prop39
140
1.0
102
RTVSPost2010PropOp39
 70
     1
102
RTVSPost2010Prop40
 90
        0
102
RTVSPost2010PropOp40
 70
     1
102
RTVSPost2010Prop41ColorIndex
 90
       18
102
RTVSPost2010Prop41ColorRGB
 90
        0
102
RTVSPost2010PropOp41
 70
     1
102
RTVSPost2010Prop42
 90
       50
102
RTVSPost2010PropOp42
 70
     1
102
RTVSPost2010Prop43
 90
        3
102
RTVSPost2010PropOp43
 70
     1
102
RTVSPost2010Prop44ColorIndex
 90
        5
102
RTVSPost2010Prop44ColorRGB
 90
      255
102
RTVSPost2010PropOp44
 70
     1
102
RTVSPost2010Prop45
280
     0
102
RTVSPost2010PropOp45
 70
     1
102
RTVSPost2010Prop46
 90
       50
102
RTVSPost2010PropOp46
 70
     1
102
RTVSPost2010Prop47
 90
       50
102
RTVSPost2010PropOp47
 70
     1
102
RTVSPost2010Prop48
 90
       50
102
RTVSPost2010PropOp48
 70
     1
102
RTVSPost2010Prop49
280
     0
102
RTVSPost2010PropOp49
 70
     1
102
RTVSPost2010Prop50
 90
       50
102
RTVSPost2010PropOp50
 70
     1
102
RTVSPost2010Prop51ColorIndex
 90
      256
102
RTVSPost2010Prop51ColorRGB
 90
-16777216
102
RTVSPost2010PropOp51
 70
     0
102
RTVSPost2010Prop52
140
1.0
102
RTVSPost2010PropOp52
 70
     0
102
RTVSPost2010Prop53
 90
        2
102
RTVSPost2010PropOp53
 70
     1
102
RTVSPost2010Prop54
  1
strokes_ogs.tif
102
RTVSPost2010PropOp54
 70
     1
102
RTVSPost2010Prop55
280
     0
102
RTVSPost2010PropOp55
 70
     1
102
RTVSPost2010Prop56
140
1.0
102
RTVSPost2010PropOp56
 70
     1
102
RTVSPost2010Prop57
140
1.0
102
RTVSPost2010PropOp57
 70
     1
102
RTVSPropertyOp0
 70
     1
102
RTVSPropertyOp1
 70
     1
102
RTVSPropertyOp2
 70
     1
102
RTVSPropertyOp3
 70
     1
102
RTVSPropertyOp4
 70
     1
102
RTVSPropertyOp5
 70
     1
102
RTVSPropertyOp6
 70
     1
102
RTVSPropertyOp7
 70
     1
102
RTVSPropertyOp8
 70
     1
102
RTVSPropertyOp9
 70
     1
102
RTVSPropertyOp10
 70
     1
102
RTVSPropertyOp11
 70
     1
102
RTVSPropertyOp12
 70
     1
102
RTVSPropertyOp13
 70
     1
102
RTVSPropertyOp14
 70
     1
102
RTVSPropertyOp15
 70
     1
102
RTVSPropertyOp16
 70
     1
102
RTVSPropertyOp17
 70
     1
102
RTVSPropertyOp18
 70
     1
102
RTVSPropertyOp19
 70
     1
102
RTVSPropertyOp20
 70
     1
102
RTVSPropertyOp21
 70
     1
102
RTVSPropertyOp22
 70
     1
102
RTVSPropertyOp23
 70
     1
102
RTVSPropertyOp24
 70
     1
102
RTVSPropertyOp25
 70
     1
102
RTVSPropertyOp26
 70
     1
102
RTVSPropertyOp27
 70
     1
102
RTVSPropertyOp28
 70
     1
102
RTVSPropertyOp29
 70
     1
102
RTVSPropertyOp30
 70
     1
102
RTVSPropertyOp31
 70
     1
102
RTVSPropertyOp32
 70
     1
102
RTVSPropertyOp33
 70
     1
102
RTVSPropertyOp34
 70
     1
102
RTVSPropertyOp35
 70
     1
102
RTVSPropertyOp36
 70
     1
102
RTVSPropertyOp37
 70
     1
102
RTVSPropertyOp38
 70
     1
102
RTVSPropertyOp39
 70
     1
102
RTVSPropertyOp40
 70
     1
102
RTVSPropertyOp41
 70
     1
102
RTVSPropertyOp42
 70
     1
102
RTVSPropertyOp43
 70
     1
102
RTVSPropertyOp44
 70
     1
102
RTVSPropertyOp45
 70
     1
102
RTVSPropertyOp46
 70
     1
102
RTVSPropertyOp47
 70
     1
102
RTVSPropertyOp48
 70
     1
102
RTVSPropertyOp49
 70
     1
102
RTVSPropertyOp50
 70
     1
102
RTVSPropertyOp51
 70
     0
102
RTVSPropertyOp52
 70
     0
102
RTVSPropertyOp53
 70
     1
102
RTVSPropertyOp54
 70
     1
102
RTVSPropertyOp55
 70
     1
102
RTVSPropertyOp56
 70
     1
102
RTVSPropertyOp57
 70
     1
102
RTVSPropertyOp58
 70
     1
102
RTVSPropertyOp59
 70
     1
102
RTVSPropertyOp60
 70
     1
102
RTVSPropertyOp61
 70
     1
102
RTVSPropertyOp62
 70
     1
  0
XRECORD
  5
D6F
102
{ACAD_REACTORS
330
D6E
102
}
330
D6E
100
AcDbXrecord
280
     1
102
RTVSPost2010Prop28
280
     0
102
RTVSPost2010PropOp28
 70
     0
102
RTVSPost2010Prop29
280
     1
102
RTVSPost2010PropOp29
 70
     0
102
RTVSPost2010Prop30
280
     1
102
RTVSPost2010PropOp30
 70
     0
102
RTVSPost2010Prop31
280
     0
102
RTVSPost2010PropOp31
 70
     0
102
RTVSPost2010Prop32
280
     0
102
RTVSPost2010PropOp32
 70
     0
102
RTVSPost2010Prop33
280
     0
102
RTVSPost2010PropOp33
 70
     0
102
RTVSPost2010Prop34
280
     0
102
RTVSPost2010PropOp34
 70
     0
102
RTVSPost2010Prop35
280
     0
102
RTVSPost2010PropOp35
 70
     0
102
RTVSPost2010Prop36
280
     0
102
RTVSPost2010PropOp36
 70
     0
102
RTVSPost2010Prop37
 90
       50
102
RTVSPost2010PropOp37
 70
     0
102
RTVSPost2010Prop38
140
0.0
102
RTVSPost2010PropOp38
 70
     0
102
RTVSPost2010Prop39
140
1.0
102
RTVSPost2010PropOp39
 70
     0
102
RTVSPost2010Prop40
 90
        0
102
RTVSPost2010PropOp40
 70
     0
102
RTVSPost2010Prop41ColorIndex
 90
       18
102
RTVSPost2010Prop41ColorRGB
 90
        0
102
RTVSPost2010PropOp41
 70
     0
102
RTVSPost2010Prop42
 90
       50
102
RTVSPost2010PropOp42
 70
     0
102
RTVSPost2010Prop43
 90
        3
102
RTVSPost2010PropOp43
 70
     0
102
RTVSPost2010Prop44ColorIndex
 90
        5
102
RTVSPost2010Prop44ColorRGB
 90
      255
102
RTVSPost2010PropOp44
 70
     0
102
RTVSPost2010Prop45
280
     0
102
RTVSPost2010PropOp45
 70
     0
102
RTVSPost2010Prop46
 90
       50
102
RTVSPost2010PropOp46
 70
     0
102
RTVSPost2010Prop47
 90
       50
102
RTVSPost2010PropOp47
 70
     0
102
RTVSPost2010Prop48
 90
       50
102
RTVSPost2010PropOp48
 70
     0
102
RTVSPost2010Prop49
280
     0
102
RTVSPost2010PropOp49
 70
     0
102
RTVSPost2010Prop50
 90
       50
102
RTVSPost2010PropOp50
 70
     0
102
RTVSPost2010Prop51ColorIndex
 90
      256
102
RTVSPost2010Prop51ColorRGB
 90
-16777216
102
RTVSPost2010PropOp51
 70
     0
102
RTVSPost2010Prop52
140
1.0
102
RTVSPost2010PropOp52
 70
     0
102
RTVSPost2010Prop53
 90
        2
102
RTVSPost2010PropOp53
 70
     0
102
RTVSPost2010Prop54
  1
strokes_ogs.tif
102
RTVSPost2010PropOp54
 70
     0
102
RTVSPost2010Prop55
280
     0
102
RTVSPost2010PropOp55
 70
     0
102
RTVSPost2010Prop56
140
1.0
102
RTVSPost2010PropOp56
 70
     0
102
RTVSPost2010Prop57
140
1.0
102
RTVSPost2010PropOp57
 70
     0
102
RTVSPropertyOp0
 70
     0
102
RTVSPropertyOp1
 70
     0
102
RTVSPropertyOp2
 70
     0
102
RTVSPropertyOp3
 70
     0
102
RTVSPropertyOp4
 70
     0
102
RTVSPropertyOp5
 70
     0
102
RTVSPropertyOp6
 70
     0
102
RTVSPropertyOp7
 70
     0
102
RTVSPropertyOp8
 70
     0
102
RTVSPropertyOp9
 70
     0
102
RTVSPropertyOp10
 70
     0
102
RTVSPropertyOp11
 70
     0
102
RTVSPropertyOp12
 70
     0
102
RTVSPropertyOp13
 70
     0
102
RTVSPropertyOp14
 70
     2
102
RTVSPropertyOp15
 70
     0
102
RTVSPropertyOp16
 70
     0
102
RTVSPropertyOp17
 70
     0
102
RTVSPropertyOp18
 70
     0
102
RTVSPropertyOp19
 70
     0
102
RTVSPropertyOp20
 70
     0
102
RTVSPropertyOp21
 70
     0
102
RTVSPropertyOp22
 70
     0
102
RTVSPropertyOp23
 70
     0
102
RTVSPropertyOp24
 70
     0
102
RTVSPropertyOp25
 70
     0
102
RTVSPropertyOp26
 70
     0
102
RTVSPropertyOp27
 70
     0
102
RTVSPropertyOp28
 70
     0
102
RTVSPropertyOp29
 70
     0
102
RTVSPropertyOp30
 70
     0
102
RTVSPropertyOp31
 70
     0
102
RTVSPropertyOp32
 70
     0
102
RTVSPropertyOp33
 70
     0
102
RTVSPropertyOp34
 70
     0
102
RTVSPropertyOp35
 70
     0
102
RTVSPropertyOp36
 70
     0
102
RTVSPropertyOp37
 70
     0
102
RTVSPropertyOp38
 70
     0
102
RTVSPropertyOp39
 70
     0
102
RTVSPropertyOp40
 70
     0
102
RTVSPropertyOp41
 70
     0
102
RTVSPropertyOp42
 70
     0
102
RTVSPropertyOp43
 70
     0
102
RTVSPropertyOp44
 70
     0
102
RTVSPropertyOp45
 70
     0
102
RTVSPropertyOp46
 70
     0
102
RTVSPropertyOp47
 70
     0
102
RTVSPropertyOp48
 70
     0
102
RTVSPropertyOp49
 70
     0
102
RTVSPropertyOp50
 70
     0
102
RTVSPropertyOp51
 70
     0
102
RTVSPropertyOp52
 70
     0
102
RTVSPropertyOp53
 70
     0
102
RTVSPropertyOp54
 70
     0
102
RTVSPropertyOp55
 70
     0
102
RTVSPropertyOp56
 70
     0
102
RTVSPropertyOp57
 70
     0
102
RTVSPropertyOp58
 70
     1
102
RTVSPropertyOp59
 70
     1
102
RTVSPropertyOp60
 70
     1
102
RTVSPropertyOp61
 70
     1
102
RTVSPropertyOp62
 70
     1
  0
XRECORD
  5
D55
102
{ACAD_REACTORS
330
D54
102
}
330
D54
100
AcDbXrecord
280
     1
102
RTVSPost2010Prop28
280
     0
102
RTVSPost2010PropOp28
 70
     1
102
RTVSPost2010Prop29
280
     1
102
RTVSPost2010PropOp29
 70
     1
102
RTVSPost2010Prop30
280
     1
102
RTVSPost2010PropOp30
 70
     1
102
RTVSPost2010Prop31
280
     0
102
RTVSPost2010PropOp31
 70
     1
102
RTVSPost2010Prop32
280
     0
102
RTVSPost2010PropOp32
 70
     1
102
RTVSPost2010Prop33
280
     0
102
RTVSPost2010PropOp33
 70
     1
102
RTVSPost2010Prop34
280
     0
102
RTVSPost2010PropOp34
 70
     1
102
RTVSPost2010Prop35
280
     0
102
RTVSPost2010PropOp35
 70
     1
102
RTVSPost2010Prop36
280
     0
102
RTVSPost2010PropOp36
 70
     1
102
RTVSPost2010Prop37
 90
       50
102
RTVSPost2010PropOp37
 70
     1
102
RTVSPost2010Prop38
140
0.0
102
RTVSPost2010PropOp38
 70
     1
102
RTVSPost2010Prop39
140
1.0
102
RTVSPost2010PropOp39
 70
     1
102
RTVSPost2010Prop40
 90
        0
102
RTVSPost2010PropOp40
 70
     1
102
RTVSPost2010Prop41ColorIndex
 90
       18
102
RTVSPost2010Prop41ColorRGB
 90
        0
102
RTVSPost2010PropOp41
 70
     1
102
RTVSPost2010Prop42
 90
       50
102
RTVSPost2010PropOp42
 70
     1
102
RTVSPost2010Prop43
 90
        3
102
RTVSPost2010PropOp43
 70
     1
102
RTVSPost2010Prop44ColorIndex
 90
        5
102
RTVSPost2010Prop44ColorRGB
 90
      255
102
RTVSPost2010PropOp44
 70
     1
102
RTVSPost2010Prop45
280
     0
102
RTVSPost2010PropOp45
 70
     1
102
RTVSPost2010Prop46
 90
       50
102
RTVSPost2010PropOp46
 70
     1
102
RTVSPost2010Prop47
 90
       50
102
RTVSPost2010PropOp47
 70
     1
102
RTVSPost2010Prop48
 90
       50
102
RTVSPost2010PropOp48
 70
     1
102
RTVSPost2010Prop49
280
     0
102
RTVSPost2010PropOp49
 70
     1
102
RTVSPost2010Prop50
 90
       50
102
RTVSPost2010PropOp50
 70
     1
102
RTVSPost2010Prop51ColorIndex
 90
      256
102
RTVSPost2010Prop51ColorRGB
 90
-16777216
102
RTVSPost2010PropOp51
 70
     0
102
RTVSPost2010Prop52
140
1.0
102
RTVSPost2010PropOp52
 70
     0
102
RTVSPost2010Prop53
 90
        2
102
RTVSPost2010PropOp53
 70
     1
102
RTVSPost2010Prop54
  1
strokes_ogs.tif
102
RTVSPost2010PropOp54
 70
     1
102
RTVSPost2010Prop55
280
     0
102
RTVSPost2010PropOp55
 70
     1
102
RTVSPost2010Prop56
140
1.0
102
RTVSPost2010PropOp56
 70
     1
102
RTVSPost2010Prop57
140
1.0
102
RTVSPost2010PropOp57
 70
     1
102
RTVSPropertyOp0
 70
     1
102
RTVSPropertyOp1
 70
     1
102
RTVSPropertyOp2
 70
     1
102
RTVSPropertyOp3
 70
     1
102
RTVSPropertyOp4
 70
     1
102
RTVSPropertyOp5
 70
     1
102
RTVSPropertyOp6
 70
     1
102
RTVSPropertyOp7
 70
     1
102
RTVSPropertyOp8
 70
     1
102
RTVSPropertyOp9
 70
     1
102
RTVSPropertyOp10
 70
     1
102
RTVSPropertyOp11
 70
     1
102
RTVSPropertyOp12
 70
     1
102
RTVSPropertyOp13
 70
     1
102
RTVSPropertyOp14
 70
     1
102
RTVSPropertyOp15
 70
     1
102
RTVSPropertyOp16
 70
     1
102
RTVSPropertyOp17
 70
     1
102
RTVSPropertyOp18
 70
     1
102
RTVSPropertyOp19
 70
     1
102
RTVSPropertyOp20
 70
     1
102
RTVSPropertyOp21
 70
     1
102
RTVSPropertyOp22
 70
     1
102
RTVSPropertyOp23
 70
     1
102
RTVSPropertyOp24
 70
     1
102
RTVSPropertyOp25
 70
     1
102
RTVSPropertyOp26
 70
     1
102
RTVSPropertyOp27
 70
     1
102
RTVSPropertyOp28
 70
     1
102
RTVSPropertyOp29
 70
     1
102
RTVSPropertyOp30
 70
     1
102
RTVSPropertyOp31
 70
     1
102
RTVSPropertyOp32
 70
     1
102
RTVSPropertyOp33
 70
     1
102
RTVSPropertyOp34
 70
     1
102
RTVSPropertyOp35
 70
     1
102
RTVSPropertyOp36
 70
     1
102
RTVSPropertyOp37
 70
     1
102
RTVSPropertyOp38
 70
     1
102
RTVSPropertyOp39
 70
     1
102
RTVSPropertyOp40
 70
     1
102
RTVSPropertyOp41
 70
     1
102
RTVSPropertyOp42
 70
     1
102
RTVSPropertyOp43
 70
     1
102
RTVSPropertyOp44
 70
     1
102
RTVSPropertyOp45
 70
     1
102
RTVSPropertyOp46
 70
     1
102
RTVSPropertyOp47
 70
     1
102
RTVSPropertyOp48
 70
     1
102
RTVSPropertyOp49
 70
     1
102
RTVSPropertyOp50
 70
     1
102
RTVSPropertyOp51
 70
     0
102
RTVSPropertyOp52
 70
     0
102
RTVSPropertyOp53
 70
     1
102
RTVSPropertyOp54
 70
     1
102
RTVSPropertyOp55
 70
     1
102
RTVSPropertyOp56
 70
     1
102
RTVSPropertyOp57
 70
     1
102
RTVSPropertyOp58
 70
     1
102
RTVSPropertyOp59
 70
     1
102
RTVSPropertyOp60
 70
     1
102
RTVSPropertyOp61
 70
     1
102
RTVSPropertyOp62
 70
     1
  0
XRECORD
  5
D6B
102
{ACAD_REACTORS
330
D6A
102
}
330
D6A
100
AcDbXrecord
280
     1
102
RTVSPost2010Prop28
280
     0
102
RTVSPost2010PropOp28
 70
     1
102
RTVSPost2010Prop29
280
     1
102
RTVSPost2010PropOp29
 70
     1
102
RTVSPost2010Prop30
280
     1
102
RTVSPost2010PropOp30
 70
     1
102
RTVSPost2010Prop31
280
     0
102
RTVSPost2010PropOp31
 70
     1
102
RTVSPost2010Prop32
280
     0
102
RTVSPost2010PropOp32
 70
     1
102
RTVSPost2010Prop33
280
     0
102
RTVSPost2010PropOp33
 70
     1
102
RTVSPost2010Prop34
280
     0
102
RTVSPost2010PropOp34
 70
     1
102
RTVSPost2010Prop35
280
     0
102
RTVSPost2010PropOp35
 70
     1
102
RTVSPost2010Prop36
280
     0
102
RTVSPost2010PropOp36
 70
     1
102
RTVSPost2010Prop37
 90
       50
102
RTVSPost2010PropOp37
 70
     1
102
RTVSPost2010Prop38
140
0.0
102
RTVSPost2010PropOp38
 70
     1
102
RTVSPost2010Prop39
140
1.0
102
RTVSPost2010PropOp39
 70
     1
102
RTVSPost2010Prop40
 90
        0
102
RTVSPost2010PropOp40
 70
     1
102
RTVSPost2010Prop41ColorIndex
 90
       18
102
RTVSPost2010Prop41ColorRGB
 90
        0
102
RTVSPost2010PropOp41
 70
     1
102
RTVSPost2010Prop42
 90
       50
102
RTVSPost2010PropOp42
 70
     1
102
RTVSPost2010Prop43
 90
        3
102
RTVSPost2010PropOp43
 70
     1
102
RTVSPost2010Prop44ColorIndex
 90
        5
102
RTVSPost2010Prop44ColorRGB
 90
      255
102
RTVSPost2010PropOp44
 70
     1
102
RTVSPost2010Prop45
280
     0
102
RTVSPost2010PropOp45
 70
     1
102
RTVSPost2010Prop46
 90
       50
102
RTVSPost2010PropOp46
 70
     1
102
RTVSPost2010Prop47
 90
       50
102
RTVSPost2010PropOp47
 70
     1
102
RTVSPost2010Prop48
 90
       50
102
RTVSPost2010PropOp48
 70
     1
102
RTVSPost2010Prop49
280
     0
102
RTVSPost2010PropOp49
 70
     1
102
RTVSPost2010Prop50
 90
       50
102
RTVSPost2010PropOp50
 70
     1
102
RTVSPost2010Prop51ColorIndex
 90
      256
102
RTVSPost2010Prop51ColorRGB
 90
-16777216
102
RTVSPost2010PropOp51
 70
     0
102
RTVSPost2010Prop52
140
1.0
102
RTVSPost2010PropOp52
 70
     0
102
RTVSPost2010Prop53
 90
        2
102
RTVSPost2010PropOp53
 70
     1
102
RTVSPost2010Prop54
  1
strokes_ogs.tif
102
RTVSPost2010PropOp54
 70
     1
102
RTVSPost2010Prop55
280
     0
102
RTVSPost2010PropOp55
 70
     1
102
RTVSPost2010Prop56
140
1.0
102
RTVSPost2010PropOp56
 70
     1
102
RTVSPost2010Prop57
140
1.0
102
RTVSPost2010PropOp57
 70
     1
102
RTVSPropertyOp0
 70
     1
102
RTVSPropertyOp1
 70
     1
102
RTVSPropertyOp2
 70
     1
102
RTVSPropertyOp3
 70
     1
102
RTVSPropertyOp4
 70
     1
102
RTVSPropertyOp5
 70
     1
102
RTVSPropertyOp6
 70
     1
102
RTVSPropertyOp7
 70
     1
102
RTVSPropertyOp8
 70
     1
102
RTVSPropertyOp9
 70
     1
102
RTVSPropertyOp10
 70
     1
102
RTVSPropertyOp11
 70
     1
102
RTVSPropertyOp12
 70
     1
102
RTVSPropertyOp13
 70
     1
102
RTVSPropertyOp14
 70
     1
102
RTVSPropertyOp15
 70
     1
102
RTVSPropertyOp16
 70
     1
102
RTVSPropertyOp17
 70
     1
102
RTVSPropertyOp18
 70
     1
102
RTVSPropertyOp19
 70
     1
102
RTVSPropertyOp20
 70
     1
102
RTVSPropertyOp21
 70
     1
102
RTVSPropertyOp22
 70
     1
102
RTVSPropertyOp23
 70
     1
102
RTVSPropertyOp24
 70
     1
102
RTVSPropertyOp25
 70
     1
102
RTVSPropertyOp26
 70
     1
102
RTVSPropertyOp27
 70
     1
102
RTVSPropertyOp28
 70
     1
102
RTVSPropertyOp29
 70
     1
102
RTVSPropertyOp30
 70
     1
102
RTVSPropertyOp31
 70
     1
102
RTVSPropertyOp32
 70
     1
102
RTVSPropertyOp33
 70
     1
102
RTVSPropertyOp34
 70
     1
102
RTVSPropertyOp35
 70
     1
102
RTVSPropertyOp36
 70
     1
102
RTVSPropertyOp37
 70
     1
102
RTVSPropertyOp38
 70
     1
102
RTVSPropertyOp39
 70
     1
102
RTVSPropertyOp40
 70
     1
102
RTVSPropertyOp41
 70
     1
102
RTVSPropertyOp42
 70
     1
102
RTVSPropertyOp43
 70
     1
102
RTVSPropertyOp44
 70
     1
102
RTVSPropertyOp45
 70
     1
102
RTVSPropertyOp46
 70
     1
102
RTVSPropertyOp47
 70
     1
102
RTVSPropertyOp48
 70
     1
102
RTVSPropertyOp49
 70
     1
102
RTVSPropertyOp50
 70
     1
102
RTVSPropertyOp51
 70
     0
102
RTVSPropertyOp52
 70
     0
102
RTVSPropertyOp53
 70
     1
102
RTVSPropertyOp54
 70
     1
102
RTVSPropertyOp55
 70
     1
102
RTVSPropertyOp56
 70
     1
102
RTVSPropertyOp57
 70
     1
102
RTVSPropertyOp58
 70
     1
102
RTVSPropertyOp59
 70
     1
102
RTVSPropertyOp60
 70
     1
102
RTVSPropertyOp61
 70
     1
102
RTVSPropertyOp62
 70
     1
  0
XRECORD
  5
D69
102
{ACAD_REACTORS
330
D68
102
}
330
D68
100
AcDbXrecord
280
     1
102
RTVSPost2010Prop28
280
     0
102
RTVSPost2010PropOp28
 70
     1
102
RTVSPost2010Prop29
280
     1
102
RTVSPost2010PropOp29
 70
     1
102
RTVSPost2010Prop30
280
     1
102
RTVSPost2010PropOp30
 70
     1
102
RTVSPost2010Prop31
280
     0
102
RTVSPost2010PropOp31
 70
     1
102
RTVSPost2010Prop32
280
     0
102
RTVSPost2010PropOp32
 70
     1
102
RTVSPost2010Prop33
280
     0
102
RTVSPost2010PropOp33
 70
     1
102
RTVSPost2010Prop34
280
     0
102
RTVSPost2010PropOp34
 70
     1
102
RTVSPost2010Prop35
280
     0
102
RTVSPost2010PropOp35
 70
     1
102
RTVSPost2010Prop36
280
     0
102
RTVSPost2010PropOp36
 70
     1
102
RTVSPost2010Prop37
 90
       50
102
RTVSPost2010PropOp37
 70
     1
102
RTVSPost2010Prop38
140
0.0
102
RTVSPost2010PropOp38
 70
     1
102
RTVSPost2010Prop39
140
1.0
102
RTVSPost2010PropOp39
 70
     1
102
RTVSPost2010Prop40
 90
        0
102
RTVSPost2010PropOp40
 70
     1
102
RTVSPost2010Prop41ColorIndex
 90
       18
102
RTVSPost2010Prop41ColorRGB
 90
        0
102
RTVSPost2010PropOp41
 70
     1
102
RTVSPost2010Prop42
 90
       50
102
RTVSPost2010PropOp42
 70
     1
102
RTVSPost2010Prop43
 90
        3
102
RTVSPost2010PropOp43
 70
     1
102
RTVSPost2010Prop44ColorIndex
 90
        5
102
RTVSPost2010Prop44ColorRGB
 90
      255
102
RTVSPost2010PropOp44
 70
     1
102
RTVSPost2010Prop45
280
     0
102
RTVSPost2010PropOp45
 70
     1
102
RTVSPost2010Prop46
 90
       50
102
RTVSPost2010PropOp46
 70
     1
102
RTVSPost2010Prop47
 90
       50
102
RTVSPost2010PropOp47
 70
     1
102
RTVSPost2010Prop48
 90
       50
102
RTVSPost2010PropOp48
 70
     1
102
RTVSPost2010Prop49
280
     0
102
RTVSPost2010PropOp49
 70
     1
102
RTVSPost2010Prop50
 90
       50
102
RTVSPost2010PropOp50
 70
     1
102
RTVSPost2010Prop51ColorIndex
 90
      256
102
RTVSPost2010Prop51ColorRGB
 90
-16777216
102
RTVSPost2010PropOp51
 70
     0
102
RTVSPost2010Prop52
140
1.0
102
RTVSPost2010PropOp52
 70
     0
102
RTVSPost2010Prop53
 90
        2
102
RTVSPost2010PropOp53
 70
     1
102
RTVSPost2010Prop54
  1
strokes_ogs.tif
102
RTVSPost2010PropOp54
 70
     1
102
RTVSPost2010Prop55
280
     0
102
RTVSPost2010PropOp55
 70
     1
102
RTVSPost2010Prop56
140
1.0
102
RTVSPost2010PropOp56
 70
     1
102
RTVSPost2010Prop57
140
1.0
102
RTVSPost2010PropOp57
 70
     1
102
RTVSPropertyOp0
 70
     1
102
RTVSPropertyOp1
 70
     1
102
RTVSPropertyOp2
 70
     1
102
RTVSPropertyOp3
 70
     1
102
RTVSPropertyOp4
 70
     1
102
RTVSPropertyOp5
 70
     1
102
RTVSPropertyOp6
 70
     1
102
RTVSPropertyOp7
 70
     1
102
RTVSPropertyOp8
 70
     1
102
RTVSPropertyOp9
 70
     1
102
RTVSPropertyOp10
 70
     1
102
RTVSPropertyOp11
 70
     1
102
RTVSPropertyOp12
 70
     1
102
RTVSPropertyOp13
 70
     1
102
RTVSPropertyOp14
 70
     1
102
RTVSPropertyOp15
 70
     1
102
RTVSPropertyOp16
 70
     1
102
RTVSPropertyOp17
 70
     1
102
RTVSPropertyOp18
 70
     1
102
RTVSPropertyOp19
 70
     1
102
RTVSPropertyOp20
 70
     1
102
RTVSPropertyOp21
 70
     1
102
RTVSPropertyOp22
 70
     1
102
RTVSPropertyOp23
 70
     1
102
RTVSPropertyOp24
 70
     1
102
RTVSPropertyOp25
 70
     1
102
RTVSPropertyOp26
 70
     1
102
RTVSPropertyOp27
 70
     1
102
RTVSPropertyOp28
 70
     1
102
RTVSPropertyOp29
 70
     1
102
RTVSPropertyOp30
 70
     1
102
RTVSPropertyOp31
 70
     1
102
RTVSPropertyOp32
 70
     1
102
RTVSPropertyOp33
 70
     1
102
RTVSPropertyOp34
 70
     1
102
RTVSPropertyOp35
 70
     1
102
RTVSPropertyOp36
 70
     1
102
RTVSPropertyOp37
 70
     1
102
RTVSPropertyOp38
 70
     1
102
RTVSPropertyOp39
 70
     1
102
RTVSPropertyOp40
 70
     1
102
RTVSPropertyOp41
 70
     1
102
RTVSPropertyOp42
 70
     1
102
RTVSPropertyOp43
 70
     1
102
RTVSPropertyOp44
 70
     1
102
RTVSPropertyOp45
 70
     1
102
RTVSPropertyOp46
 70
     1
102
RTVSPropertyOp47
 70
     1
102
RTVSPropertyOp48
 70
     1
102
RTVSPropertyOp49
 70
     1
102
RTVSPropertyOp50
 70
     1
102
RTVSPropertyOp51
 70
     0
102
RTVSPropertyOp52
 70
     0
102
RTVSPropertyOp53
 70
     1
102
RTVSPropertyOp54
 70
     1
102
RTVSPropertyOp55
 70
     1
102
RTVSPropertyOp56
 70
     1
102
RTVSPropertyOp57
 70
     1
102
RTVSPropertyOp58
 70
     1
102
RTVSPropertyOp59
 70
     1
102
RTVSPropertyOp60
 70
     1
102
RTVSPropertyOp61
 70
     1
102
RTVSPropertyOp62
 70
     1
  0
XRECORD
  5
D63
102
{ACAD_REACTORS
330
D62
102
}
330
D62
100
AcDbXrecord
280
     1
102
RTVSPost2010Prop28
280
     0
102
RTVSPost2010PropOp28
 70
     1
102
RTVSPost2010Prop29
280
     1
102
RTVSPost2010PropOp29
 70
     1
102
RTVSPost2010Prop30
280
     1
102
RTVSPost2010PropOp30
 70
     1
102
RTVSPost2010Prop31
280
     0
102
RTVSPost2010PropOp31
 70
     1
102
RTVSPost2010Prop32
280
     0
102
RTVSPost2010PropOp32
 70
     1
102
RTVSPost2010Prop33
280
     0
102
RTVSPost2010PropOp33
 70
     1
102
RTVSPost2010Prop34
280
     0
102
RTVSPost2010PropOp34
 70
     1
102
RTVSPost2010Prop35
280
     0
102
RTVSPost2010PropOp35
 70
     1
102
RTVSPost2010Prop36
280
     0
102
RTVSPost2010PropOp36
 70
     1
102
RTVSPost2010Prop37
 90
       50
102
RTVSPost2010PropOp37
 70
     1
102
RTVSPost2010Prop38
140
0.0
102
RTVSPost2010PropOp38
 70
     1
102
RTVSPost2010Prop39
140
1.0
102
RTVSPost2010PropOp39
 70
     1
102
RTVSPost2010Prop40
 90
        0
102
RTVSPost2010PropOp40
 70
     1
102
RTVSPost2010Prop41ColorIndex
 90
       18
102
RTVSPost2010Prop41ColorRGB
 90
        0
102
RTVSPost2010PropOp41
 70
     1
102
RTVSPost2010Prop42
 90
       50
102
RTVSPost2010PropOp42
 70
     1
102
RTVSPost2010Prop43
 90
        3
102
RTVSPost2010PropOp43
 70
     1
102
RTVSPost2010Prop44ColorIndex
 90
        5
102
RTVSPost2010Prop44ColorRGB
 90
      255
102
RTVSPost2010PropOp44
 70
     1
102
RTVSPost2010Prop45
280
     0
102
RTVSPost2010PropOp45
 70
     1
102
RTVSPost2010Prop46
 90
       50
102
RTVSPost2010PropOp46
 70
     1
102
RTVSPost2010Prop47
 90
       50
102
RTVSPost2010PropOp47
 70
     1
102
RTVSPost2010Prop48
 90
       50
102
RTVSPost2010PropOp48
 70
     1
102
RTVSPost2010Prop49
280
     0
102
RTVSPost2010PropOp49
 70
     1
102
RTVSPost2010Prop50
 90
       50
102
RTVSPost2010PropOp50
 70
     1
102
RTVSPost2010Prop51ColorIndex
 90
      256
102
RTVSPost2010Prop51ColorRGB
 90
-16777216
102
RTVSPost2010PropOp51
 70
     0
102
RTVSPost2010Prop52
140
1.0
102
RTVSPost2010PropOp52
 70
     0
102
RTVSPost2010Prop53
 90
        2
102
RTVSPost2010PropOp53
 70
     1
102
RTVSPost2010Prop54
  1
strokes_ogs.tif
102
RTVSPost2010PropOp54
 70
     1
102
RTVSPost2010Prop55
280
     0
102
RTVSPost2010PropOp55
 70
     1
102
RTVSPost2010Prop56
140
1.0
102
RTVSPost2010PropOp56
 70
     1
102
RTVSPost2010Prop57
140
1.0
102
RTVSPost2010PropOp57
 70
     1
102
RTVSPropertyOp0
 70
     1
102
RTVSPropertyOp1
 70
     1
102
RTVSPropertyOp2
 70
     1
102
RTVSPropertyOp3
 70
     1
102
RTVSPropertyOp4
 70
     1
102
RTVSPropertyOp5
 70
     1
102
RTVSPropertyOp6
 70
     1
102
RTVSPropertyOp7
 70
     1
102
RTVSPropertyOp8
 70
     1
102
RTVSPropertyOp9
 70
     1
102
RTVSPropertyOp10
 70
     1
102
RTVSPropertyOp11
 70
     1
102
RTVSPropertyOp12
 70
     1
102
RTVSPropertyOp13
 70
     1
102
RTVSPropertyOp14
 70
     1
102
RTVSPropertyOp15
 70
     1
102
RTVSPropertyOp16
 70
     1
102
RTVSPropertyOp17
 70
     1
102
RTVSPropertyOp18
 70
     1
102
RTVSPropertyOp19
 70
     1
102
RTVSPropertyOp20
 70
     1
102
RTVSPropertyOp21
 70
     1
102
RTVSPropertyOp22
 70
     1
102
RTVSPropertyOp23
 70
     1
102
RTVSPropertyOp24
 70
     1
102
RTVSPropertyOp25
 70
     1
102
RTVSPropertyOp26
 70
     1
102
RTVSPropertyOp27
 70
     1
102
RTVSPropertyOp28
 70
     1
102
RTVSPropertyOp29
 70
     1
102
RTVSPropertyOp30
 70
     1
102
RTVSPropertyOp31
 70
     1
102
RTVSPropertyOp32
 70
     1
102
RTVSPropertyOp33
 70
     1
102
RTVSPropertyOp34
 70
     1
102
RTVSPropertyOp35
 70
     1
102
RTVSPropertyOp36
 70
     1
102
RTVSPropertyOp37
 70
     1
102
RTVSPropertyOp38
 70
     1
102
RTVSPropertyOp39
 70
     1
102
RTVSPropertyOp40
 70
     1
102
RTVSPropertyOp41
 70
     1
102
RTVSPropertyOp42
 70
     1
102
RTVSPropertyOp43
 70
     1
102
RTVSPropertyOp44
 70
     1
102
RTVSPropertyOp45
 70
     1
102
RTVSPropertyOp46
 70
     1
102
RTVSPropertyOp47
 70
     1
102
RTVSPropertyOp48
 70
     1
102
RTVSPropertyOp49
 70
     1
102
RTVSPropertyOp50
 70
     1
102
RTVSPropertyOp51
 70
     0
102
RTVSPropertyOp52
 70
     0
102
RTVSPropertyOp53
 70
     1
102
RTVSPropertyOp54
 70
     1
102
RTVSPropertyOp55
 70
     1
102
RTVSPropertyOp56
 70
     1
102
RTVSPropertyOp57
 70
     1
102
RTVSPropertyOp58
 70
     1
102
RTVSPropertyOp59
 70
     1
102
RTVSPropertyOp60
 70
     1
102
RTVSPropertyOp61
 70
     1
102
RTVSPropertyOp62
 70
     1
  0
XRECORD
  5
D65
102
{ACAD_REACTORS
330
D64
102
}
330
D64
100
AcDbXrecord
280
     1
102
RTVSPost2010Prop28
280
     0
102
RTVSPost2010PropOp28
 70
     1
102
RTVSPost2010Prop29
280
     1
102
RTVSPost2010PropOp29
 70
     1
102
RTVSPost2010Prop30
280
     1
102
RTVSPost2010PropOp30
 70
     1
102
RTVSPost2010Prop31
280
     0
102
RTVSPost2010PropOp31
 70
     1
102
RTVSPost2010Prop32
280
     0
102
RTVSPost2010PropOp32
 70
     1
102
RTVSPost2010Prop33
280
     0
102
RTVSPost2010PropOp33
 70
     1
102
RTVSPost2010Prop34
280
     0
102
RTVSPost2010PropOp34
 70
     1
102
RTVSPost2010Prop35
280
     0
102
RTVSPost2010PropOp35
 70
     1
102
RTVSPost2010Prop36
280
     0
102
RTVSPost2010PropOp36
 70
     1
102
RTVSPost2010Prop37
 90
       50
102
RTVSPost2010PropOp37
 70
     1
102
RTVSPost2010Prop38
140
0.0
102
RTVSPost2010PropOp38
 70
     1
102
RTVSPost2010Prop39
140
1.0
102
RTVSPost2010PropOp39
 70
     1
102
RTVSPost2010Prop40
 90
        0
102
RTVSPost2010PropOp40
 70
     1
102
RTVSPost2010Prop41ColorIndex
 90
       18
102
RTVSPost2010Prop41ColorRGB
 90
        0
102
RTVSPost2010PropOp41
 70
     1
102
RTVSPost2010Prop42
 90
       50
102
RTVSPost2010PropOp42
 70
     1
102
RTVSPost2010Prop43
 90
        3
102
RTVSPost2010PropOp43
 70
     1
102
RTVSPost2010Prop44ColorIndex
 90
        5
102
RTVSPost2010Prop44ColorRGB
 90
      255
102
RTVSPost2010PropOp44
 70
     1
102
RTVSPost2010Prop45
280
     0
102
RTVSPost2010PropOp45
 70
     1
102
RTVSPost2010Prop46
 90
       50
102
RTVSPost2010PropOp46
 70
     1
102
RTVSPost2010Prop47
 90
       50
102
RTVSPost2010PropOp47
 70
     1
102
RTVSPost2010Prop48
 90
       50
102
RTVSPost2010PropOp48
 70
     1
102
RTVSPost2010Prop49
280
     0
102
RTVSPost2010PropOp49
 70
     1
102
RTVSPost2010Prop50
 90
       50
102
RTVSPost2010PropOp50
 70
     1
102
RTVSPost2010Prop51ColorIndex
 90
      256
102
RTVSPost2010Prop51ColorRGB
 90
-16777216
102
RTVSPost2010PropOp51
 70
     0
102
RTVSPost2010Prop52
140
1.0
102
RTVSPost2010PropOp52
 70
     0
102
RTVSPost2010Prop53
 90
        2
102
RTVSPost2010PropOp53
 70
     1
102
RTVSPost2010Prop54
  1
strokes_ogs.tif
102
RTVSPost2010PropOp54
 70
     1
102
RTVSPost2010Prop55
280
     0
102
RTVSPost2010PropOp55
 70
     1
102
RTVSPost2010Prop56
140
1.0
102
RTVSPost2010PropOp56
 70
     1
102
RTVSPost2010Prop57
140
1.0
102
RTVSPost2010PropOp57
 70
     1
102
RTVSPropertyOp0
 70
     1
102
RTVSPropertyOp1
 70
     1
102
RTVSPropertyOp2
 70
     1
102
RTVSPropertyOp3
 70
     1
102
RTVSPropertyOp4
 70
     1
102
RTVSPropertyOp5
 70
     1
102
RTVSPropertyOp6
 70
     1
102
RTVSPropertyOp7
 70
     1
102
RTVSPropertyOp8
 70
     1
102
RTVSPropertyOp9
 70
     1
102
RTVSPropertyOp10
 70
     1
102
RTVSPropertyOp11
 70
     1
102
RTVSPropertyOp12
 70
     1
102
RTVSPropertyOp13
 70
     1
102
RTVSPropertyOp14
 70
     1
102
RTVSPropertyOp15
 70
     1
102
RTVSPropertyOp16
 70
     1
102
RTVSPropertyOp17
 70
     1
102
RTVSPropertyOp18
 70
     1
102
RTVSPropertyOp19
 70
     1
102
RTVSPropertyOp20
 70
     1
102
RTVSPropertyOp21
 70
     1
102
RTVSPropertyOp22
 70
     1
102
RTVSPropertyOp23
 70
     1
102
RTVSPropertyOp24
 70
     1
102
RTVSPropertyOp25
 70
     1
102
RTVSPropertyOp26
 70
     1
102
RTVSPropertyOp27
 70
     1
102
RTVSPropertyOp28
 70
     1
102
RTVSPropertyOp29
 70
     1
102
RTVSPropertyOp30
 70
     1
102
RTVSPropertyOp31
 70
     1
102
RTVSPropertyOp32
 70
     1
102
RTVSPropertyOp33
 70
     1
102
RTVSPropertyOp34
 70
     1
102
RTVSPropertyOp35
 70
     1
102
RTVSPropertyOp36
 70
     1
102
RTVSPropertyOp37
 70
     1
102
RTVSPropertyOp38
 70
     1
102
RTVSPropertyOp39
 70
     1
102
RTVSPropertyOp40
 70
     1
102
RTVSPropertyOp41
 70
     1
102
RTVSPropertyOp42
 70
     1
102
RTVSPropertyOp43
 70
     1
102
RTVSPropertyOp44
 70
     1
102
RTVSPropertyOp45
 70
     1
102
RTVSPropertyOp46
 70
     1
102
RTVSPropertyOp47
 70
     1
102
RTVSPropertyOp48
 70
     1
102
RTVSPropertyOp49
 70
     1
102
RTVSPropertyOp50
 70
     1
102
RTVSPropertyOp51
 70
     0
102
RTVSPropertyOp52
 70
     0
102
RTVSPropertyOp53
 70
     1
102
RTVSPropertyOp54
 70
     1
102
RTVSPropertyOp55
 70
     1
102
RTVSPropertyOp56
 70
     1
102
RTVSPropertyOp57
 70
     1
102
RTVSPropertyOp58
 70
     1
102
RTVSPropertyOp59
 70
     1
102
RTVSPropertyOp60
 70
     1
102
RTVSPropertyOp61
 70
     1
102
RTVSPropertyOp62
 70
     1
  0
XRECORD
  5
D5B
102
{ACAD_REACTORS
330
D5A
102
}
330
D5A
100
AcDbXrecord
280
     1
102
RTVSPost2010Prop28
280
     0
102
RTVSPost2010PropOp28
 70
     1
102
RTVSPost2010Prop29
280
     1
102
RTVSPost2010PropOp29
 70
     1
102
RTVSPost2010Prop30
280
     1
102
RTVSPost2010PropOp30
 70
     1
102
RTVSPost2010Prop31
280
     0
102
RTVSPost2010PropOp31
 70
     1
102
RTVSPost2010Prop32
280
     0
102
RTVSPost2010PropOp32
 70
     1
102
RTVSPost2010Prop33
280
     0
102
RTVSPost2010PropOp33
 70
     1
102
RTVSPost2010Prop34
280
     0
102
RTVSPost2010PropOp34
 70
     1
102
RTVSPost2010Prop35
280
     0
102
RTVSPost2010PropOp35
 70
     1
102
RTVSPost2010Prop36
280
     0
102
RTVSPost2010PropOp36
 70
     1
102
RTVSPost2010Prop37
 90
       50
102
RTVSPost2010PropOp37
 70
     1
102
RTVSPost2010Prop38
140
0.0
102
RTVSPost2010PropOp38
 70
     1
102
RTVSPost2010Prop39
140
1.0
102
RTVSPost2010PropOp39
 70
     1
102
RTVSPost2010Prop40
 90
        0
102
RTVSPost2010PropOp40
 70
     1
102
RTVSPost2010Prop41ColorIndex
 90
       18
102
RTVSPost2010Prop41ColorRGB
 90
        0
102
RTVSPost2010PropOp41
 70
     1
102
RTVSPost2010Prop42
 90
       50
102
RTVSPost2010PropOp42
 70
     1
102
RTVSPost2010Prop43
 90
        3
102
RTVSPost2010PropOp43
 70
     1
102
RTVSPost2010Prop44ColorIndex
 90
        5
102
RTVSPost2010Prop44ColorRGB
 90
      255
102
RTVSPost2010PropOp44
 70
     1
102
RTVSPost2010Prop45
280
     0
102
RTVSPost2010PropOp45
 70
     1
102
RTVSPost2010Prop46
 90
       50
102
RTVSPost2010PropOp46
 70
     1
102
RTVSPost2010Prop47
 90
       50
102
RTVSPost2010PropOp47
 70
     1
102
RTVSPost2010Prop48
 90
       50
102
RTVSPost2010PropOp48
 70
     1
102
RTVSPost2010Prop49
280
     0
102
RTVSPost2010PropOp49
 70
     1
102
RTVSPost2010Prop50
 90
       50
102
RTVSPost2010PropOp50
 70
     1
102
RTVSPost2010Prop51ColorIndex
 90
      256
102
RTVSPost2010Prop51ColorRGB
 90
-16777216
102
RTVSPost2010PropOp51
 70
     0
102
RTVSPost2010Prop52
140
1.0
102
RTVSPost2010PropOp52
 70
     0
102
RTVSPost2010Prop53
 90
        2
102
RTVSPost2010PropOp53
 70
     1
102
RTVSPost2010Prop54
  1
strokes_ogs.tif
102
RTVSPost2010PropOp54
 70
     1
102
RTVSPost2010Prop55
280
     0
102
RTVSPost2010PropOp55
 70
     1
102
RTVSPost2010Prop56
140
1.0
102
RTVSPost2010PropOp56
 70
     1
102
RTVSPost2010Prop57
140
1.0
102
RTVSPost2010PropOp57
 70
     1
102
RTVSPropertyOp0
 70
     1
102
RTVSPropertyOp1
 70
     1
102
RTVSPropertyOp2
 70
     1
102
RTVSPropertyOp3
 70
     1
102
RTVSPropertyOp4
 70
     1
102
RTVSPropertyOp5
 70
     1
102
RTVSPropertyOp6
 70
     1
102
RTVSPropertyOp7
 70
     1
102
RTVSPropertyOp8
 70
     1
102
RTVSPropertyOp9
 70
     1
102
RTVSPropertyOp10
 70
     1
102
RTVSPropertyOp11
 70
     1
102
RTVSPropertyOp12
 70
     1
102
RTVSPropertyOp13
 70
     1
102
RTVSPropertyOp14
 70
     1
102
RTVSPropertyOp15
 70
     1
102
RTVSPropertyOp16
 70
     1
102
RTVSPropertyOp17
 70
     1
102
RTVSPropertyOp18
 70
     1
102
RTVSPropertyOp19
 70
     1
102
RTVSPropertyOp20
 70
     1
102
RTVSPropertyOp21
 70
     1
102
RTVSPropertyOp22
 70
     1
102
RTVSPropertyOp23
 70
     1
102
RTVSPropertyOp24
 70
     1
102
RTVSPropertyOp25
 70
     1
102
RTVSPropertyOp26
 70
     1
102
RTVSPropertyOp27
 70
     1
102
RTVSPropertyOp28
 70
     1
102
RTVSPropertyOp29
 70
     1
102
RTVSPropertyOp30
 70
     1
102
RTVSPropertyOp31
 70
     1
102
RTVSPropertyOp32
 70
     1
102
RTVSPropertyOp33
 70
     1
102
RTVSPropertyOp34
 70
     1
102
RTVSPropertyOp35
 70
     1
102
RTVSPropertyOp36
 70
     1
102
RTVSPropertyOp37
 70
     1
102
RTVSPropertyOp38
 70
     1
102
RTVSPropertyOp39
 70
     1
102
RTVSPropertyOp40
 70
     1
102
RTVSPropertyOp41
 70
     1
102
RTVSPropertyOp42
 70
     1
102
RTVSPropertyOp43
 70
     1
102
RTVSPropertyOp44
 70
     1
102
RTVSPropertyOp45
 70
     1
102
RTVSPropertyOp46
 70
     1
102
RTVSPropertyOp47
 70
     1
102
RTVSPropertyOp48
 70
     1
102
RTVSPropertyOp49
 70
     1
102
RTVSPropertyOp50
 70
     1
102
RTVSPropertyOp51
 70
     0
102
RTVSPropertyOp52
 70
     0
102
RTVSPropertyOp53
 70
     1
102
RTVSPropertyOp54
 70
     1
102
RTVSPropertyOp55
 70
     1
102
RTVSPropertyOp56
 70
     1
102
RTVSPropertyOp57
 70
     1
102
RTVSPropertyOp58
 70
     1
102
RTVSPropertyOp59
 70
     1
102
RTVSPropertyOp60
 70
     1
102
RTVSPropertyOp61
 70
     1
102
RTVSPropertyOp62
 70
     1
  0
XRECORD
  5
D4F
102
{ACAD_REACTORS
330
D4E
102
}
330
D4E
100
AcDbXrecord
280
     1
102
RTVSPost2010Prop28
280
     0
102
RTVSPost2010PropOp28
 70
     1
102
RTVSPost2010Prop29
280
     1
102
RTVSPost2010PropOp29
 70
     1
102
RTVSPost2010Prop30
280
     1
102
RTVSPost2010PropOp30
 70
     1
102
RTVSPost2010Prop31
280
     0
102
RTVSPost2010PropOp31
 70
     1
102
RTVSPost2010Prop32
280
     0
102
RTVSPost2010PropOp32
 70
     1
102
RTVSPost2010Prop33
280
     0
102
RTVSPost2010PropOp33
 70
     1
102
RTVSPost2010Prop34
280
     0
102
RTVSPost2010PropOp34
 70
     1
102
RTVSPost2010Prop35
280
     0
102
RTVSPost2010PropOp35
 70
     1
102
RTVSPost2010Prop36
280
     0
102
RTVSPost2010PropOp36
 70
     1
102
RTVSPost2010Prop37
 90
       50
102
RTVSPost2010PropOp37
 70
     1
102
RTVSPost2010Prop38
140
0.0
102
RTVSPost2010PropOp38
 70
     1
102
RTVSPost2010Prop39
140
1.0
102
RTVSPost2010PropOp39
 70
     1
102
RTVSPost2010Prop40
 90
        0
102
RTVSPost2010PropOp40
 70
     1
102
RTVSPost2010Prop41ColorIndex
 90
       18
102
RTVSPost2010Prop41ColorRGB
 90
        0
102
RTVSPost2010PropOp41
 70
     1
102
RTVSPost2010Prop42
 90
       50
102
RTVSPost2010PropOp42
 70
     1
102
RTVSPost2010Prop43
 90
        3
102
RTVSPost2010PropOp43
 70
     1
102
RTVSPost2010Prop44ColorIndex
 90
        5
102
RTVSPost2010Prop44ColorRGB
 90
      255
102
RTVSPost2010PropOp44
 70
     1
102
RTVSPost2010Prop45
280
     0
102
RTVSPost2010PropOp45
 70
     1
102
RTVSPost2010Prop46
 90
       50
102
RTVSPost2010PropOp46
 70
     1
102
RTVSPost2010Prop47
 90
       50
102
RTVSPost2010PropOp47
 70
     1
102
RTVSPost2010Prop48
 90
       50
102
RTVSPost2010PropOp48
 70
     1
102
RTVSPost2010Prop49
280
     0
102
RTVSPost2010PropOp49
 70
     1
102
RTVSPost2010Prop50
 90
       50
102
RTVSPost2010PropOp50
 70
     1
102
RTVSPost2010Prop51ColorIndex
 90
      256
102
RTVSPost2010Prop51ColorRGB
 90
-16777216
102
RTVSPost2010PropOp51
 70
     0
102
RTVSPost2010Prop52
140
1.0
102
RTVSPost2010PropOp52
 70
     0
102
RTVSPost2010Prop53
 90
        2
102
RTVSPost2010PropOp53
 70
     1
102
RTVSPost2010Prop54
  1
strokes_ogs.tif
102
RTVSPost2010PropOp54
 70
     1
102
RTVSPost2010Prop55
280
     0
102
RTVSPost2010PropOp55
 70
     1
102
RTVSPost2010Prop56
140
1.0
102
RTVSPost2010PropOp56
 70
     1
102
RTVSPost2010Prop57
140
1.0
102
RTVSPost2010PropOp57
 70
     1
102
RTVSPropertyOp0
 70
     1
102
RTVSPropertyOp1
 70
     1
102
RTVSPropertyOp2
 70
     1
102
RTVSPropertyOp3
 70
     1
102
RTVSPropertyOp4
 70
     1
102
RTVSPropertyOp5
 70
     1
102
RTVSPropertyOp6
 70
     1
102
RTVSPropertyOp7
 70
     1
102
RTVSPropertyOp8
 70
     1
102
RTVSPropertyOp9
 70
     1
102
RTVSPropertyOp10
 70
     1
102
RTVSPropertyOp11
 70
     1
102
RTVSPropertyOp12
 70
     1
102
RTVSPropertyOp13
 70
     1
102
RTVSPropertyOp14
 70
     1
102
RTVSPropertyOp15
 70
     1
102
RTVSPropertyOp16
 70
     1
102
RTVSPropertyOp17
 70
     1
102
RTVSPropertyOp18
 70
     1
102
RTVSPropertyOp19
 70
     1
102
RTVSPropertyOp20
 70
     1
102
RTVSPropertyOp21
 70
     1
102
RTVSPropertyOp22
 70
     1
102
RTVSPropertyOp23
 70
     1
102
RTVSPropertyOp24
 70
     1
102
RTVSPropertyOp25
 70
     1
102
RTVSPropertyOp26
 70
     1
102
RTVSPropertyOp27
 70
     1
102
RTVSPropertyOp28
 70
     1
102
RTVSPropertyOp29
 70
     1
102
RTVSPropertyOp30
 70
     1
102
RTVSPropertyOp31
 70
     1
102
RTVSPropertyOp32
 70
     1
102
RTVSPropertyOp33
 70
     1
102
RTVSPropertyOp34
 70
     1
102
RTVSPropertyOp35
 70
     1
102
RTVSPropertyOp36
 70
     1
102
RTVSPropertyOp37
 70
     1
102
RTVSPropertyOp38
 70
     1
102
RTVSPropertyOp39
 70
     1
102
RTVSPropertyOp40
 70
     1
102
RTVSPropertyOp41
 70
     1
102
RTVSPropertyOp42
 70
     1
102
RTVSPropertyOp43
 70
     1
102
RTVSPropertyOp44
 70
     1
102
RTVSPropertyOp45
 70
     1
102
RTVSPropertyOp46
 70
     1
102
RTVSPropertyOp47
 70
     1
102
RTVSPropertyOp48
 70
     1
102
RTVSPropertyOp49
 70
     1
102
RTVSPropertyOp50
 70
     1
102
RTVSPropertyOp51
 70
     0
102
RTVSPropertyOp52
 70
     0
102
RTVSPropertyOp53
 70
     1
102
RTVSPropertyOp54
 70
     1
102
RTVSPropertyOp55
 70
     1
102
RTVSPropertyOp56
 70
     1
102
RTVSPropertyOp57
 70
     1
102
RTVSPropertyOp58
 70
     1
102
RTVSPropertyOp59
 70
     1
102
RTVSPropertyOp60
 70
     1
102
RTVSPropertyOp61
 70
     1
102
RTVSPropertyOp62
 70
     1
  0
XRECORD
  5
D67
102
{ACAD_REACTORS
330
D66
102
}
330
D66
100
AcDbXrecord
280
     1
102
RTVSPost2010Prop28
280
     0
102
RTVSPost2010PropOp28
 70
     1
102
RTVSPost2010Prop29
280
     1
102
RTVSPost2010PropOp29
 70
     1
102
RTVSPost2010Prop30
280
     1
102
RTVSPost2010PropOp30
 70
     1
102
RTVSPost2010Prop31
280
     0
102
RTVSPost2010PropOp31
 70
     1
102
RTVSPost2010Prop32
280
     0
102
RTVSPost2010PropOp32
 70
     1
102
RTVSPost2010Prop33
280
     0
102
RTVSPost2010PropOp33
 70
     1
102
RTVSPost2010Prop34
280
     0
102
RTVSPost2010PropOp34
 70
     1
102
RTVSPost2010Prop35
280
     0
102
RTVSPost2010PropOp35
 70
     1
102
RTVSPost2010Prop36
280
     0
102
RTVSPost2010PropOp36
 70
     1
102
RTVSPost2010Prop37
 90
       50
102
RTVSPost2010PropOp37
 70
     1
102
RTVSPost2010Prop38
140
0.0
102
RTVSPost2010PropOp38
 70
     1
102
RTVSPost2010Prop39
140
1.0
102
RTVSPost2010PropOp39
 70
     1
102
RTVSPost2010Prop40
 90
        0
102
RTVSPost2010PropOp40
 70
     1
102
RTVSPost2010Prop41ColorIndex
 90
       18
102
RTVSPost2010Prop41ColorRGB
 90
        0
102
RTVSPost2010PropOp41
 70
     1
102
RTVSPost2010Prop42
 90
       50
102
RTVSPost2010PropOp42
 70
     1
102
RTVSPost2010Prop43
 90
        3
102
RTVSPost2010PropOp43
 70
     1
102
RTVSPost2010Prop44ColorIndex
 90
        5
102
RTVSPost2010Prop44ColorRGB
 90
      255
102
RTVSPost2010PropOp44
 70
     1
102
RTVSPost2010Prop45
280
     0
102
RTVSPost2010PropOp45
 70
     1
102
RTVSPost2010Prop46
 90
       50
102
RTVSPost2010PropOp46
 70
     1
102
RTVSPost2010Prop47
 90
       50
102
RTVSPost2010PropOp47
 70
     1
102
RTVSPost2010Prop48
 90
       50
102
RTVSPost2010PropOp48
 70
     1
102
RTVSPost2010Prop49
280
     0
102
RTVSPost2010PropOp49
 70
     1
102
RTVSPost2010Prop50
 90
       50
102
RTVSPost2010PropOp50
 70
     1
102
RTVSPost2010Prop51ColorIndex
 90
      256
102
RTVSPost2010Prop51ColorRGB
 90
-16777216
102
RTVSPost2010PropOp51
 70
     0
102
RTVSPost2010Prop52
140
1.0
102
RTVSPost2010PropOp52
 70
     0
102
RTVSPost2010Prop53
 90
        2
102
RTVSPost2010PropOp53
 70
     1
102
RTVSPost2010Prop54
  1
strokes_ogs.tif
102
RTVSPost2010PropOp54
 70
     1
102
RTVSPost2010Prop55
280
     0
102
RTVSPost2010PropOp55
 70
     1
102
RTVSPost2010Prop56
140
1.0
102
RTVSPost2010PropOp56
 70
     1
102
RTVSPost2010Prop57
140
1.0
102
RTVSPost2010PropOp57
 70
     1
102
RTVSPropertyOp0
 70
     1
102
RTVSPropertyOp1
 70
     1
102
RTVSPropertyOp2
 70
     1
102
RTVSPropertyOp3
 70
     1
102
RTVSPropertyOp4
 70
     1
102
RTVSPropertyOp5
 70
     1
102
RTVSPropertyOp6
 70
     1
102
RTVSPropertyOp7
 70
     1
102
RTVSPropertyOp8
 70
     1
102
RTVSPropertyOp9
 70
     1
102
RTVSPropertyOp10
 70
     1
102
RTVSPropertyOp11
 70
     1
102
RTVSPropertyOp12
 70
     1
102
RTVSPropertyOp13
 70
     1
102
RTVSPropertyOp14
 70
     1
102
RTVSPropertyOp15
 70
     1
102
RTVSPropertyOp16
 70
     1
102
RTVSPropertyOp17
 70
     1
102
RTVSPropertyOp18
 70
     1
102
RTVSPropertyOp19
 70
     1
102
RTVSPropertyOp20
 70
     1
102
RTVSPropertyOp21
 70
     1
102
RTVSPropertyOp22
 70
     1
102
RTVSPropertyOp23
 70
     1
102
RTVSPropertyOp24
 70
     1
102
RTVSPropertyOp25
 70
     1
102
RTVSPropertyOp26
 70
     1
102
RTVSPropertyOp27
 70
     1
102
RTVSPropertyOp28
 70
     1
102
RTVSPropertyOp29
 70
     1
102
RTVSPropertyOp30
 70
     1
102
RTVSPropertyOp31
 70
     1
102
RTVSPropertyOp32
 70
     1
102
RTVSPropertyOp33
 70
     1
102
RTVSPropertyOp34
 70
     1
102
RTVSPropertyOp35
 70
     1
102
RTVSPropertyOp36
 70
     1
102
RTVSPropertyOp37
 70
     1
102
RTVSPropertyOp38
 70
     1
102
RTVSPropertyOp39
 70
     1
102
RTVSPropertyOp40
 70
     1
102
RTVSPropertyOp41
 70
     1
102
RTVSPropertyOp42
 70
     1
102
RTVSPropertyOp43
 70
     1
102
RTVSPropertyOp44
 70
     1
102
RTVSPropertyOp45
 70
     1
102
RTVSPropertyOp46
 70
     1
102
RTVSPropertyOp47
 70
     1
102
RTVSPropertyOp48
 70
     1
102
RTVSPropertyOp49
 70
     1
102
RTVSPropertyOp50
 70
     1
102
RTVSPropertyOp51
 70
     0
102
RTVSPropertyOp52
 70
     0
102
RTVSPropertyOp53
 70
     1
102
RTVSPropertyOp54
 70
     1
102
RTVSPropertyOp55
 70
     1
102
RTVSPropertyOp56
 70
     1
102
RTVSPropertyOp57
 70
     1
102
RTVSPropertyOp58
 70
     1
102
RTVSPropertyOp59
 70
     1
102
RTVSPropertyOp60
 70
     1
102
RTVSPropertyOp61
 70
     1
102
RTVSPropertyOp62
 70
     1
  0
ENDSEC
  0
EOF
